  0
SECTION
  2
HEADER
  9
$ACADVER
  1
AC1009
  9
$INSBASE
 10
0.0
 20
0.0
 30
0.0
  9
$EXTMIN
 10
-1046.639349024925
 20
-931.94247499999994
 30
0.0
  9
$EXTMAX
 10
1726.7522336451191
 20
521.42006052635668
 30
0.0
  9
$LIMMIN
 10
-4200.0
 20
-2970.0
  9
$LIMMAX
 10
4200.0
 20
2970.0
  9
$ORTHOMODE
 70
     1
  9
$REGENMODE
 70
     0
  9
$FILLMODE
 70
     1
  9
$QTEXTMODE
 70
     0
  9
$MIRRTEXT
 70
     0
  9
$DRAGMODE
 70
     2
  9
$LTSCALE
 40
20.0
  9
$OSMODE
 70
   167
  9
$ATTMODE
 70
     1
  9
$TEXTSIZE
 40
64.0
  9
$TRACEWID
 40
0.05
  9
$TEXTSTYLE
  7
STANDARD
  9
$CLAYER
  8
0
  9
$CELTYPE
  6
CONTINUOUS
  9
$CECOLOR
 62
     8
  9
$DIMSCALE
 40
1.0
  9
$DIMASZ
 40
2.0
  9
$DIMEXO
 40
20.0
  9
$DIMDLI
 40
200.0
  9
$DIMRND
 40
0.0
  9
$DIMDLE
 40
0.0
  9
$DIMEXE
 40
30.0
  9
$DIMTP
 40
0.0
  9
$DIMTM
 40
0.0
  9
$DIMTXT
 40
64.0
  9
$DIMCEN
 40
0.09
  9
$DIMTSZ
 40
0.0
  9
$DIMTOL
 70
     0
  9
$DIMLIM
 70
     0
  9
$DIMTIH
 70
     0
  9
$DIMTOH
 70
     0
  9
$DIMSE1
 70
     0
  9
$DIMSE2
 70
     0
  9
$DIMTAD
 70
     1
  9
$DIMZIN
 70
     8
  9
$DIMBLK
  1

  9
$DIMASO
 70
     1
  9
$DIMSHO
 70
     0
  9
$DIMPOST
  1

  9
$DIMAPOST
  1

  9
$DIMALT
 70
     0
  9
$DIMALTD
 70
     2
  9
$DIMALTF
 40
25.399999999999999
  9
$DIMLFAC
 40
1.0
  9
$DIMTOFL
 70
     1
  9
$DIMTVP
 40
0.0
  9
$DIMTIX
 70
     1
  9
$DIMSOXD
 70
     0
  9
$DIMSAH
 70
     0
  9
$DIMBLK1
  1

  9
$DIMBLK2
  1

  9
$DIMSTYLE
  2
STANDARD
  9
$DIMCLRD
 70
     0
  9
$DIMCLRE
 70
     0
  9
$DIMCLRT
 70
     0
  9
$DIMTFAC
 40
1.0
  9
$DIMGAP
 40
0.09
  9
$LUNITS
 70
     2
  9
$LUPREC
 70
     4
  9
$SKETCHINC
 40
0.1
  9
$FILLETRAD
 40
30.0
  9
$AUNITS
 70
     1
  9
$AUPREC
 70
     3
  9
$MENU
  1
ACAD
  9
$ELEVATION
 40
0.0
  9
$PELEVATION
 40
0.0
  9
$THICKNESS
 40
0.0
  9
$LIMCHECK
 70
     1
  9
$BLIPMODE
 70
     0
  9
$CHAMFERA
 40
0.0
  9
$CHAMFERB
 40
0.0
  9
$SKPOLY
 70
     0
  9
$TDCREATE
 40
2451999.6027199072
  9
$TDUPDATE
 40
2455043.6001048838
  9
$TDINDWG
 40
0.060896794
  9
$TDUSRTIMER
 40
0.0608964468
  9
$USRTIMER
 70
     1
  9
$ANGBASE
 50
0.0
  9
$ANGDIR
 70
     0
  9
$PDMODE
 70
     3
  9
$PDSIZE
 40
-2.0
  9
$PLINEWID
 40
0.0
  9
$COORDS
 70
     2
  9
$SPLFRAME
 70
     0
  9
$SPLINETYPE
 70
     6
  9
$SPLINESEGS
 70
     8
  9
$ATTDIA
 70
     0
  9
$ATTREQ
 70
     1
  9
$HANDLING
 70
 22529
  9
$HANDSEED
  5
658
  9
$SURFTAB1
 70
     6
  9
$SURFTAB2
 70
     6
  9
$SURFTYPE
 70
     6
  9
$SURFU
 70
     6
  9
$SURFV
 70
     6
  9
$UCSNAME
  2

  9
$UCSORG
 10
0.0
 20
0.0
 30
0.0
  9
$UCSXDIR
 10
1.0
 20
0.0
 30
0.0
  9
$UCSYDIR
 10
0.0
 20
1.0
 30
0.0
  9
$PUCSNAME
  2

  9
$PUCSORG
 10
0.0
 20
0.0
 30
0.0
  9
$PUCSXDIR
 10
1.0
 20
0.0
 30
0.0
  9
$PUCSYDIR
 10
0.0
 20
1.0
 30
0.0
  9
$USERI1
 70
     0
  9
$USERI2
 70
     0
  9
$USERI3
 70
     0
  9
$USERI4
 70
     0
  9
$USERI5
 70
     0
  9
$USERR1
 40
20.0
  9
$USERR2
 40
0.0
  9
$USERR3
 40
0.0
  9
$USERR4
 40
0.0
  9
$USERR5
 40
0.0
  9
$WORLDVIEW
 70
     1
  9
$SHADEDGE
 70
     3
  9
$SHADEDIF
 70
    70
  9
$TILEMODE
 70
     1
  9
$MAXACTVP
 70
    48
  9
$PLIMCHECK
 70
     0
  9
$PEXTMIN
 10
1.0000000000000000E+020
 20
1.0000000000000000E+020
 30
1.0000000000000000E+020
  9
$PEXTMAX
 10
-1.0000000000000000E+020
 20
-1.0000000000000000E+020
 30
-1.0000000000000000E+020
  9
$PLIMMIN
 10
0.0
 20
0.0
  9
$PLIMMAX
 10
12.0
 20
9.0
  9
$UNITMODE
 70
     0
  9
$VISRETAIN
 70
     1
  9
$PLINEGEN
 70
     0
  9
$PSLTSCALE
 70
     1
  0
ENDSEC
  0
SECTION
  2
TABLES
  0
TABLE
  2
VPORT
 70
     3
  0
VPORT
  2
*ACTIVE
 70
     0
 10
0.0
 20
0.0
 11
1.0
 21
1.0
 12
173.7402576705999
 22
-170.92940232986871
 13
0.0
 23
0.0
 14
400.0
 24
400.0
 15
400.0
 25
400.0
 16
0.0
 26
0.0
 36
1.0
 17
0.0
 27
0.0
 37
0.0
 40
2762.9338063303589
 41
1.493654822335025
 42
50.0
 43
0.0
 44
0.0
 50
0.0
 51
0.0
 71
     0
 72
   500
 73
     1
 74
     0
 75
     0
 76
     0
 77
     0
 78
     1
  0
ENDTAB
  0
TABLE
  2
LTYPE
 70
     7
  0
LTYPE
  2
CONTINUOUS
 70
     0
  3
実線
 72
    65
 73
     0
 40
0.0
  0
LTYPE
  2
DOT
 70
     0
  3
...............................................
 72
    65
 73
     2
 40
0.8
 49
0.5
 49
-0.3
  0
LTYPE
  2
DASHED
 70
     0
  3
_ _ _ _ _ _ _ _ _ _ _ _ _ _ _ _ _ _ _ _ _ _ _
 72
    65
 73
     2
 40
2.0
 49
1.1999999999999991
 49
-0.8
  0
LTYPE
  2
DASHDOT
 70
     0
  3
____ _ ____ _ ____ _ ____ _ ____ _ ____ _ ____
 72
    65
 73
     4
 40
5.5
 49
4.0
 49
-0.6
 49
0.3
 49
-0.6
  0
LTYPE
  2
DASHDOT1
 70
     0
  3
____ _ ____ _ ____ _ ____ _ ____ _ ____ _ ____
 72
    65
 73
     4
 40
2.0
 49
1.5
 49
-0.2
 49
0.1
 49
-0.2
  0
LTYPE
  2
DIVIDE
 70
     0
  3
_____ _ _ _____ _ _ _____ _ _ _____ _ _ ____
 72
    65
 73
     6
 40
6.4000000000000004
 49
4.0
 49
-0.6
 49
0.3
 49
-0.6
 49
0.3
 49
-0.6
  0
LTYPE
  2
DIVIDE1
 70
     0
  3
_____ _ _ _____ _ _ _____ _ _ _____ _ _ ____
 72
    65
 73
     6
 40
3.2000000000000002
 49
2.0
 49
-0.3
 49
0.15
 49
-0.3
 49
0.15
 49
-0.3
  0
ENDTAB
  0
TABLE
  2
LAYER
 70
    12
  0
LAYER
  2
0
 70
     0
 62
     7
  6
CONTINUOUS
  0
LAYER
  2
OUTLINE
 70
     0
 62
     3
  6
CONTINUOUS
  0
LAYER
  2
DETAIL
 70
     0
 62
     5
  6
CONTINUOUS
  0
LAYER
  2
BASIS
 70
     0
 62
     6
  6
DASHDOT
  0
LAYER
  2
SIZE
 70
     0
 62
    30
  6
CONTINUOUS
  0
LAYER
  2
NOTE
 70
     0
 62
     4
  6
CONTINUOUS
  0
LAYER
  2
ARRANGE
 70
     0
 62
     1
  6
CONTINUOUS
  0
LAYER
  2
FIX
 70
     0
 62
    11
  6
CONTINUOUS
  0
LAYER
  2
ETC
 70
     0
 62
    61
  6
CONTINUOUS
  0
LAYER
  2
DEFPOINTS
 70
     0
 62
     7
  6
CONTINUOUS
  0
LAYER
  2
SERVICESPACE
 70
     0
 62
     2
  6
DASHDOT
  0
LAYER
  2
SYMBOLLINE
 70
     0
 62
    15
  6
CONTINUOUS
  0
ENDTAB
  0
TABLE
  2
STYLE
 70
     1
  0
STYLE
  2
STANDARD
 70
     0
 40
0.0
 41
0.9
 50
0.0
 71
     0
 42
64.0
  3
SIMPLEX
  4
BIGFONT
  0
ENDTAB
  0
TABLE
  2
VIEW
 70
     1
  0
VIEW
  2
ALL
 70
     0
 40
6374.9789810000002
 10
0.0
 20
58.11501599999999
 41
8842.1052629999976
 11
0.0
 21
0.0
 31
1.0
 12
0.0
 22
0.0
 32
0.0
 42
50.0
 43
0.0
 44
0.0
 50
0.0
 71
     0
  0
ENDTAB
  0
TABLE
  2
UCS
 70
     0
  0
ENDTAB
  0
TABLE
  2
APPID
 70
     1
  0
APPID
  2
ACAD
 70
     0
  0
ENDTAB
  0
TABLE
  2
DIMSTYLE
 70
     1
  0
DIMSTYLE
  2
STANDARD
 70
     0
  3

  4

  5

  6

  7

 40
1.0
 41
0.18
 42
0.0625
 43
0.38
 44
0.18
 45
0.0
 46
0.0
 47
0.0
 48
0.0
140
0.18
141
0.09
142
0.0
143
25.399999999999999
144
1.0
145
0.0
146
1.0
147
0.09
 71
     0
 72
     0
 73
     1
 74
     1
 75
     0
 76
     0
 77
     0
 78
     0
170
     0
171
     2
172
     0
173
     0
174
     0
175
     0
176
     0
177
     0
178
     0
  0
ENDTAB
  0
ENDSEC
  0
SECTION
  2
BLOCKS
  0
BLOCK
  8
0
  2
$MODEL_SPACE
 70
     0
 10
0.0
 20
0.0
 30
0.0
  3
$MODEL_SPACE
  1

  0
ENDBLK
  5
50E
  8
0
  0
BLOCK
 67
     1
  8
0
  2
$PAPER_SPACE
 70
     0
 10
0.0
 20
0.0
 30
0.0
  3
$PAPER_SPACE
  1

  0
ENDBLK
  5
50A
 67
     1
  8
0
  0
ENDSEC
  0
SECTION
  2
ENTITIES
  0
LINE
  5
52C
  8
NOTE
  6
CONTINUOUS
 62
     4
 10
260.0
 20
-280.0
 30
0.0
 11
260.0
 21
-320.0
 31
0.0
  0
LINE
  5
52D
  8
NOTE
  6
CONTINUOUS
 62
     4
 10
279.99999999999989
 20
-300.0
 30
0.0
 11
240.0
 21
-300.0
 31
0.0
  0
LINE
  5
52E
  8
NOTE
  6
CONTINUOUS
 62
     4
 10
270.0
 20
-330.0
 30
0.0
 11
229.99999999999989
 21
-330.0
 31
0.0
  0
LINE
  5
52F
  8
NOTE
  6
CONTINUOUS
 62
     4
 10
249.99999999999989
 20
-310.0
 30
0.0
 11
249.99999999999989
 21
-350.0
 31
0.0
  0
LINE
  5
530
  8
NOTE
  6
CONTINUOUS
 62
     4
 10
-279.99999999999989
 20
-300.0
 30
0.0
 11
-239.99999999999989
 21
-300.0
 31
0.0
  0
LINE
  5
531
  8
NOTE
  6
CONTINUOUS
 62
     4
 10
-259.99999999999989
 20
-280.0
 30
0.0
 11
-259.99999999999989
 21
-320.0
 31
0.0
  0
LINE
  5
532
  8
NOTE
  6
CONTINUOUS
 62
     4
 10
-249.99999999999989
 20
-310.0
 30
0.0
 11
-249.99999999999989
 21
-350.0
 31
0.0
  0
LINE
  5
533
  8
NOTE
  6
CONTINUOUS
 62
     4
 10
-269.99999999999989
 20
-330.0
 30
0.0
 11
-229.99999999999989
 21
-330.0
 31
0.0
  0
LINE
  5
534
  8
NOTE
  6
CONTINUOUS
 62
     4
 10
-269.99999999999989
 20
-15.0
 30
0.0
 11
-229.99999999999989
 21
-15.0
 31
0.0
  0
LINE
  5
535
  8
NOTE
  6
CONTINUOUS
 62
     4
 10
-249.99999999999989
 20
5.0
 30
0.0
 11
-249.99999999999989
 21
-35.0
 31
0.0
  0
LINE
  5
536
  8
NOTE
  6
CONTINUOUS
 62
     4
 10
270.0
 20
-15.0
 30
0.0
 11
229.99999999999989
 21
-15.0
 31
0.0
  0
LINE
  5
537
  8
NOTE
  6
CONTINUOUS
 62
     4
 10
249.99999999999989
 20
5.0
 30
0.0
 11
249.99999999999989
 21
-35.0
 31
0.0
  0
LINE
  5
538
  8
BASIS
  6
DASHDOT
 62
     6
 10
-0.0000000000000568
 20
90.643934000000002
 30
0.0
 11
-0.0000000000000568
 21
-645.94651900000019
 31
0.0
  0
LINE
  5
539
  8
BASIS
  6
DASHDOT
 62
     6
 10
-315.88981099999978
 20
-125.0
 30
0.0
 11
-23.594582000000049
 21
-125.0
 31
0.0
  0
LINE
  5
53A
  8
BASIS
  6
DASHDOT
 62
     6
 10
-175.0
 20
16.144262000000001
 30
0.0
 11
-175.0
 21
-265.5796689999998
 31
0.0
  0
LINE
  5
53B
  8
DETAIL
  6
CONTINUOUS
 62
     5
 10
449.99999999999989
 20
0.0
 30
0.0
 11
449.99999999999989
 21
-550.0
 31
0.0
  0
LINE
  5
53C
  8
DETAIL
  6
CONTINUOUS
 62
     5
 10
-449.99999999999989
 20
0.0
 30
0.0
 11
-449.99999999999989
 21
-550.0
 31
0.0
  0
LINE
  5
53D
  8
DETAIL
  6
CONTINUOUS
 62
     5
 10
449.99999999999989
 20
0.0
 30
0.0
 11
-449.99999999999989
 21
0.0
 31
0.0
  0
LINE
  5
53E
  8
DETAIL
  6
CONTINUOUS
 62
     5
 10
420.00000000000011
 20
-580.0
 30
0.0
 11
-419.99999999999989
 21
-580.0
 31
0.0
  0
LINE
  5
53F
  8
DETAIL
  6
CONTINUOUS
 62
     5
 10
266.99999999999989
 20
-25.0
 30
0.0
 11
82.999999999999886
 21
-25.0
 31
0.0
  0
LINE
  5
540
  8
DETAIL
  6
CONTINUOUS
 62
     5
 10
266.99999999999989
 20
-225.0
 30
0.0
 11
82.999999999999886
 21
-225.0
 31
0.0
  0
LINE
  5
541
  8
DETAIL
  6
CONTINUOUS
 62
     5
 10
274.99999999999989
 20
-33.0
 30
0.0
 11
274.99999999999989
 21
-217.0
 31
0.0
  0
LINE
  5
542
  8
DETAIL
  6
CONTINUOUS
 62
     5
 10
74.999999999999886
 20
-33.0
 30
0.0
 11
74.999999999999886
 21
-217.0
 31
0.0
  0
LINE
  5
543
  8
DETAIL
  6
CONTINUOUS
 62
     5
 10
-266.99999999999989
 20
-25.0
 30
0.0
 11
-83.000000000000014
 21
-25.0
 31
0.0
  0
LINE
  5
544
  8
DETAIL
  6
CONTINUOUS
 62
     5
 10
-274.99999999999989
 20
-33.0
 30
0.0
 11
-274.99999999999989
 21
-217.0
 31
0.0
  0
LINE
  5
545
  8
DETAIL
  6
CONTINUOUS
 62
     5
 10
-266.99999999999989
 20
-225.0
 30
0.0
 11
-83.000000000000014
 21
-225.0
 31
0.0
  0
LINE
  5
546
  8
DETAIL
  6
CONTINUOUS
 62
     5
 10
-75.000000000000028
 20
-33.0
 30
0.0
 11
-75.000000000000028
 21
-217.0
 31
0.0
  0
CIRCLE
  5
547
  8
DETAIL
  6
CONTINUOUS
 62
     5
 10
260.0
 20
-300.0
 30
0.0
 40
6.5
  0
CIRCLE
  5
548
  8
DETAIL
  6
CONTINUOUS
 62
     5
 10
-259.99999999999989
 20
-300.0
 30
0.0
 40
6.5
  0
CIRCLE
  5
549
  8
DETAIL
  6
CONTINUOUS
 62
     5
 10
249.99999999999989
 20
-15.0
 30
0.0
 40
5.0
  0
CIRCLE
  5
54A
  8
DETAIL
  6
CONTINUOUS
 62
     5
 10
-249.99999999999989
 20
-15.0
 30
0.0
 40
5.0
  0
CIRCLE
  5
54B
  8
DETAIL
  6
CONTINUOUS
 62
     5
 10
-249.99999999999989
 20
-330.0
 30
0.0
 40
5.0
  0
CIRCLE
  5
54C
  8
DETAIL
  6
CONTINUOUS
 62
     5
 10
249.99999999999989
 20
-330.0
 30
0.0
 40
5.0
  0
CIRCLE
  5
54D
  8
FIX
  6
CONTINUOUS
 62
    11
 10
260.0
 20
-300.0
 30
0.0
 40
6.5
  0
CIRCLE
  5
54E
  8
FIX
  6
CONTINUOUS
 62
    11
 10
-259.99999999999989
 20
-300.0
 30
0.0
 40
6.5
  0
LINE
  5
54F
  8
NOTE
  6
CONTINUOUS
 62
     4
 10
-0.0000000000000568
 20
-110.0
 30
0.0
 11
67.016066000000023
 21
-386.63721800000002
 31
0.0
  0
LINE
  5
550
  8
NOTE
  6
CONTINUOUS
 62
     4
 10
202.06611699999999
 20
-386.63721800000002
 30
0.0
 11
67.016066000000023
 21
-386.63721800000002
 31
0.0
  0
TEXT
  5
551
  8
NOTE
  6
CONTINUOUS
 62
     4
 10
93.796129571428665
 20
-357.46022999999991
 30
0.0
 40
64.0
  1
EL
 41
0.9
  0
LINE
  5
552
  8
NOTE
  6
CONTINUOUS
 62
     4
 10
260.0
 20
-300.0
 30
0.0
 11
614.71623699999975
 21
-507.32772799999998
 31
0.0
  0
LINE
  5
553
  8
NOTE
  6
CONTINUOUS
 62
     4
 10
1077.799829999999
 20
-507.32772799999998
 30
0.0
 11
614.71623699999975
 21
-507.32772799999998
 31
0.0
  0
TEXT
  5
554
  8
NOTE
  6
CONTINUOUS
 62
     4
 10
628.98427285714206
 20
-478.6753759999998
 30
0.0
 40
64.0
  1
AH 2-φ13
 41
0.9
  0
LINE
  5
555
  8
NOTE
  6
CONTINUOUS
 62
     4
 10
249.99999999999989
 20
-330.0
 30
0.0
 11
622.86385700000005
 21
-644.1103049999997
 31
0.0
  0
LINE
  5
556
  8
NOTE
  6
CONTINUOUS
 62
     4
 10
622.86385700000005
 20
-644.1103049999997
 30
0.0
 11
982.32948699999895
 21
-644.1103049999997
 31
0.0
  0
TEXT
  5
557
  8
NOTE
  6
CONTINUOUS
 62
     4
 10
663.21501314285729
 20
-615.48945700000002
 30
0.0
 40
64.0
  1
4-φ10
 41
0.9
  0
LINE
  5
558
  8
DETAIL
  6
CONTINUOUS
 62
     5
 10
420.00000000000011
 20
-485.0
 30
0.0
 11
-419.99999999999989
 21
-485.0
 31
0.0
  0
CIRCLE
  5
559
  8
DETAIL
  6
CONTINUOUS
 62
     5
 10
-175.0
 20
-125.0
 30
0.0
 40
74.0
  0
CIRCLE
  5
55A
  8
DETAIL
  6
CONTINUOUS
 62
     5
 10
-175.0
 20
-125.0
 30
0.0
 40
77.0
  0
LINE
  5
55B
  8
SIZE
  6
CONTINUOUS
 62
    30
 10
-661.97623999999973
 20
-201.0
 30
0.0
 11
-661.97623999999973
 21
-427.84852199999989
 31
0.0
  0
LINE
  5
55C
  8
SIZE
  6
CONTINUOUS
 62
    30
 10
-812.32580999999948
 20
-204.0
 30
0.0
 11
-812.32580999999948
 21
-433.70960700000001
 31
0.0
  0
LINE
  5
55D
  8
DETAIL
  6
CONTINUOUS
 62
     5
 10
266.99999999999989
 20
-25.0
 30
0.0
 11
274.99999999999989
 21
-33.0
 31
0.0
  0
LINE
  5
55E
  8
DETAIL
  6
CONTINUOUS
 62
     5
 10
274.99999999999989
 20
-217.0
 30
0.0
 11
266.99999999999989
 21
-225.0
 31
0.0
  0
LINE
  5
55F
  8
DETAIL
  6
CONTINUOUS
 62
     5
 10
82.999999999999886
 20
-225.0
 30
0.0
 11
74.999999999999886
 21
-217.0
 31
0.0
  0
LINE
  5
560
  8
DETAIL
  6
CONTINUOUS
 62
     5
 10
82.999999999999886
 20
-25.0
 30
0.0
 11
74.999999999999886
 21
-33.0
 31
0.0
  0
LINE
  5
561
  8
DETAIL
  6
CONTINUOUS
 62
     5
 10
-83.000000000000014
 20
-25.0
 30
0.0
 11
-75.000000000000028
 21
-33.0
 31
0.0
  0
LINE
  5
562
  8
DETAIL
  6
CONTINUOUS
 62
     5
 10
-75.000000000000028
 20
-217.0
 30
0.0
 11
-83.000000000000014
 21
-225.0
 31
0.0
  0
LINE
  5
563
  8
DETAIL
  6
CONTINUOUS
 62
     5
 10
-266.99999999999989
 20
-225.0
 30
0.0
 11
-274.99999999999989
 21
-217.0
 31
0.0
  0
LINE
  5
564
  8
DETAIL
  6
CONTINUOUS
 62
     5
 10
-266.99999999999989
 20
-25.0
 30
0.0
 11
-274.99999999999989
 21
-33.0
 31
0.0
  0
LINE
  5
565
  8
DETAIL
  6
CONTINUOUS
 62
     5
 10
435.00000000000011
 20
0.0
 30
0.0
 11
435.00000000000011
 21
-365.0
 31
0.0
  0
LINE
  5
566
  8
DETAIL
  6
CONTINUOUS
 62
     5
 10
-434.99999999999989
 20
0.0
 30
0.0
 11
-434.99999999999989
 21
-365.0
 31
0.0
  0
LINE
  5
567
  8
DETAIL
  6
CONTINUOUS
 62
     5
 10
-421.99999999999989
 20
-365.0
 30
0.0
 11
-421.99999999999989
 21
-579.93325900000002
 31
0.0
  0
LINE
  5
568
  8
DETAIL
  6
CONTINUOUS
 62
     5
 10
421.99999999999989
 20
-467.49999999999989
 30
0.0
 11
-421.99999999999989
 21
-467.49999999999989
 31
0.0
  0
LINE
  5
569
  8
DETAIL
  6
CONTINUOUS
 62
     5
 10
-421.99999999999989
 20
-365.0
 30
0.0
 11
-449.99999999999989
 21
-365.0
 31
0.0
  0
TEXT
  5
56A
  8
NOTE
  6
CONTINUOUS
 62
     4
 10
632.03919700000006
 20
-736.69009400000004
 30
0.0
 40
64.0
  1
棚直付用穴
 41
0.9
  0
LINE
  5
56B
  8
DETAIL
  6
CONTINUOUS
 62
     5
 10
262.49999999999989
 20
0.0
 30
0.0
 11
262.49999999999989
 21
6.0
 31
0.0
  0
LINE
  5
56C
  8
DETAIL
  6
CONTINUOUS
 62
     5
 10
237.49999999999989
 20
0.0
 30
0.0
 11
237.49999999999989
 21
6.0
 31
0.0
  0
LINE
  5
56D
  8
DETAIL
  6
CONTINUOUS
 62
     5
 10
262.49999999999989
 20
6.0
 30
0.0
 11
259.49999999999989
 21
6.0
 31
0.0
  0
LINE
  5
56E
  8
DETAIL
  6
CONTINUOUS
 62
     5
 10
259.49999999999989
 20
0.0
 30
0.0
 11
259.49999999999989
 21
6.0
 31
0.0
  0
LINE
  5
56F
  8
DETAIL
  6
CONTINUOUS
 62
     5
 10
240.5
 20
0.0
 30
0.0
 11
240.5
 21
6.0
 31
0.0
  0
LINE
  5
570
  8
DETAIL
  6
CONTINUOUS
 62
     5
 10
240.5
 20
6.0
 30
0.0
 11
237.49999999999989
 21
6.0
 31
0.0
  0
CIRCLE
  5
571
  8
FIX
  6
CONTINUOUS
 62
    11
 10
249.99999999999989
 20
0.0
 30
0.0
 40
6.5
  0
CIRCLE
  5
572
  8
FIX
  6
CONTINUOUS
 62
    11
 10
-249.99999999999989
 20
0.0
 30
0.0
 40
6.5
  0
LINE
  5
573
  8
DETAIL
  6
CONTINUOUS
 62
     5
 10
-240.49999999999989
 20
6.0
 30
0.0
 11
-237.49999999999989
 21
6.0
 31
0.0
  0
LINE
  5
574
  8
DETAIL
  6
CONTINUOUS
 62
     5
 10
-240.49999999999989
 20
0.0
 30
0.0
 11
-240.49999999999989
 21
6.0
 31
0.0
  0
LINE
  5
575
  8
DETAIL
  6
CONTINUOUS
 62
     5
 10
-259.49999999999989
 20
0.0
 30
0.0
 11
-259.49999999999989
 21
6.0
 31
0.0
  0
LINE
  5
576
  8
DETAIL
  6
CONTINUOUS
 62
     5
 10
-262.49999999999989
 20
6.0
 30
0.0
 11
-259.49999999999989
 21
6.0
 31
0.0
  0
LINE
  5
577
  8
DETAIL
  6
CONTINUOUS
 62
     5
 10
-237.49999999999989
 20
0.0
 30
0.0
 11
-237.49999999999989
 21
6.0
 31
0.0
  0
LINE
  5
578
  8
DETAIL
  6
CONTINUOUS
 62
     5
 10
-262.49999999999989
 20
0.0
 30
0.0
 11
-262.49999999999989
 21
6.0
 31
0.0
  0
LINE
  5
579
  8
BASIS
  6
DASHDOT
 62
     6
 10
174.9999999999998
 20
16.144262000000001
 30
0.0
 11
174.9999999999998
 21
-265.5796689999998
 31
0.0
  0
LINE
  5
57A
  8
BASIS
  6
DASHDOT
 62
     6
 10
315.88981099999972
 20
-125.0
 30
0.0
 11
23.594581999999999
 21
-125.0
 31
0.0
  0
LINE
  5
57B
  8
SIZE
  6
CONTINUOUS
 62
    30
 10
-606.36045499999989
 20
0.0
 30
0.0
 11
-606.36045499999989
 21
169.28767899999991
 31
0.0
  0
TEXT
  5
57C
  8
NOTE
  6
CONTINUOUS
 62
     4
 10
597.81221099999971
 20
279.84056699999991
 30
0.0
 40
64.0
  1
取付金具
 41
0.9
  0
LINE
  5
57D
  8
NOTE
  6
CONTINUOUS
 62
     4
 10
571.47589999999991
 20
249.64027200000001
 30
0.0
 11
878.98250099999905
 21
249.64027200000001
 31
0.0
  0
LINE
  5
57E
  8
SIZE
  6
CONTINUOUS
 62
    30
 10
-812.32580999999948
 20
-578.0
 30
0.0
 11
-812.32580999999948
 21
-730.66363999999999
 31
0.0
  0
LINE
  5
57F
  8
SIZE
  6
CONTINUOUS
 62
    30
 10
545.25901900000008
 20
6.0
 30
0.0
 11
545.25901900000008
 21
92.899691999999988
 31
0.0
  0
LINE
  5
580
  8
SIZE
  6
CONTINUOUS
 62
    30
 10
674.39073399999984
 20
0.0
 30
0.0
 11
674.39073399999984
 21
169.37055599999991
 31
0.0
  0
LINE
  5
581
  8
SIZE
  6
CONTINUOUS
 62
    30
 10
953.26392499999895
 20
0.0
 30
0.0
 11
953.26392499999895
 21
131.13512399999999
 31
0.0
  0
LINE
  5
582
  8
NOTE
  6
CONTINUOUS
 62
     4
 10
249.99999999999989
 20
0.0
 30
0.0
 11
571.47589999999991
 21
249.64027200000001
 31
0.0
  0
CIRCLE
  5
583
  8
FIX
  6
CONTINUOUS
 62
    11
 10
249.99999999999989
 20
-15.0
 30
0.0
 40
5.0
  0
CIRCLE
  5
584
  8
DETAIL
  6
CONTINUOUS
 62
     5
 10
-0.0000000000000568
 20
-110.0
 30
0.0
 40
5.0
  0
CIRCLE
  5
585
  8
FIX
  6
CONTINUOUS
 62
    11
 10
-249.99999999999989
 20
-15.0
 30
0.0
 40
5.0
  0
CIRCLE
  5
586
  8
FIX
  6
CONTINUOUS
 62
    11
 10
-249.99999999999989
 20
-330.0
 30
0.0
 40
5.0
  0
CIRCLE
  5
587
  8
FIX
  6
CONTINUOUS
 62
    11
 10
249.99999999999989
 20
-330.0
 30
0.0
 40
5.0
  0
TEXT
  5
588
  8
NOTE
  6
CONTINUOUS
 62
     4
 10
-228.03232199999991
 20
-177.08916999999991
 30
0.0
 40
64.0
  1
EA
 41
0.9
  0
ARC
  5
589
  8
DETAIL
  6
CONTINUOUS
 62
     5
 10
-419.99999999999989
 20
-455.0
 30
0.0
 40
30.0
 50
180.0
 51
270.0
  0
ARC
  5
58A
  8
DETAIL
  6
CONTINUOUS
 62
     5
 10
420.00000000000011
 20
-455.0
 30
0.0
 40
30.0
 50
270.0
 51
0.000000000000007
  0
ARC
  5
58B
  8
DETAIL
  6
CONTINUOUS
 62
     5
 10
420.00000000000011
 20
-550.0
 30
0.0
 40
30.0
 50
270.0
 51
0.000000000000007
  0
ARC
  5
58C
  8
DETAIL
  6
CONTINUOUS
 62
     5
 10
-419.99999999999989
 20
-550.0
 30
0.0
 40
30.0
 50
180.0
 51
270.0
  0
LINE
  5
58D
  8
DETAIL
  6
CONTINUOUS
 62
     5
 10
421.99999999999989
 20
-365.0
 30
0.0
 11
449.99999999999989
 21
-365.0
 31
0.0
  0
LINE
  5
58E
  8
DETAIL
  6
CONTINUOUS
 62
     5
 10
421.99999999999989
 20
-365.0
 30
0.0
 11
421.99999999999989
 21
-579.93325900000002
 31
0.0
  0
LINE
  5
58F
  8
SIZE
  6
CONTINUOUS
 62
    30
 10
-410.8898109999999
 20
-125.0
 30
0.0
 11
-335.28060999999991
 21
-125.0
 31
0.0
  0
LINE
  5
590
  8
SIZE
  6
BYBLOCK
 62
    30
 10
-469.99999999999989
 20
0.0
 30
0.0
 11
-636.36045499999966
 21
0.0
 31
0.0
  0
LINE
  5
591
  8
SIZE
  6
BYBLOCK
 62
    30
 10
-410.8898109999999
 20
-125.0
 30
0.0
 11
-636.36045499999966
 21
-125.0
 31
0.0
  0
LINE
  5
592
  8
SIZE
  6
BYBLOCK
 62
    30
 10
-606.36045499999989
 20
-127.0
 30
0.0
 11
-606.36045499999989
 21
-129.0
 31
0.0
  0
LINE
  5
593
  8
SIZE
  6
BYBLOCK
 62
    30
 10
-606.36045499999989
 20
2.0
 30
0.0
 11
-606.36045499999989
 21
4.0
 31
0.0
  0
LINE
  5
594
  8
SIZE
  6
BYBLOCK
 62
    30
 10
-606.36045499999989
 20
-125.0
 30
0.0
 11
-606.36045499999989
 21
0.0
 31
0.0
  0
TEXT
  5
595
  8
SIZE
  6
BYBLOCK
 62
    30
 10
-628.90768102592301
 20
20.312548
 30
0.0
 40
64.0
  1
125
 50
90.0
 41
0.9
  0
LINE
  5
596
  8
SIZE
  6
BYBLOCK
 62
    30
 10
-439.99999999999989
 20
-580.0
 30
0.0
 11
-842.32580999999959
 21
-580.0
 31
0.0
  0
LINE
  5
597
  8
SIZE
  6
BYBLOCK
 62
    30
 10
-439.99999999999989
 20
-485.0
 30
0.0
 11
-842.32580999999959
 21
-485.0
 31
0.0
  0
LINE
  5
598
  8
SIZE
  6
BYBLOCK
 62
    30
 10
-812.32580999999948
 20
-578.0
 30
0.0
 11
-812.32580999999948
 21
-532.5
 31
0.0
  0
LINE
  5
599
  8
SIZE
  6
BYBLOCK
 62
    30
 10
-812.32580999999948
 20
-487.0
 30
0.0
 11
-812.32580999999948
 21
-532.5
 31
0.0
  0
TEXT
  5
59A
  8
SIZE
  6
BYBLOCK
 62
    30
 10
-835.25115562677638
 20
-706.94897300000002
 30
0.0
 40
64.0
  1
95
 50
90.0
 41
0.9
  0
LINE
  5
59B
  8
SIZE
  6
BYBLOCK
 62
    30
 10
299.99999999999989
 20
-300.0
 30
0.0
 11
841.26975999999922
 21
-300.0
 31
0.0
  0
LINE
  5
59C
  8
SIZE
  6
BYBLOCK
 62
    30
 10
811.26975999999911
 20
-298.0
 30
0.0
 11
811.26975999999911
 21
-150.0
 31
0.0
  0
LINE
  5
59D
  8
SIZE
  6
BYBLOCK
 62
    30
 10
811.26975999999911
 20
-2.0
 30
0.0
 11
811.26975999999911
 21
-150.0
 31
0.0
  0
TEXT
  5
59E
  8
SIZE
  6
BYBLOCK
 62
    30
 10
786.01897175284603
 20
-224.057143
 30
0.0
 40
64.0
  1
300
 50
90.0
 41
0.9
  0
LINE
  5
59F
  8
SIZE
  6
BYBLOCK
 62
    30
 10
-449.99999999999989
 20
20.0
 30
0.0
 11
-449.99999999999989
 21
418.68688199999991
 31
0.0
  0
LINE
  5
5A0
  8
SIZE
  6
BYBLOCK
 62
    30
 10
449.99999999999989
 20
20.0
 30
0.0
 11
449.99999999999989
 21
418.68688199999991
 31
0.0
  0
LINE
  5
5A1
  8
SIZE
  6
BYBLOCK
 62
    30
 10
-447.99999999999989
 20
388.68688199999991
 30
0.0
 11
448.00000000000023
 21
388.68688199999991
 31
0.0
  0
TEXT
  5
5A2
  8
SIZE
  6
BYBLOCK
 62
    30
 10
-74.057142714285646
 20
420.68688200000003
 30
0.0
 40
64.0
  1
900
 41
0.9
  0
LINE
  5
5A3
  8
SIZE
  6
BYBLOCK
 62
    30
 10
-249.99999999999989
 20
-370.0
 30
0.0
 11
-249.99999999999989
 21
-806.5078279999999
 31
0.0
  0
LINE
  5
5A4
  8
SIZE
  6
BYBLOCK
 62
    30
 10
249.99999999999989
 20
-370.0
 30
0.0
 11
249.99999999999989
 21
-806.5078279999999
 31
0.0
  0
LINE
  5
5A5
  8
SIZE
  6
BYBLOCK
 62
    30
 10
-247.99999999999989
 20
-776.5078279999999
 30
0.0
 11
248.0
 21
-776.5078279999999
 31
0.0
  0
TEXT
  5
5A6
  8
SIZE
  6
BYBLOCK
 62
    30
 10
-74.057142714285646
 20
-744.50782800000002
 30
0.0
 40
64.0
  1
500
 41
0.9
  0
LINE
  5
5A7
  8
SIZE
  6
BYBLOCK
 62
    30
 10
-249.99999999999989
 20
40.0
 30
0.0
 11
-249.99999999999989
 21
295.53907599999991
 31
0.0
  0
LINE
  5
5A8
  8
SIZE
  6
BYBLOCK
 62
    30
 10
249.99999999999989
 20
40.0
 30
0.0
 11
249.99999999999989
 21
295.53907599999991
 31
0.0
  0
LINE
  5
5A9
  8
SIZE
  6
BYBLOCK
 62
    30
 10
-247.99999999999989
 20
265.53907599999991
 30
0.0
 11
248.0
 21
265.53907599999991
 31
0.0
  0
TEXT
  5
5AA
  8
SIZE
  6
BYBLOCK
 62
    30
 10
-74.057142714285646
 20
297.53907599999991
 30
0.0
 40
64.0
  1
500
 41
0.9
  0
LINE
  5
5AB
  8
SIZE
  6
BYBLOCK
 62
    30
 10
290.0
 20
-15.0
 30
0.0
 11
983.26392499999895
 21
-15.0
 31
0.0
  0
LINE
  5
5AC
  8
SIZE
  6
BYBLOCK
 62
    30
 10
953.26392499999895
 20
2.0
 30
0.0
 11
953.26392499999895
 21
4.0
 31
0.0
  0
LINE
  5
5AD
  8
SIZE
  6
BYBLOCK
 62
    30
 10
953.26392499999895
 20
-17.0
 30
0.0
 11
953.26392499999895
 21
-19.0
 31
0.0
  0
LINE
  5
5AE
  8
SIZE
  6
BYBLOCK
 62
    30
 10
953.26392499999895
 20
0.0
 30
0.0
 11
953.26392499999895
 21
-15.0
 31
0.0
  0
TEXT
  5
5AF
  8
SIZE
  6
BYBLOCK
 62
    30
 10
928.05003472117403
 20
41.012638000000003
 30
0.0
 40
64.0
  1
15
 50
90.0
 41
0.9
  0
LINE
  5
5B0
  8
SIZE
  6
BYBLOCK
 62
    30
 10
290.0
 20
-330.0
 30
0.0
 11
983.26392499999895
 21
-330.0
 31
0.0
  0
LINE
  5
5B1
  8
SIZE
  6
BYBLOCK
 62
    30
 10
290.0
 20
-15.0
 30
0.0
 11
983.26392499999895
 21
-15.0
 31
0.0
  0
LINE
  5
5B2
  8
SIZE
  6
BYBLOCK
 62
    30
 10
953.26392499999895
 20
-328.0
 30
0.0
 11
953.26392499999895
 21
-172.5
 31
0.0
  0
LINE
  5
5B3
  8
SIZE
  6
BYBLOCK
 62
    30
 10
953.26392499999895
 20
-17.0
 30
0.0
 11
953.26392499999895
 21
-172.5
 31
0.0
  0
TEXT
  5
5B4
  8
SIZE
  6
BYBLOCK
 62
    30
 10
926.08486124338128
 20
-241.07142899999999
 30
0.0
 40
64.0
  1
315
 50
90.0
 41
0.9
  0
LINE
  5
5B5
  8
SIZE
  6
BYBLOCK
 62
    30
 10
470.00000000000011
 20
0.0
 30
0.0
 11
984.60452208713207
 21
0.0
 31
0.0
  0
LINE
  5
5B6
  8
SIZE
  6
BYBLOCK
 62
    30
 10
282.5
 20
6.0
 30
0.0
 11
575.25901900000008
 21
6.0
 31
0.0
  0
LINE
  5
5B7
  8
SIZE
  6
BYBLOCK
 62
    30
 10
545.25901900000008
 20
8.0
 30
0.0
 11
545.25901900000008
 21
10.0
 31
0.0
  0
LINE
  5
5B8
  8
SIZE
  6
BYBLOCK
 62
    30
 10
545.25901900000008
 20
-2.0
 30
0.0
 11
545.25901900000008
 21
-4.0
 31
0.0
  0
LINE
  5
5B9
  8
SIZE
  6
BYBLOCK
 62
    30
 10
545.25901900000008
 20
6.0
 30
0.0
 11
545.25901900000008
 21
0.0
 31
0.0
  0
TEXT
  5
5BA
  8
SIZE
  6
BYBLOCK
 62
    30
 10
522.68539903569763
 20
44.502271
 30
0.0
 40
64.0
  1
6
 50
90.0
 41
0.9
  0
LINE
  5
5BB
  8
SIZE
  6
BYBLOCK
 62
    30
 10
-195.0
 20
-48.0
 30
0.0
 11
-842.32580999999959
 21
-48.0
 31
0.0
  0
LINE
  5
5BC
  8
SIZE
  6
BYBLOCK
 62
    30
 10
-195.0
 20
-202.0
 30
0.0
 11
-842.32580999999959
 21
-202.0
 31
0.0
  0
LINE
  5
5BD
  8
SIZE
  6
BYBLOCK
 62
    30
 10
-812.32580999999948
 20
-204.0
 30
0.0
 11
-812.32580999999948
 21
-206.0
 31
0.0
  0
LINE
  5
5BE
  8
SIZE
  6
BYBLOCK
 62
    30
 10
-812.32580999999948
 20
-46.0
 30
0.0
 11
-812.32580999999948
 21
-44.0
 31
0.0
  0
LINE
  5
5BF
  8
SIZE
  6
BYBLOCK
 62
    30
 10
-812.32580999999948
 20
-202.0
 30
0.0
 11
-812.32580999999948
 21
-48.0
 31
0.0
  0
TEXT
  5
5C0
  8
SIZE
  6
BYBLOCK
 62
    30
 10
-839.18150258236165
 20
-439.13772199999988
 30
0.0
 40
64.0
  1
φ154
 50
90.0
 41
0.9
  0
LINE
  5
5C1
  8
SIZE
  6
BYBLOCK
 62
    30
 10
-195.0
 20
-51.0
 30
0.0
 11
-691.97623999999973
 21
-51.0
 31
0.0
  0
LINE
  5
5C2
  8
SIZE
  6
BYBLOCK
 62
    30
 10
-195.0
 20
-199.0
 30
0.0
 11
-691.97623999999973
 21
-199.0
 31
0.0
  0
LINE
  5
5C3
  8
SIZE
  6
BYBLOCK
 62
    30
 10
-661.97623999999973
 20
-201.0
 30
0.0
 11
-661.97623999999973
 21
-203.0
 31
0.0
  0
LINE
  5
5C4
  8
SIZE
  6
BYBLOCK
 62
    30
 10
-661.97623999999973
 20
-49.0
 30
0.0
 11
-661.97623999999973
 21
-47.0
 31
0.0
  0
LINE
  5
5C5
  8
SIZE
  6
BYBLOCK
 62
    30
 10
-661.97623999999973
 20
-199.0
 30
0.0
 11
-661.97623999999973
 21
-51.0
 31
0.0
  0
TEXT
  5
5C6
  8
SIZE
  6
BYBLOCK
 62
    30
 10
-685.89777914222032
 20
-437.76629299999962
 30
0.0
 40
64.0
  1
φ148
 50
90.0
 41
0.9
  0
LINE
  5
5C7
  8
SIZE
  6
BYBLOCK
 62
    30
 10
-469.99999999999989
 20
0.0
 30
0.0
 11
-986.66709599999979
 21
0.0
 31
0.0
  0
LINE
  5
5C8
  8
SIZE
  6
BYBLOCK
 62
    30
 10
-469.99999999999989
 20
-580.0
 30
0.0
 11
-986.66709599999979
 21
-580.0
 31
0.0
  0
LINE
  5
5C9
  8
SIZE
  6
BYBLOCK
 62
    30
 10
-956.6670959999999
 20
-2.0
 30
0.0
 11
-956.6670959999999
 21
-290.0
 31
0.0
  0
LINE
  5
5CA
  8
SIZE
  6
BYBLOCK
 62
    30
 10
-956.6670959999999
 20
-578.0
 30
0.0
 11
-956.6670959999999
 21
-290.0
 31
0.0
  0
TEXT
  5
5CB
  8
SIZE
  6
BYBLOCK
 62
    30
 10
-982.63934902492463
 20
-364.057143
 30
0.0
 40
64.0
  1
580
 50
90.0
 41
0.9
  0
LINE
  5
5CC
  8
SIZE
  6
BYBLOCK
 62
    30
 10
-259.99999999999989
 20
-340.0
 30
0.0
 11
-259.99999999999989
 21
-931.94247499999994
 31
0.0
  0
LINE
  5
5CD
  8
SIZE
  6
BYBLOCK
 62
    30
 10
260.0
 20
-340.0
 30
0.0
 11
260.0
 21
-931.94247499999994
 31
0.0
  0
LINE
  5
5CE
  8
SIZE
  6
BYBLOCK
 62
    30
 10
-257.99999999999989
 20
-901.94247499999983
 30
0.0
 11
-0.0000000000000568
 21
-901.94247499999983
 31
0.0
  0
LINE
  5
5CF
  8
SIZE
  6
BYBLOCK
 62
    30
 10
257.99999999999989
 20
-901.94247499999983
 30
0.0
 11
-0.0000000000000568
 21
-901.94247499999983
 31
0.0
  0
TEXT
  5
5D0
  8
SIZE
  6
BYBLOCK
 62
    30
 10
-74.057142714285646
 20
-869.94247499999983
 30
0.0
 40
64.0
  1
520
 41
0.9
  0
LINE
  5
5D1
  8
SIZE
  6
BYBLOCK
 62
    30
 10
39.999999999999879
 20
-110.0
 30
0.0
 11
704.39073400000041
 21
-110.0
 31
0.0
  0
LINE
  5
5D2
  8
SIZE
  6
BYBLOCK
 62
    30
 10
674.39073399999984
 20
-112.0
 30
0.0
 11
674.39073399999984
 21
-114.0
 31
0.0
  0
LINE
  5
5D3
  8
SIZE
  6
BYBLOCK
 62
    30
 10
674.39073399999984
 20
2.0
 30
0.0
 11
674.39073399999984
 21
4.0
 31
0.0
  0
LINE
  5
5D4
  8
SIZE
  6
BYBLOCK
 62
    30
 10
674.39073399999984
 20
-110.0
 30
0.0
 11
674.39073399999984
 21
0.0
 31
0.0
  0
TEXT
  5
5D5
  8
SIZE
  6
BYBLOCK
 62
    30
 10
644.52630839669291
 20
38.811402000000001
 30
0.0
 40
64.0
  1
110
 50
90.0
 41
0.9
  0
LINE
  5
5D6
  8
SIZE
  6
BYBLOCK
 62
    30
 10
174.9999999999998
 20
36.144261
 30
0.0
 11
174.9999999999998
 21
174.71527499999991
 31
0.0
  0
LINE
  5
5D7
  8
SIZE
  6
BYBLOCK
 62
    30
 10
-175.0
 20
36.144261
 30
0.0
 11
-175.0
 21
174.71527499999991
 31
0.0
  0
LINE
  5
5D8
  8
SIZE
  6
BYBLOCK
 62
    30
 10
173.0
 20
144.71527499999979
 30
0.0
 11
-173.0
 21
144.71527499999979
 31
0.0
  0
TEXT
  5
5D9
  8
SIZE
  6
BYBLOCK
 62
    30
 10
-74.057143714285715
 20
176.71527499999991
 30
0.0
 40
64.0
  1
350
 41
0.9
  0
CIRCLE
  5
5DA
  8
SIZE
  6
CONTINUOUS
 62
    30
 10
-175.0
 20
144.71527499999979
 30
0.0
 40
6.0
  0
CIRCLE
  5
5DB
  8
SIZE
  6
CONTINUOUS
 62
    30
 10
174.9999999999998
 20
144.71527499999979
 30
0.0
 40
6.0
  0
CIRCLE
  5
5DC
  8
SIZE
  6
CONTINUOUS
 62
    30
 10
674.39073399999984
 20
0.0
 30
0.0
 40
6.0
  0
CIRCLE
  5
5DD
  8
SIZE
  6
CONTINUOUS
 62
    30
 10
674.39073399999984
 20
-110.0
 30
0.0
 40
6.0
  0
CIRCLE
  5
5DE
  8
SIZE
  6
CONTINUOUS
 62
    30
 10
260.0
 20
-901.94247499999983
 30
0.0
 40
6.0
  0
CIRCLE
  5
5DF
  8
SIZE
  6
CONTINUOUS
 62
    30
 10
-259.99999999999989
 20
-901.94247499999983
 30
0.0
 40
6.0
  0
CIRCLE
  5
5E0
  8
SIZE
  6
CONTINUOUS
 62
    30
 10
-956.6670959999999
 20
-580.0
 30
0.0
 40
6.0
  0
CIRCLE
  5
5E1
  8
SIZE
  6
CONTINUOUS
 62
    30
 10
-956.6670959999999
 20
0.0
 30
0.0
 40
6.0
  0
CIRCLE
  5
5E2
  8
SIZE
  6
CONTINUOUS
 62
    30
 10
-661.97623999999973
 20
-51.0
 30
0.0
 40
6.0
  0
CIRCLE
  5
5E3
  8
SIZE
  6
CONTINUOUS
 62
    30
 10
-661.97623999999973
 20
-199.0
 30
0.0
 40
6.0
  0
CIRCLE
  5
5E4
  8
SIZE
  6
CONTINUOUS
 62
    30
 10
-812.32580999999948
 20
-48.0
 30
0.0
 40
6.0
  0
CIRCLE
  5
5E5
  8
SIZE
  6
CONTINUOUS
 62
    30
 10
-812.32580999999948
 20
-202.0
 30
0.0
 40
6.0
  0
CIRCLE
  5
5E6
  8
SIZE
  6
CONTINUOUS
 62
    30
 10
545.25901900000008
 20
0.0
 30
0.0
 40
6.0
  0
CIRCLE
  5
5E7
  8
SIZE
  6
CONTINUOUS
 62
    30
 10
545.25901900000008
 20
6.0
 30
0.0
 40
6.0
  0
CIRCLE
  5
5E8
  8
SIZE
  6
CONTINUOUS
 62
    30
 10
953.26392499999895
 20
-15.0
 30
0.0
 40
6.0
  0
CIRCLE
  5
5E9
  8
SIZE
  6
CONTINUOUS
 62
    30
 10
953.26392499999895
 20
-330.0
 30
0.0
 40
6.0
  0
CIRCLE
  5
5EA
  8
SIZE
  6
CONTINUOUS
 62
    30
 10
953.26392499999895
 20
-15.0
 30
0.0
 40
6.0
  0
CIRCLE
  5
5EB
  8
SIZE
  6
CONTINUOUS
 62
    30
 10
953.26392499999895
 20
0.0
 30
0.0
 40
6.0
  0
CIRCLE
  5
5EC
  8
SIZE
  6
CONTINUOUS
 62
    30
 10
249.99999999999989
 20
265.53907599999991
 30
0.0
 40
6.0
  0
CIRCLE
  5
5ED
  8
SIZE
  6
CONTINUOUS
 62
    30
 10
-249.99999999999989
 20
265.53907599999991
 30
0.0
 40
6.0
  0
CIRCLE
  5
5EE
  8
SIZE
  6
CONTINUOUS
 62
    30
 10
249.99999999999989
 20
-776.5078279999999
 30
0.0
 40
6.0
  0
CIRCLE
  5
5EF
  8
SIZE
  6
CONTINUOUS
 62
    30
 10
-249.99999999999989
 20
-776.5078279999999
 30
0.0
 40
6.0
  0
CIRCLE
  5
5F0
  8
SIZE
  6
CONTINUOUS
 62
    30
 10
449.99999999999989
 20
388.68688199999991
 30
0.0
 40
6.0
  0
CIRCLE
  5
5F1
  8
SIZE
  6
CONTINUOUS
 62
    30
 10
-449.99999999999989
 20
388.68688199999991
 30
0.0
 40
6.0
  0
CIRCLE
  5
5F2
  8
SIZE
  6
CONTINUOUS
 62
    30
 10
811.26975999999911
 20
0.0
 30
0.0
 40
6.0
  0
CIRCLE
  5
5F3
  8
SIZE
  6
CONTINUOUS
 62
    30
 10
811.26975999999911
 20
-300.0
 30
0.0
 40
6.0
  0
CIRCLE
  5
5F4
  8
SIZE
  6
CONTINUOUS
 62
    30
 10
-812.32580999999948
 20
-485.0
 30
0.0
 40
6.0
  0
CIRCLE
  5
5F5
  8
SIZE
  6
CONTINUOUS
 62
    30
 10
-812.32580999999948
 20
-580.0
 30
0.0
 40
6.0
  0
CIRCLE
  5
5F6
  8
SIZE
  6
CONTINUOUS
 62
    30
 10
-606.36045499999989
 20
0.0
 30
0.0
 40
6.0
  0
CIRCLE
  5
5F7
  8
SIZE
  6
CONTINUOUS
 62
    30
 10
-606.36045499999989
 20
-125.0
 30
0.0
 40
6.0
  0
LINE
  5
5F8
  8
NOTE
  6
CONTINUOUS
 62
     4
 10
-249.99999999999989
 20
-20.0
 30
0.0
 11
-249.99999999999989
 21
20.0
 31
0.0
  0
LINE
  5
5F9
  8
NOTE
  6
CONTINUOUS
 62
     4
 10
-269.99999999999989
 20
0.0
 30
0.0
 11
-229.99999999999989
 21
0.0
 31
0.0
  0
LINE
  5
5FA
  8
NOTE
  6
CONTINUOUS
 62
     4
 10
249.99999999999989
 20
-20.0
 30
0.0
 11
249.99999999999989
 21
20.0
 31
0.0
  0
LINE
  5
5FB
  8
NOTE
  6
CONTINUOUS
 62
     4
 10
270.0
 20
0.0
 30
0.0
 11
229.99999999999989
 21
0.0
 31
0.0
  0
LINE
  5
5FC
  8
NOTE
  6
CONTINUOUS
 62
     4
 10
-0.0000000000000568
 20
-130.0
 30
0.0
 11
-0.0000000000000568
 21
-90.0
 31
0.0
  0
LINE
  5
5FD
  8
NOTE
  6
CONTINUOUS
 62
     4
 10
20.00000000000011
 20
-110.0
 30
0.0
 11
-19.999999999999879
 21
-110.0
 31
0.0
  0
POINT
  5
5FE
  8
ARRANGE
  6
CONTINUOUS
 62
     1
 10
-0.0000000000000568
 20
0.0
 30
0.0
  0
CIRCLE
  5
5FF
  8
ARRANGE
  6
CONTINUOUS
 62
     1
 10
-0.0000000000000568
 20
0.0
 30
0.0
 40
40.0
  0
LINE
  5
606
  8
NOTE
  6
CONTINUOUS
 62
     4
 10
-0.8214229999999247
 20
-149.99156499999981
 30
0.0
 11
-0.0000000000000568
 21
-110.0
 31
0.0
  0
LINE
  5
607
  8
NOTE
  6
CONTINUOUS
 62
     4
 10
-0.0000000000000568
 20
-110.0
 30
0.0
 11
19.28441000000003
 21
-145.044422
 31
0.0
  0
LINE
  5
608
  8
NOTE
  6
CONTINUOUS
 62
     4
 10
288.0839109451299
 20
17.639582877092831
 30
0.0
 11
249.99999999999989
 21
0.0
 31
0.0
  0
LINE
  5
609
  8
NOTE
  6
CONTINUOUS
 62
     4
 10
249.99999999999989
 20
0.0
 30
0.0
 11
274.33659722127419
 21
33.340773890987293
 31
0.0
  0
LINE
  5
60A
  8
NOTE
  6
CONTINUOUS
 62
     4
 10
268.19859400000001
 20
-365.62037599999991
 30
0.0
 11
249.99999999999989
 21
-330.0
 31
0.0
  0
LINE
  5
60B
  8
NOTE
  6
CONTINUOUS
 62
     4
 10
249.99999999999989
 20
-330.0
 30
0.0
 11
287.10196407934751
 21
-346.43173670012391
 31
0.0
  0
LINE
  5
60C
  8
NOTE
  6
CONTINUOUS
 62
     4
 10
299.86732133694022
 20
-311.10406410320678
 30
0.0
 11
260.0
 21
-300.0
 31
0.0
  0
LINE
  5
60D
  8
NOTE
  6
CONTINUOUS
 62
     4
 10
260.0
 20
-300.0
 30
0.0
 11
284.15610428103361
 21
-328.76789752792757
 31
0.0
  0
TEXT
  5
60E
  8
ETC
  6
CONTINUOUS
 62
    61
 10
1105.8700018429099
 20
287.45393724760822
 30
0.0
 40
50.0
  1
V-39K5
 41
0.9
  0
TEXT
  5
60F
  8
ETC
  6
CONTINUOUS
 62
    61
 10
972.35117395109728
 20
360.42534752635652
 30
0.0
 40
64.0
  1
換気扇
 41
0.9
  0
TEXT
  5
610
  8
ETC
  6
CONTINUOUS
 62
    61
 10
976.57767504816729
 20
457.42006052635662
 30
0.0
 40
64.0
  1
V-39K5_1
 41
0.9
  0
LINE
  5
612
  8
OUTLINE
  6
CONTINUOUS
 62
     3
 10
450.0
 20
0.0
 30
0.0
 11
-450.0
 21
0.0
 31
0.0
  0
LINE
  5
613
  8
OUTLINE
  6
CONTINUOUS
 62
     3
 10
420.00000000000011
 20
-580.0
 30
0.0
 11
-420.0
 21
-580.0
 31
0.0
  0
LINE
  5
614
  8
OUTLINE
  6
CONTINUOUS
 62
     3
 10
-450.0
 20
0.0
 30
0.0
 11
-450.0
 21
-550.0
 31
0.0
  0
ARC
  5
615
  8
OUTLINE
  6
CONTINUOUS
 62
     3
 10
-420.0
 20
-550.0
 30
0.0
 40
30.0
 50
180.0
 51
270.0
  0
LINE
  5
616
  8
OUTLINE
  6
CONTINUOUS
 62
     3
 10
450.0
 20
0.0
 30
0.0
 11
450.0
 21
-550.0
 31
0.0
  0
ARC
  5
617
  8
OUTLINE
  6
CONTINUOUS
 62
     3
 10
420.00000000000011
 20
-550.0
 30
0.0
 40
30.0
 50
270.0
 51
0.000000000000007
  0
ENDSEC
  0
EOF
