  0
SECTION
  2
HEADER
  9
$ACADVER
  1
AC1009
  9
$INSBASE
 10
0.0
 20
0.0
 30
0.0
  9
$EXTMIN
 10
-762.25889473252391
 20
-697.26561358811523
 30
-0.0015257624927045
  9
$EXTMAX
 10
1322.850048533697
 20
531.28052553078123
 30
50.001525995323327
  9
$LIMMIN
 10
-2970.0
 20
-2100.0
  9
$LIMMAX
 10
2970.0
 20
2100.0
  9
$ORTHOMODE
 70
     1
  9
$REGENMODE
 70
     0
  9
$FILLMODE
 70
     1
  9
$QTEXTMODE
 70
     0
  9
$MIRRTEXT
 70
     0
  9
$DRAGMODE
 70
     2
  9
$LTSCALE
 40
20.0
  9
$OSMODE
 70
    32
  9
$ATTMODE
 70
     1
  9
$TEXTSIZE
 40
64.0
  9
$TRACEWID
 40
0.05
  9
$TEXTSTYLE
  7
STANDARD
  9
$CLAYER
  8
ETC
  9
$CELTYPE
  6
CONTINUOUS
  9
$CECOLOR
 62
     8
  9
$DIMSCALE
 40
1.0
  9
$DIMASZ
 40
12.0
  9
$DIMEXO
 40
20.0
  9
$DIMDLI
 40
200.0
  9
$DIMRND
 40
0.0
  9
$DIMDLE
 40
0.0
  9
$DIMEXE
 40
20.0
  9
$DIMTP
 40
0.0
  9
$DIMTM
 40
0.0
  9
$DIMTXT
 40
64.0
  9
$DIMCEN
 40
0.09
  9
$DIMTSZ
 40
0.0
  9
$DIMTOL
 70
     0
  9
$DIMLIM
 70
     0
  9
$DIMTIH
 70
     0
  9
$DIMTOH
 70
     0
  9
$DIMSE1
 70
     0
  9
$DIMSE2
 70
     0
  9
$DIMTAD
 70
     1
  9
$DIMZIN
 70
     8
  9
$DIMBLK
  1
DOT1
  9
$DIMASO
 70
     1
  9
$DIMSHO
 70
     0
  9
$DIMPOST
  1

  9
$DIMAPOST
  1

  9
$DIMALT
 70
     0
  9
$DIMALTD
 70
     2
  9
$DIMALTF
 40
25.399999999999999
  9
$DIMLFAC
 40
1.0
  9
$DIMTOFL
 70
     1
  9
$DIMTVP
 40
0.0
  9
$DIMTIX
 70
     1
  9
$DIMSOXD
 70
     0
  9
$DIMSAH
 70
     1
  9
$DIMBLK1
  1
ORIGIN
  9
$DIMBLK2
  1
ORIGIN
  9
$DIMSTYLE
  2
STANDARD
  9
$DIMCLRD
 70
     0
  9
$DIMCLRE
 70
     0
  9
$DIMCLRT
 70
     0
  9
$DIMTFAC
 40
1.0
  9
$DIMGAP
 40
0.09
  9
$LUNITS
 70
     2
  9
$LUPREC
 70
     4
  9
$SKETCHINC
 40
0.1
  9
$FILLETRAD
 40
3.0
  9
$AUNITS
 70
     1
  9
$AUPREC
 70
     3
  9
$MENU
  1
ACAD
  9
$ELEVATION
 40
0.0
  9
$PELEVATION
 40
0.0
  9
$THICKNESS
 40
50.0
  9
$LIMCHECK
 70
     0
  9
$BLIPMODE
 70
     0
  9
$CHAMFERA
 40
0.0
  9
$CHAMFERB
 40
0.0
  9
$SKPOLY
 70
     0
  9
$TDCREATE
 40
2451453.49385081
  9
$TDUPDATE
 40
2454743.3986979979
  9
$TDINDWG
 40
0.6784336343
  9
$TDUSRTIMER
 40
0.6784334491
  9
$USRTIMER
 70
     1
  9
$ANGBASE
 50
0.0
  9
$ANGDIR
 70
     0
  9
$PDMODE
 70
     3
  9
$PDSIZE
 40
-2.0
  9
$PLINEWID
 40
0.0
  9
$COORDS
 70
     1
  9
$SPLFRAME
 70
     0
  9
$SPLINETYPE
 70
     6
  9
$SPLINESEGS
 70
     8
  9
$ATTDIA
 70
     0
  9
$ATTREQ
 70
     1
  9
$HANDLING
 70
     1
  9
$HANDSEED
  5
258
  9
$SURFTAB1
 70
     6
  9
$SURFTAB2
 70
     6
  9
$SURFTYPE
 70
     6
  9
$SURFU
 70
     6
  9
$SURFV
 70
     6
  9
$UCSNAME
  2

  9
$UCSORG
 10
0.0
 20
0.0
 30
0.0
  9
$UCSXDIR
 10
1.0
 20
0.0
 30
0.0
  9
$UCSYDIR
 10
0.0
 20
1.0
 30
0.0
  9
$PUCSNAME
  2

  9
$PUCSORG
 10
0.0
 20
0.0
 30
0.0
  9
$PUCSXDIR
 10
1.0
 20
0.0
 30
0.0
  9
$PUCSYDIR
 10
0.0
 20
1.0
 30
0.0
  9
$USERI1
 70
     0
  9
$USERI2
 70
     0
  9
$USERI3
 70
     0
  9
$USERI4
 70
     0
  9
$USERI5
 70
     0
  9
$USERR1
 40
20.0
  9
$USERR2
 40
0.0
  9
$USERR3
 40
0.0
  9
$USERR4
 40
0.0
  9
$USERR5
 40
0.0
  9
$WORLDVIEW
 70
     1
  9
$SHADEDGE
 70
     3
  9
$SHADEDIF
 70
    70
  9
$TILEMODE
 70
     1
  9
$MAXACTVP
 70
    64
  9
$PLIMCHECK
 70
     0
  9
$PEXTMIN
 10
1.0000000000000000E+020
 20
1.0000000000000000E+020
 30
1.0000000000000000E+020
  9
$PEXTMAX
 10
-1.0000000000000000E+020
 20
-1.0000000000000000E+020
 30
-1.0000000000000000E+020
  9
$PLIMMIN
 10
0.0
 20
0.0
  9
$PLIMMAX
 10
12.0
 20
9.0
  9
$UNITMODE
 70
     0
  9
$VISRETAIN
 70
     1
  9
$PLINEGEN
 70
     0
  9
$PSLTSCALE
 70
     1
  0
ENDSEC
  0
SECTION
  2
TABLES
  0
TABLE
  2
VPORT
 70
     1
  0
VPORT
  2
*ACTIVE
 70
     0
 10
0.0
 20
0.0
 11
1.0
 21
1.0
 12
289.38952606839422
 22
-38.021101500641642
 13
0.0
 23
0.0
 14
1.0
 24
1.0
 15
0.0
 25
0.0
 16
0.0
 26
0.0
 36
1.0
 17
0.0
 27
0.0
 37
0.0
 40
1388.096354829104
 41
1.7517337031900131
 42
50.0
 43
0.0
 44
0.0
 50
0.0
 51
0.0
 71
     0
 72
   100
 73
     1
 74
     1
 75
     0
 76
     0
 77
     0
 78
     0
  0
ENDTAB
  0
TABLE
  2
LTYPE
 70
     3
  0
LTYPE
  2
CONTINUOUS
 70
     0
  3
実線
 72
    65
 73
     0
 40
0.0
  0
LTYPE
  2
DASHDOT
 70
     0
  3
____ _ ____ _ ____ _ ____ _ ____ _ ____ _ ____
 72
    65
 73
     4
 40
5.5
 49
4.0
 49
-0.6
 49
0.3
 49
-0.6
  0
ENDTAB
  0
TABLE
  2
LAYER
 70
    12
  0
LAYER
  2
0
 70
     0
 62
     7
  6
CONTINUOUS
  0
LAYER
  2
SIZE
 70
     0
 62
    30
  6
CONTINUOUS
  0
LAYER
  2
BASIS
 70
     0
 62
     6
  6
DASHDOT
  0
LAYER
  2
OUTLINE
 70
     0
 62
     3
  6
CONTINUOUS
  0
LAYER
  2
DETAIL
 70
     0
 62
     5
  6
CONTINUOUS
  0
LAYER
  2
ARRANGE
 70
     0
 62
     1
  6
CONTINUOUS
  0
LAYER
  2
DEFPOINTS
 70
     0
 62
     7
  6
CONTINUOUS
  0
LAYER
  2
ETC
 70
     0
 62
    61
  6
CONTINUOUS
  0
LAYER
  2
FIX
 70
     0
 62
    11
  6
CONTINUOUS
  0
LAYER
  2
NOTE
 70
     0
 62
     4
  6
CONTINUOUS
  0
LAYER
  2
SERVICESPACE
 70
     0
 62
     2
  6
DASHDOT
  0
LAYER
  2
SYMBOLLINE
 70
     0
 62
    15
  6
CONTINUOUS
  0
ENDTAB
  0
TABLE
  2
STYLE
 70
     2
  0
STYLE
  2
STANDARD
 70
     0
 40
64.0
 41
0.9
 50
0.0
 71
     0
 42
64.0
  3
SIMPLEX.shx
  4
BIGFONT.shx
  0
STYLE
  2
ANNOTATIVE
 70
     0
 40
0.0
 41
1.0
 50
0.0
 71
     0
 42
0.2
  3
txt
  4

  0
ENDTAB
  0
TABLE
  2
VIEW
 70
     1
  0
VIEW
  2
ALL
 70
     0
 40
4282.6198079999986
 10
0.0
 20
41.309903999999989
 41
5940.0
 11
0.0
 21
0.0
 31
1.0
 12
0.0
 22
0.0
 32
0.0
 42
50.0
 43
0.0
 44
0.0
 50
0.0
 71
     0
  0
ENDTAB
  0
TABLE
  2
UCS
 70
     0
  0
ENDTAB
  0
TABLE
  2
APPID
 70
     4
  0
APPID
  2
ACAD
 70
     0
  0
APPID
  2
ACADANNOTATIVE
 70
     0
  0
APPID
  2
ACAD_MLEADERVER
 70
     0
  0
APPID
  2
ACAD_EXEMPT_FROM_CAD_STANDARDS
 70
     0
  0
ENDTAB
  0
TABLE
  2
DIMSTYLE
 70
     3
  0
DIMSTYLE
  2
STANDARD
 70
     0
  3

  4

  5

  6

  7

 40
1.0
 41
0.18
 42
0.0625
 43
0.38
 44
0.18
 45
0.0
 46
0.0
 47
0.0
 48
0.0
140
0.18
141
0.09
142
0.0
143
25.399999999999999
144
1.0
145
0.0
146
1.0
147
0.09
 71
     0
 72
     0
 73
     1
 74
     1
 75
     0
 76
     0
 77
     0
 78
     0
170
     0
171
     2
172
     0
173
     0
174
     0
175
     0
176
     0
177
     0
178
     0
  0
DIMSTYLE
  2
ANNOTATIVE
 70
     0
  3

  4

  5

  6

  7

 40
1.0
 41
0.18
 42
0.0625
 43
0.38
 44
0.18
 45
0.0
 46
0.0
 47
0.0
 48
0.0
140
0.18
141
0.09
142
0.0
143
25.399999999999999
144
1.0
145
0.0
146
1.0
147
0.09
 71
     0
 72
     0
 73
     1
 74
     1
 75
     0
 76
     0
 77
     0
 78
     0
170
     0
171
     2
172
     0
173
     0
174
     0
175
     0
176
     0
177
     0
178
     0
  0
ENDTAB
  0
ENDSEC
  0
SECTION
  2
BLOCKS
  0
BLOCK
  8
0
  2
$MODEL_SPACE
 70
     0
 10
0.0
 20
0.0
 30
0.0
  3
$MODEL_SPACE
  1

  0
ENDBLK
  5
76
  8
0
  0
BLOCK
 67
     1
  8
0
  2
$PAPER_SPACE
 70
     0
 10
0.0
 20
0.0
 30
0.0
  3
$PAPER_SPACE
  1

  0
ENDBLK
  5
72
 67
     1
  8
0
  0
BLOCK
  8
0
  2
DOT1
 70
     0
 10
0.0
 20
0.0
 30
0.0
  3
DOT1
  1

  0
CIRCLE
  5
8B
  8
SIZE
  6
CONTINUOUS
 62
     7
 10
0.0
 20
0.0
 30
0.0
 40
3.0
  0
ENDBLK
  5
8C
  8
0
  0
BLOCK
  8
0
  2
_ORIGIN
 70
     0
 10
0.0
 20
0.0
 30
0.0
  3
_ORIGIN
  1

  0
CIRCLE
  5
8F
  8
0
  6
CONTINUOUS
 62
     7
 10
0.0
 20
0.0
 30
0.0
 40
0.5
  0
LINE
  5
90
  8
0
  6
CONTINUOUS
 62
     7
 10
0.0
 20
0.0
 30
0.0
 11
-1.0
 21
0.0
 31
0.0
  0
ENDBLK
  5
91
  8
0
  0
BLOCK
  8
0
 62
     8
  2
A$C39DC6A3F
 70
     0
 10
0.0
 20
0.0
 30
0.0
  3
A$C39DC6A3F
  1

  0
TEXT
  5
21A
  8
ETC
  6
CONTINUOUS
 62
    61
 10
0.0000036478176071
 20
228.20956504406681
 30
0.0
 40
51.200000000000003
  1
V-507RH
 41
0.9
  0
TEXT
  5
21B
  8
ETC
  6
CONTINUOUS
 62
    61
 10
0.0000036478176071
 20
153.70960515988659
 30
0.0
 40
51.200000000000003
  1
V-507RH-S
 41
0.9
  0
TEXT
  5
21C
  8
ETC
  6
CONTINUOUS
 62
    61
 10
0.0000036478176071
 20
74.49995947679605
 30
0.0
 40
51.200000000000003
  1
V-507RH2
 41
0.9
  0
TEXT
  5
21D
  8
ETC
  6
CONTINUOUS
 62
    61
 10
0.0000036478176071
 20
-0.0000004073841069
 30
0.0
 40
51.200000000000003
  1
V-507RH2-S
 41
0.9
  0
ENDBLK
  5
21F
  8
0
 62
     8
  0
ENDSEC
  0
SECTION
  2
ENTITIES
  0
LINE
  5
93
  8
BASIS
  6
DASHDOT
 62
     6
 10
0.0
 20
91.34451
 30
0.0
 11
0.0
 21
-525.17683
 31
0.0
  0
LINE
  5
94
  8
DETAIL
  6
CONTINUOUS
 62
     5
 10
-375.0
 20
0.0
 30
0.0
 11
375.0
 21
0.0
 31
0.0
  0
CIRCLE
  5
96
  8
ARRANGE
  6
CONTINUOUS
 62
     1
 10
0.0
 20
0.0
 30
0.0
 40
40.0
  0
POINT
  5
97
  8
ARRANGE
  6
CONTINUOUS
 62
     1
 10
0.0
 20
0.0
 30
0.0
  0
LINE
  5
98
  8
DETAIL
  6
CONTINUOUS
 62
     5
 10
-375.0
 20
0.0
 30
0.0
 11
-375.0
 21
-437.0
 31
0.0
  0
LINE
  5
99
  8
DETAIL
  6
CONTINUOUS
 62
     5
 10
375.0
 20
0.0
 30
0.0
 11
375.0
 21
-437.0
 31
0.0
  0
LINE
  5
9A
  8
BASIS
  6
DASHDOT
 62
     6
 10
175.0
 20
72.217268000000004
 30
0.0
 11
175.0
 21
-20.193110999999998
 31
0.0
  0
LINE
  5
9B
  8
DETAIL
  6
CONTINUOUS
 62
     5
 10
-372.0
 20
-440.0
 30
0.0
 11
372.0
 21
-440.0
 31
0.0
  0
LINE
  5
9C
  8
DETAIL
  6
CONTINUOUS
 62
     5
 10
101.0
 20
50.0
 30
0.0
 11
249.0
 21
50.0
 31
0.0
  0
LINE
  5
9D
  8
DETAIL
  6
CONTINUOUS
 62
     5
 10
91.028695999999997
 20
10.0
 30
0.0
 11
258.97130399999998
 21
10.0
 31
0.0
  0
LINE
  5
9E
  8
DETAIL
  6
CONTINUOUS
 62
     5
 10
101.0
 20
50.0
 30
0.0
 11
101.0
 21
10.0
 31
0.0
  0
LINE
  5
9F
  8
DETAIL
  6
CONTINUOUS
 62
     5
 10
85.0
 20
0.0
 30
0.0
 11
91.028695999999997
 21
10.0
 31
0.0
  0
LINE
  5
A0
  8
DETAIL
  6
CONTINUOUS
 62
     5
 10
249.0
 20
50.0
 30
0.0
 11
249.0
 21
10.0
 31
0.0
  0
LINE
  5
A1
  8
DETAIL
  6
CONTINUOUS
 62
     5
 10
265.0
 20
0.0
 30
0.0
 11
258.97130399999998
 21
10.0
 31
0.0
  0
LINE
  5
A2
  8
DETAIL
  6
CONTINUOUS
 62
     5
 39
50.0
 10
-264.0
 20
0.0
 30
0.0
 11
-264.0
 21
30.0
 31
0.0
  0
LINE
  5
A3
  8
DETAIL
  6
CONTINUOUS
 62
     5
 10
-235.972342
 20
30.0
 30
0.0
 11
-235.972342
 21
0.0
 31
0.0
  0
LINE
  5
A4
  8
DETAIL
  6
CONTINUOUS
 62
     5
 10
-252.5
 20
23.0
 30
0.0
 11
-252.5
 21
22.63325
 31
0.0
  0
LINE
  5
A5
  8
DETAIL
  6
CONTINUOUS
 62
     5
 10
-247.5
 20
23.0
 30
0.0
 11
-247.5
 21
22.63325
 31
0.0
  0
ARC
  5
A6
  8
DETAIL
  6
CONTINUOUS
 62
     5
 10
-253.5
 20
22.63325
 30
0.0
 40
1.0
 50
297.81813900000009
 51
0.0
  0
ARC
  5
A7
  8
DETAIL
  6
CONTINUOUS
 62
     5
 10
-246.5
 20
22.63325
 30
0.0
 40
1.0
 50
180.0
 51
242.181861
  0
ARC
  5
A8
  8
DETAIL
  6
CONTINUOUS
 62
     5
 10
-250.0
 20
23.0
 30
0.0
 40
2.5
 50
0.0
 51
180.0
  0
ARC
  5
A9
  8
DETAIL
  6
CONTINUOUS
 62
     5
 10
-253.5
 20
9.3667499999999997
 30
0.0
 40
1.0
 50
0.0
 51
62.181860999999991
  0
ARC
  5
AA
  8
DETAIL
  6
CONTINUOUS
 62
     5
 10
-246.5
 20
9.3667499999999997
 30
0.0
 40
1.0
 50
117.818139
 51
180.0
  0
LINE
  5
AB
  8
DETAIL
  6
CONTINUOUS
 62
     5
 10
-252.5
 20
9.3667499999999997
 30
0.0
 11
-252.5
 21
0.0
 31
0.0
  0
LINE
  5
AC
  8
DETAIL
  6
CONTINUOUS
 62
     5
 10
-247.5
 20
9.3667499999999997
 30
0.0
 11
-247.5
 21
0.0
 31
0.0
  0
ARC
  5
AD
  8
DETAIL
  6
CONTINUOUS
 62
     5
 10
-250.0
 20
16.0
 30
0.0
 40
6.5
 50
117.818139
 51
242.181861
  0
ARC
  5
AE
  8
DETAIL
  6
CONTINUOUS
 62
     5
 10
-250.0
 20
16.0
 30
0.0
 40
6.5
 50
297.81813900000009
 51
62.181860999999991
  0
LINE
  5
AF
  8
NOTE
  6
CONTINUOUS
 62
     4
 10
-250.0
 20
-4.0
 30
0.0
 11
-250.0
 21
36.0
 31
0.0
  0
LINE
  5
B0
  8
NOTE
  6
CONTINUOUS
 62
     4
 10
-270.0
 20
16.0
 30
0.0
 11
-230.0
 21
16.0
 31
0.0
  0
LINE
  5
B1
  8
NOTE
  6
CONTINUOUS
 62
     4
 10
-250.0
 20
3.0
 30
0.0
 11
-250.0
 21
43.0
 31
0.0
  0
LINE
  5
B2
  8
NOTE
  6
CONTINUOUS
 62
     4
 10
-270.0
 20
23.0
 30
0.0
 11
-230.0
 21
23.0
 31
0.0
  0
ARC
  5
B3
  8
DETAIL
  6
CONTINUOUS
 62
     5
 10
-372.0
 20
-437.0
 30
0.0
 40
3.0
 50
180.0
 51
270.0
  0
ARC
  5
B4
  8
DETAIL
  6
CONTINUOUS
 62
     5
 10
372.0
 20
-437.0
 30
0.0
 40
3.0
 50
270.0
 51
0.0
  0
LINE
  5
B5
  8
DETAIL
  6
CONTINUOUS
 62
     5
 10
-350.10000000000002
 20
-440.0
 30
0.0
 11
-350.10000000000002
 21
0.0
 31
0.0
  0
LINE
  5
B6
  8
DETAIL
  6
CONTINUOUS
 62
     5
 10
350.10000000000002
 20
-440.0
 30
0.0
 11
350.10000000000002
 21
0.1
 31
0.0
  0
POLYLINE
  5
B7
  8
DETAIL
  6
CONTINUOUS
 62
     5
 66
     1
 10
0.0
 20
0.0
 30
0.0
  0
VERTEX
  5
23D
  8
DETAIL
  6
CONTINUOUS
 62
     5
 10
360.69543099999999
 20
-51.562711
 30
0.0
  0
VERTEX
  5
23E
  8
DETAIL
  6
CONTINUOUS
 62
     5
 10
359.92737
 20
-53.122329999999998
 30
0.0
  0
VERTEX
  5
23F
  8
DETAIL
  6
CONTINUOUS
 62
     5
 10
359.36221
 20
-54.839745999999991
 30
0.0
  0
VERTEX
  5
240
  8
DETAIL
  6
CONTINUOUS
 62
     5
 10
359.01639900000009
 20
-56.664981999999988
 30
0.0
  0
VERTEX
  5
241
  8
DETAIL
  6
CONTINUOUS
 62
     5
 10
358.89999999999998
 20
-58.544924000000002
 30
0.0
  0
SEQEND
  5
242
  8
DETAIL
  6
CONTINUOUS
 62
     5
  0
POLYLINE
  5
BE
  8
DETAIL
  6
CONTINUOUS
 62
     5
 66
     1
 10
0.0
 20
0.0
 30
0.0
  0
VERTEX
  5
243
  8
DETAIL
  6
CONTINUOUS
 62
     5
 10
358.89999999999998
 20
-58.544924000000002
 30
0.0
  0
VERTEX
  5
244
  8
DETAIL
  6
CONTINUOUS
 62
     5
 10
359.01389499999999
 20
-62.503595999999987
 30
0.0
  0
VERTEX
  5
245
  8
DETAIL
  6
CONTINUOUS
 62
     5
 10
359.35233799999997
 20
-66.349549999999994
 30
0.0
  0
VERTEX
  5
246
  8
DETAIL
  6
CONTINUOUS
 62
     5
 10
359.90569199999999
 20
-69.973275999999998
 30
0.0
  0
VERTEX
  5
247
  8
DETAIL
  6
CONTINUOUS
 62
     5
 10
360.65820000000002
 20
-73.271593999999993
 30
0.0
  0
SEQEND
  5
248
  8
DETAIL
  6
CONTINUOUS
 62
     5
  0
LINE
  5
C5
  8
DETAIL
  6
CONTINUOUS
 62
     5
 10
374.74600400000003
 20
-124.987548
 30
0.0
 11
360.65820000000002
 21
-73.271593999999993
 31
0.0
  0
LINE
  5
C6
  8
DETAIL
  6
CONTINUOUS
 62
     5
 10
360.69543099999999
 20
-51.562711
 30
0.0
 11
374.89999999999998
 21
-27.433903000000011
 31
0.0
  0
POLYLINE
  5
C7
  8
DETAIL
  6
CONTINUOUS
 62
     5
 66
     1
 10
0.0
 20
0.0
 30
0.0
  0
VERTEX
  5
249
  8
DETAIL
  6
CONTINUOUS
 62
     5
 10
-358.89999999999998
 20
-58.544924000000002
 30
0.0
  0
VERTEX
  5
24A
  8
DETAIL
  6
CONTINUOUS
 62
     5
 10
-359.01639900000009
 20
-56.664981999999988
 30
0.0
  0
VERTEX
  5
24B
  8
DETAIL
  6
CONTINUOUS
 62
     5
 10
-359.36221
 20
-54.839745999999991
 30
0.0
  0
VERTEX
  5
24C
  8
DETAIL
  6
CONTINUOUS
 62
     5
 10
-359.92737
 20
-53.122329999999998
 30
0.0
  0
VERTEX
  5
24D
  8
DETAIL
  6
CONTINUOUS
 62
     5
 10
-360.69543099999999
 20
-51.562711
 30
0.0
  0
SEQEND
  5
24E
  8
DETAIL
  6
CONTINUOUS
 62
     5
  0
POLYLINE
  5
CE
  8
DETAIL
  6
CONTINUOUS
 62
     5
 66
     1
 10
0.0
 20
0.0
 30
0.0
  0
VERTEX
  5
24F
  8
DETAIL
  6
CONTINUOUS
 62
     5
 10
-360.65820000000002
 20
-73.271593999999993
 30
0.0
  0
VERTEX
  5
250
  8
DETAIL
  6
CONTINUOUS
 62
     5
 10
-359.90569199999999
 20
-69.973275999999998
 30
0.0
  0
VERTEX
  5
251
  8
DETAIL
  6
CONTINUOUS
 62
     5
 10
-359.35233799999997
 20
-66.349549999999994
 30
0.0
  0
VERTEX
  5
252
  8
DETAIL
  6
CONTINUOUS
 62
     5
 10
-359.01389499999999
 20
-62.503595999999987
 30
0.0
  0
VERTEX
  5
253
  8
DETAIL
  6
CONTINUOUS
 62
     5
 10
-358.89999999999998
 20
-58.544924000000002
 30
0.0
  0
SEQEND
  5
254
  8
DETAIL
  6
CONTINUOUS
 62
     5
  0
LINE
  5
D5
  8
DETAIL
  6
CONTINUOUS
 62
     5
 10
-374.74600400000003
 20
-124.987548
 30
0.0
 11
-360.65820000000002
 21
-73.271593999999993
 31
0.0
  0
LINE
  5
D6
  8
DETAIL
  6
CONTINUOUS
 62
     5
 10
-360.69543099999999
 20
-51.562711
 30
0.0
 11
-374.89999999999998
 21
-27.433903000000011
 31
0.0
  0
LINE
  5
D7
  8
DETAIL
  6
CONTINUOUS
 62
     5
 10
0.0
 20
-55.748098999999989
 30
0.0
 11
-350.10000000000002
 21
-55.748098999999989
 31
0.0
  0
LINE
  5
D8
  8
DETAIL
  6
CONTINUOUS
 62
     5
 10
0.0
 20
-125.5
 30
0.0
 11
-375.0
 21
-125.5
 31
0.0
  0
LINE
  5
D9
  8
DETAIL
  6
CONTINUOUS
 62
     5
 10
-39.5
 20
-129.22112799999999
 30
0.0
 11
107.5
 21
-129.22112799999999
 31
0.0
  0
LINE
  5
DA
  8
DETAIL
  6
CONTINUOUS
 62
     5
 10
-39.5
 20
-149.71432200000001
 30
0.0
 11
107.5
 21
-149.71432200000001
 31
0.0
  0
LINE
  5
DB
  8
DETAIL
  6
CONTINUOUS
 62
     5
 10
-42.5
 20
-132.22112799999999
 30
0.0
 11
-42.5
 21
-146.71432200000001
 31
0.0
  0
ARC
  5
DC
  8
DETAIL
  6
CONTINUOUS
 62
     5
 10
-39.5
 20
-146.71432200000001
 30
0.0
 40
3.0
 50
180.0
 51
270.0
  0
ARC
  5
DD
  8
DETAIL
  6
CONTINUOUS
 62
     5
 10
-39.5
 20
-132.22112799999999
 30
0.0
 40
3.0
 50
90.0
 51
180.0
  0
LINE
  5
DE
  8
DETAIL
  6
CONTINUOUS
 62
     5
 10
0.0
 20
-125.5
 30
0.0
 11
375.0
 21
-125.5
 31
0.0
  0
LINE
  5
DF
  8
DETAIL
  6
CONTINUOUS
 62
     5
 10
0.0
 20
-55.748098999999989
 30
0.0
 11
350.10000000000002
 21
-55.748098999999989
 31
0.0
  0
LINE
  5
E0
  8
DETAIL
  6
CONTINUOUS
 62
     5
 10
134.18255600000001
 20
-106.810074
 30
0.0
 11
314.64122300000002
 21
-106.810074
 31
0.0
  0
LINE
  5
E1
  8
DETAIL
  6
CONTINUOUS
 62
     5
 10
157.410571
 20
-85.067793000000009
 30
0.0
 11
236.0
 21
-85.067793000000009
 31
0.0
  0
LINE
  5
E2
  8
DETAIL
  6
CONTINUOUS
 62
     5
 10
92.355418
 20
-113.940074
 30
0.0
 11
331.0
 21
-113.940074
 31
0.0
  0
LINE
  5
E3
  8
DETAIL
  6
CONTINUOUS
 62
     5
 10
141.41660400000001
 20
-76.940073999999996
 30
0.0
 11
331.0
 21
-76.940073999999996
 31
0.0
  0
LINE
  5
E4
  8
DETAIL
  6
CONTINUOUS
 62
     5
 10
110.5
 20
-132.22112799999999
 30
0.0
 11
110.5
 21
-146.71432200000001
 31
0.0
  0
ARC
  5
E5
  8
DETAIL
  6
CONTINUOUS
 62
     5
 10
107.5
 20
-146.71432200000001
 30
0.0
 40
3.0
 50
270.0
 51
0.0
  0
ARC
  5
E6
  8
DETAIL
  6
CONTINUOUS
 62
     5
 10
157.410571
 20
-116.440074
 30
0.0
 40
31.372281000000001
 50
90.0
 51
148.76707099999999
  0
ARC
  5
E7
  8
DETAIL
  6
CONTINUOUS
 62
     5
 10
141.41660400000001
 20
-136.94007400000001
 30
0.0
 40
60.0
 50
90.0
 51
151.17455100000001
  0
ARC
  5
E8
  8
DETAIL
  6
CONTINUOUS
 62
     5
 10
107.5
 20
-132.22112799999999
 30
0.0
 40
3.0
 50
0.0
 51
90.0
  0
ARC
  5
E9
  8
DETAIL
  6
CONTINUOUS
 62
     5
 10
134.323779
 20
-102.440074
 30
0.0
 40
4.3722810000000001
 50
148.76707099999999
 51
256.41745800000001
  0
ARC
  5
EA
  8
DETAIL
  6
CONTINUOUS
 62
     5
 10
92.355418
 20
-109.940074
 30
0.0
 40
4.0
 50
151.17455100000001
 51
270.0
  0
CIRCLE
  5
EB
  8
DETAIL
  6
CONTINUOUS
 62
     5
 10
172.0
 20
-95.940073999999996
 30
0.0
 40
8.0
  0
CIRCLE
  5
EC
  8
DETAIL
  6
CONTINUOUS
 62
     5
 10
193.5
 20
-95.940073999999996
 30
0.0
 40
8.0
  0
LINE
  5
ED
  8
DETAIL
  6
CONTINUOUS
 62
     5
 10
258.5
 20
-85.067793000000009
 30
0.0
 11
279.0
 21
-85.067793000000009
 31
0.0
  0
CIRCLE
  5
EE
  8
DETAIL
  6
CONTINUOUS
 62
     5
 10
279.5
 20
-95.940073999999996
 30
0.0
 40
8.0
  0
LINE
  5
EF
  8
DETAIL
  6
CONTINUOUS
 62
     5
 10
237.0
 20
-85.067793000000009
 30
0.0
 11
257.5
 21
-85.067793000000009
 31
0.0
  0
CIRCLE
  5
F0
  8
DETAIL
  6
CONTINUOUS
 62
     5
 10
258.0
 20
-95.940073999999996
 30
0.0
 40
8.0
  0
CIRCLE
  5
F1
  8
DETAIL
  6
CONTINUOUS
 62
     5
 10
236.5
 20
-95.940073999999996
 30
0.0
 40
8.0
  0
ARC
  5
F2
  8
DETAIL
  6
CONTINUOUS
 62
     5
 10
331.0
 20
-80.940073999999996
 30
0.0
 40
4.0
 50
0.0
 51
90.0
  0
LINE
  5
F3
  8
DETAIL
  6
CONTINUOUS
 62
     5
 10
318.87228099999999
 20
-89.440073999999996
 30
0.0
 11
318.87228099999999
 21
-95.440073999999996
 31
0.0
  0
ARC
  5
F4
  8
DETAIL
  6
CONTINUOUS
 62
     5
 10
314.5
 20
-102.440074
 30
0.0
 40
4.3722810000000001
 50
283.58254199999999
 51
0.0
  0
ARC
  5
F5
  8
DETAIL
  6
CONTINUOUS
 62
     5
 10
314.5
 20
-89.440073999999996
 30
0.0
 40
4.3722810000000001
 50
0.0
 51
90.0
  0
LINE
  5
F6
  8
DETAIL
  6
CONTINUOUS
 62
     5
 10
318.87228099999999
 20
-96.440073999999996
 30
0.0
 11
318.87228099999999
 21
-102.440074
 31
0.0
  0
LINE
  5
F7
  8
DETAIL
  6
CONTINUOUS
 62
     5
 10
301.5
 20
-85.067793000000009
 30
0.0
 11
314.5
 21
-85.067793000000009
 31
0.0
  0
LINE
  5
F8
  8
DETAIL
  6
CONTINUOUS
 62
     5
 10
280.0
 20
-85.067793000000009
 30
0.0
 11
300.5
 21
-85.067793000000009
 31
0.0
  0
ARC
  5
F9
  8
DETAIL
  6
CONTINUOUS
 62
     5
 10
331.0
 20
-109.940074
 30
0.0
 40
4.0
 50
270.0
 51
0.0
  0
CIRCLE
  5
FA
  8
DETAIL
  6
CONTINUOUS
 62
     5
 10
301.0
 20
-95.940073999999996
 30
0.0
 40
8.0
  0
LINE
  5
FB
  8
DETAIL
  6
CONTINUOUS
 62
     5
 10
335.0
 20
-109.940074
 30
0.0
 11
335.0
 21
-80.940073999999996
 31
0.0
  0
LINE
  5
FC
  8
DETAIL
  6
CONTINUOUS
 62
     5
 10
-350.10000000000002
 20
-153.5
 30
0.0
 11
350.10000000000002
 21
-153.5
 31
0.0
  0
LINE
  5
FD
  8
DETAIL
  6
CONTINUOUS
 62
     5
 10
-350.10000000000002
 20
-161.5
 30
0.0
 11
350.10000000000002
 21
-161.5
 31
0.0
  0
LINE
  5
FE
  8
DETAIL
  6
CONTINUOUS
 62
     5
 10
-350.10000000000002
 20
-410.0
 30
0.0
 11
350.10000000000002
 21
-410.0
 31
0.0
  0
LINE
  5
FF
  8
NOTE
  6
CONTINUOUS
 62
     4
 10
0.0
 20
-20.0
 30
0.0
 11
0.0
 21
20.0
 31
0.0
  0
LINE
  5
100
  8
NOTE
  6
CONTINUOUS
 62
     4
 10
-20.0
 20
0.0
 30
0.0
 11
20.0
 21
0.0
 31
0.0
  0
LINE
  5
101
  8
NOTE
  6
CONTINUOUS
 62
     4
 10
-17.294329999999999
 20
-36.068077000000002
 30
0.0
 11
0.0
 21
0.0
 31
0.0
  0
LINE
  5
102
  8
NOTE
  6
CONTINUOUS
 62
     4
 10
0.0
 20
0.0
 30
0.0
 11
3.0567090000000001
 21
-39.883035999999997
 31
0.0
  0
LINE
  5
103
  8
NOTE
  6
CONTINUOUS
 62
     4
 10
0.0
 20
0.0
 30
0.0
 11
-51.664476999999998
 21
-306.01570099999998
 31
0.0
  0
TEXT
  5
104
  8
NOTE
  6
CONTINUOUS
 62
     4
 10
-164.56957800000001
 20
-278.940155
 30
0.0
 40
64.0
  1
EL
 41
0.9
  0
LINE
  5
105
  8
NOTE
  6
CONTINUOUS
 62
     4
 10
-51.664476999999998
 20
-306.01570099999998
 30
0.0
 11
-197.32978899999989
 21
-306.01570099999998
 31
0.0
  0
CIRCLE
  5
106
  8
FIX
  6
CONTINUOUS
 62
    11
 39
50.0
 10
-250.0
 20
0.0
 30
0.0
 40
5.0
  0
LINE
  5
107
  8
NOTE
  6
CONTINUOUS
 62
     4
 10
-250.0
 20
-20.0
 30
0.0
 11
-250.0
 21
20.0
 31
0.0
  0
LINE
  5
108
  8
NOTE
  6
CONTINUOUS
 62
     4
 10
-270.0
 20
0.0
 30
0.0
 11
-230.0
 21
0.0
 31
0.0
  0
LINE
  5
109
  8
NOTE
  6
CONTINUOUS
 62
     4
 10
-260.0
 20
-20.0
 30
0.0
 11
-260.0
 21
20.0
 31
0.0
  0
LINE
  5
10A
  8
NOTE
  6
CONTINUOUS
 62
     4
 10
-280.0
 20
0.0
 30
0.0
 11
-240.0
 21
0.0
 31
0.0
  0
CIRCLE
  5
10B
  8
FIX
  6
CONTINUOUS
 62
    11
 39
50.0
 10
-260.0
 20
0.0
 30
0.0
 40
6.5
  0
CIRCLE
  5
10C
  8
FIX
  6
CONTINUOUS
 62
    11
 39
50.0
 10
260.0
 20
0.0
 30
0.0
 40
6.5
  0
CIRCLE
  5
10D
  8
FIX
  6
CONTINUOUS
 62
    11
 39
50.0
 10
250.0
 20
0.0
 30
0.0
 40
5.0
  0
LINE
  5
10E
  8
NOTE
  6
CONTINUOUS
 62
     4
 10
250.0
 20
-20.0
 30
0.0
 11
250.0
 21
20.0
 31
0.0
  0
LINE
  5
10F
  8
NOTE
  6
CONTINUOUS
 62
     4
 10
270.0
 20
0.0
 30
0.0
 11
230.0
 21
0.0
 31
0.0
  0
LINE
  5
110
  8
NOTE
  6
CONTINUOUS
 62
     4
 10
260.0
 20
-20.0
 30
0.0
 11
260.0
 21
20.0
 31
0.0
  0
LINE
  5
111
  8
NOTE
  6
CONTINUOUS
 62
     4
 10
280.0
 20
0.0
 30
0.0
 11
240.0
 21
0.0
 31
0.0
  0
LINE
  5
112
  8
SIZE
  6
CONTINUOUS
 62
    30
 10
250.0
 20
62.100000000000001
 30
0.0
 11
250.0
 21
343.54942999999997
 31
0.0
  0
LINE
  5
113
  8
SIZE
  6
CONTINUOUS
 62
    30
 10
-250.0
 20
55.100000000000001
 30
0.0
 11
-250.0
 21
343.54942999999997
 31
0.0
  0
LINE
  5
114
  8
SIZE
  6
CONTINUOUS
 62
    30
 10
238.0
 20
323.54942999999997
 30
0.0
 11
-238.0
 21
323.54942999999997
 31
0.0
  0
CIRCLE
  5
115
  8
SIZE
  6
CONTINUOUS
 62
    30
 10
250.0
 20
323.54942999999997
 30
0.0
 40
6.0
  0
LINE
  5
116
  8
SIZE
  6
CONTINUOUS
 62
    30
 10
250.0
 20
323.54942999999997
 30
0.0
 11
238.0
 21
323.54942999999997
 31
0.0
  0
CIRCLE
  5
117
  8
SIZE
  6
CONTINUOUS
 62
    30
 10
-250.0
 20
323.54942999999997
 30
0.0
 40
6.0
  0
LINE
  5
118
  8
SIZE
  6
CONTINUOUS
 62
    30
 10
-250.0
 20
323.54942999999997
 30
0.0
 11
-238.0
 21
323.54942999999997
 31
0.0
  0
TEXT
  5
119
  8
SIZE
  6
CONTINUOUS
 62
    30
 10
-74.05714285714285
 20
348.54942999999997
 30
0.0
 40
64.0
  1
500
 41
0.9
 72
     1
 11
0.0
 21
348.54942999999997
 31
0.0
  0
POINT
  5
11A
  8
DEFPOINTS
  6
CONTINUOUS
 62
    30
 10
250.0
 20
42.099999999999987
 30
0.0
  0
POINT
  5
11B
  8
DEFPOINTS
  6
CONTINUOUS
 62
    30
 10
-250.0
 20
35.100000000000001
 30
0.0
  0
POINT
  5
11C
  8
DEFPOINTS
  6
CONTINUOUS
 62
    30
 10
-250.0
 20
323.54942999999997
 30
0.0
  0
LINE
  5
11D
  8
SIZE
  6
CONTINUOUS
 62
    30
 10
0.0
 20
111.34451
 30
0.0
 11
0.0
 21
221.70995500000001
 31
0.0
  0
LINE
  5
11E
  8
SIZE
  6
CONTINUOUS
 62
    30
 10
175.0
 20
92.217268000000004
 30
0.0
 11
175.0
 21
221.70995500000001
 31
0.0
  0
LINE
  5
11F
  8
SIZE
  6
CONTINUOUS
 62
    30
 10
12.0
 20
201.70995500000001
 30
0.0
 11
163.0
 21
201.70995500000001
 31
0.0
  0
TEXT
  5
120
  8
SIZE
  6
CONTINUOUS
 62
    30
 10
25.02926042857144
 20
226.70995500000001
 30
0.0
 40
64.0
  1
175
 41
0.9
 72
     1
 11
93.600688999999988
 21
226.70995500000001
 31
0.0
  0
CIRCLE
  5
121
  8
SIZE
  6
CONTINUOUS
 62
    30
 10
0.0
 20
201.70995500000001
 30
0.0
 40
6.0
  0
LINE
  5
122
  8
SIZE
  6
CONTINUOUS
 62
    30
 10
0.0
 20
201.70995500000001
 30
0.0
 11
12.0
 21
201.70995500000001
 31
0.0
  0
CIRCLE
  5
123
  8
SIZE
  6
CONTINUOUS
 62
    30
 10
175.0
 20
201.70995500000001
 30
0.0
 40
6.0
  0
LINE
  5
124
  8
SIZE
  6
CONTINUOUS
 62
    30
 10
175.0
 20
201.70995500000001
 30
0.0
 11
163.0
 21
201.70995500000001
 31
0.0
  0
POINT
  5
125
  8
DEFPOINTS
  6
CONTINUOUS
 62
    30
 10
0.0
 20
91.34451
 30
0.0
  0
POINT
  5
126
  8
DEFPOINTS
  6
CONTINUOUS
 62
    30
 10
175.0
 20
72.217268000000004
 30
0.0
  0
POINT
  5
127
  8
DEFPOINTS
  6
CONTINUOUS
 62
    30
 10
175.0
 20
201.70995500000001
 30
0.0
  0
LINE
  5
128
  8
SIZE
  6
CONTINUOUS
 62
    30
 10
249.0
 20
70.0
 30
0.0
 11
249.0
 21
184.00308200000001
 31
0.0
  0
LINE
  5
129
  8
SIZE
  6
CONTINUOUS
 62
    30
 10
101.0
 20
70.0
 30
0.0
 11
101.0
 21
184.00308200000001
 31
0.0
  0
LINE
  5
12A
  8
SIZE
  6
CONTINUOUS
 62
    30
 10
237.0
 20
164.00308200000001
 30
0.0
 11
113.0
 21
164.00308200000001
 31
0.0
  0
LINE
  5
12B
  8
SIZE
  6
CONTINUOUS
 62
    30
 10
524.64788999999996
 20
164.00308200000001
 30
0.0
 11
249.0
 21
164.00308200000001
 31
0.0
  0
TEXT
  5
12C
  8
SIZE
  6
CONTINUOUS
 62
    30
 10
296.12788942857139
 20
189.00308200000001
 30
0.0
 40
64.0
  1
φ148
 41
0.9
 72
     1
 11
405.01931799999988
 21
189.00308200000001
 31
0.0
  0
CIRCLE
  5
12D
  8
SIZE
  6
CONTINUOUS
 62
    30
 10
249.0
 20
164.00308200000001
 30
0.0
 40
6.0
  0
LINE
  5
12E
  8
SIZE
  6
CONTINUOUS
 62
    30
 10
249.0
 20
164.00308200000001
 30
0.0
 11
237.0
 21
164.00308200000001
 31
0.0
  0
CIRCLE
  5
12F
  8
SIZE
  6
CONTINUOUS
 62
    30
 10
101.0
 20
164.00308200000001
 30
0.0
 40
6.0
  0
LINE
  5
130
  8
SIZE
  6
CONTINUOUS
 62
    30
 10
101.0
 20
164.00308200000001
 30
0.0
 11
113.0
 21
164.00308200000001
 31
0.0
  0
POINT
  5
131
  8
DEFPOINTS
  6
CONTINUOUS
 62
    30
 10
249.0
 20
50.0
 30
0.0
  0
POINT
  5
132
  8
DEFPOINTS
  6
CONTINUOUS
 62
    30
 10
101.0
 20
50.0
 30
0.0
  0
POINT
  5
133
  8
DEFPOINTS
  6
CONTINUOUS
 62
    30
 10
101.0
 20
164.00308200000001
 30
0.0
  0
LINE
  5
134
  8
SIZE
  6
CONTINUOUS
 62
    30
 10
-395.0
 20
0.0
 30
0.0
 11
-692.98879899999997
 21
0.0
 31
0.0
  0
LINE
  5
135
  8
SIZE
  6
CONTINUOUS
 62
    30
 10
-392.0
 20
-440.0
 30
0.0
 11
-692.98879899999997
 21
-440.0
 31
0.0
  0
LINE
  5
136
  8
SIZE
  6
CONTINUOUS
 62
    30
 10
-672.98879899999986
 20
-12.0
 30
0.0
 11
-672.98879899999986
 21
-428.0
 31
0.0
  0
CIRCLE
  5
137
  8
SIZE
  6
CONTINUOUS
 62
    30
 10
-672.98879899999986
 20
0.0
 30
0.0
 40
6.0
  0
LINE
  5
138
  8
SIZE
  6
CONTINUOUS
 62
    30
 10
-672.98879899999986
 20
0.0
 30
0.0
 11
-672.98879899999986
 21
-12.0
 31
0.0
  0
CIRCLE
  5
139
  8
SIZE
  6
CONTINUOUS
 62
    30
 10
-672.98879899999986
 20
-440.0
 30
0.0
 40
6.0
  0
LINE
  5
13A
  8
SIZE
  6
CONTINUOUS
 62
    30
 10
-672.98879899999986
 20
-440.0
 30
0.0
 11
-672.98879899999986
 21
-428.0
 31
0.0
  0
TEXT
  5
13B
  8
SIZE
  6
CONTINUOUS
 62
    30
 10
-697.98879899999986
 20
-294.05714285714282
 30
0.0
 40
64.0
  1
440
 50
90.0
 41
0.9
 72
     1
 11
-697.98879899999986
 21
-220.0
 31
0.0
  0
POINT
  5
13C
  8
DEFPOINTS
  6
CONTINUOUS
 62
    30
 10
-375.0
 20
0.0
 30
0.0
  0
POINT
  5
13D
  8
DEFPOINTS
  6
CONTINUOUS
 62
    30
 10
-372.0
 20
-440.0
 30
0.0
  0
POINT
  5
13E
  8
DEFPOINTS
  6
CONTINUOUS
 62
    30
 10
-672.98879899999986
 20
-440.0
 30
0.0
  0
LINE
  5
13F
  8
SIZE
  6
CONTINUOUS
 62
    30
 10
269.0
 20
50.0
 30
0.0
 11
557.980548
 21
50.0
 31
0.0
  0
LINE
  5
140
  8
SIZE
  6
CONTINUOUS
 62
    30
 10
278.97130399999998
 20
10.0
 30
0.0
 11
557.980548
 21
10.0
 31
0.0
  0
LINE
  5
141
  8
SIZE
  6
CONTINUOUS
 62
    30
 10
537.98054799999989
 20
62.0
 30
0.0
 11
537.98054799999989
 21
74.0
 31
0.0
  0
LINE
  5
142
  8
SIZE
  6
CONTINUOUS
 62
    30
 10
537.98054799999989
 20
-2.0
 30
0.0
 11
537.98054799999989
 21
-14.0
 31
0.0
  0
TEXT
  5
143
  8
SIZE
  6
CONTINUOUS
 62
    30
 10
512.98054799999989
 20
-128.5771504285714
 30
0.0
 40
64.0
  1
40
 50
90.0
 41
0.9
 72
     1
 11
512.98054799999989
 21
-81.948578999999995
 31
0.0
  0
LINE
  5
144
  8
SIZE
  6
CONTINUOUS
 62
    30
 10
537.98054799999989
 20
50.0
 30
0.0
 11
537.98054799999989
 21
10.0
 31
0.0
  0
LINE
  5
145
  8
SIZE
  6
CONTINUOUS
 62
    30
 10
537.98054799999989
 20
50.0
 30
0.0
 11
537.98054799999989
 21
10.0
 31
0.0
  0
CIRCLE
  5
146
  8
SIZE
  6
CONTINUOUS
 62
    30
 10
537.98054799999989
 20
50.0
 30
0.0
 40
6.0
  0
LINE
  5
147
  8
SIZE
  6
CONTINUOUS
 62
    30
 10
537.98054799999989
 20
50.0
 30
0.0
 11
537.98054799999989
 21
62.0
 31
0.0
  0
CIRCLE
  5
148
  8
SIZE
  6
CONTINUOUS
 62
    30
 10
537.98054799999989
 20
10.0
 30
0.0
 40
6.0
  0
LINE
  5
149
  8
SIZE
  6
CONTINUOUS
 62
    30
 10
537.98054799999989
 20
10.0
 30
0.0
 11
537.98054799999989
 21
-2.0
 31
0.0
  0
POINT
  5
14A
  8
DEFPOINTS
  6
CONTINUOUS
 62
    30
 10
249.0
 20
50.0
 30
0.0
  0
POINT
  5
14B
  8
DEFPOINTS
  6
CONTINUOUS
 62
    30
 10
258.97130399999998
 20
10.0
 30
0.0
  0
POINT
  5
14C
  8
DEFPOINTS
  6
CONTINUOUS
 62
    30
 10
537.98054799999989
 20
10.0
 30
0.0
  0
LINE
  5
14D
  8
SIZE
  6
CONTINUOUS
 62
    30
 10
375.0
 20
-457.0
 30
0.0
 11
375.0
 21
-697.06382900000006
 31
0.0
  0
LINE
  5
14E
  8
SIZE
  6
CONTINUOUS
 62
    30
 10
-375.0
 20
-457.0
 30
0.0
 11
-375.0
 21
-697.06382900000006
 31
0.0
  0
LINE
  5
14F
  8
SIZE
  6
CONTINUOUS
 62
    30
 10
363.0
 20
-677.06382900000006
 30
0.0
 11
-363.0
 21
-677.06382900000006
 31
0.0
  0
CIRCLE
  5
150
  8
SIZE
  6
CONTINUOUS
 62
    30
 10
375.0
 20
-677.06382900000006
 30
0.0
 40
6.0
  0
LINE
  5
151
  8
SIZE
  6
CONTINUOUS
 62
    30
 10
375.0
 20
-677.06382900000006
 30
0.0
 11
363.0
 21
-677.06382900000006
 31
0.0
  0
CIRCLE
  5
152
  8
SIZE
  6
CONTINUOUS
 62
    30
 10
-375.0
 20
-677.06382900000006
 30
0.0
 40
6.0
  0
LINE
  5
153
  8
SIZE
  6
CONTINUOUS
 62
    30
 10
-375.0
 20
-677.06382900000006
 30
0.0
 11
-363.0
 21
-677.06382900000006
 31
0.0
  0
TEXT
  5
154
  8
SIZE
  6
CONTINUOUS
 62
    30
 10
-74.057142857142864
 20
-652.06382900000006
 30
0.0
 40
64.0
  1
750
 41
0.9
 72
     1
 11
0.0
 21
-652.06382900000006
 31
0.0
  0
POINT
  5
155
  8
DEFPOINTS
  6
CONTINUOUS
 62
    30
 10
375.0
 20
-437.0
 30
0.0
  0
POINT
  5
156
  8
DEFPOINTS
  6
CONTINUOUS
 62
    30
 10
-375.0
 20
-437.0
 30
0.0
  0
POINT
  5
157
  8
DEFPOINTS
  6
CONTINUOUS
 62
    30
 10
-375.0
 20
-677.06382900000006
 30
0.0
  0
TEXT
  5
158
  8
NOTE
  6
CONTINUOUS
 62
     4
 10
478.13775700000002
 20
-225.629636
 30
0.0
 40
64.0
  1
AH 2-φ13
 41
0.9
  0
LINE
  5
159
  8
NOTE
  6
CONTINUOUS
 62
     4
 10
455.19613099999998
 20
-259.44157200000001
 30
0.0
 11
943.08832599999994
 21
-259.44157200000001
 31
0.0
  0
TEXT
  5
15A
  8
NOTE
  6
CONTINUOUS
 62
     4
 10
-629.62217199999998
 20
396.34943099999998
 30
0.0
 40
64.0
  1
4-φ10
 41
0.9
  0
LINE
  5
15B
  8
NOTE
  6
CONTINUOUS
 62
     4
 10
-316.436127
 20
362.53749499999998
 30
0.0
 11
-648.06656900000007
 21
362.53749499999998
 31
0.0
  0
TEXT
  5
15C
  8
NOTE
  6
CONTINUOUS
 62
     4
 10
-637.03398200000004
 20
271.92458900000003
 30
0.0
 40
64.0
  1
4-φ6
 41
0.9
  0
LINE
  5
15D
  8
NOTE
  6
CONTINUOUS
 62
     4
 10
-394.060855
 20
238.00799699999999
 30
0.0
 11
-646.01605499999994
 21
238.00799699999999
 31
0.0
  0
LINE
  5
15E
  8
NOTE
  6
CONTINUOUS
 62
     4
 10
260.0
 20
0.0
 30
0.0
 11
455.19613099999998
 21
-259.44157200000001
 31
0.0
  0
LINE
  5
15F
  8
NOTE
  6
CONTINUOUS
 62
     4
 10
274.58615299999991
 20
-37.245727000000002
 30
0.0
 11
260.0
 21
0.0
 31
0.0
  0
LINE
  5
160
  8
NOTE
  6
CONTINUOUS
 62
     4
 10
260.0
 20
0.0
 30
0.0
 11
291.254842
 21
-24.962669000000002
 31
0.0
  0
CIRCLE
  5
161
  8
FIX
  6
CONTINUOUS
 62
    11
 39
50.0
 10
250.0
 20
0.0
 30
0.0
 40
3.0
  0
LINE
  5
162
  8
NOTE
  6
CONTINUOUS
 62
     4
 10
-394.060855
 20
238.00799699999999
 30
0.0
 11
-255.0
 21
0.0
 31
0.0
  0
LINE
  5
163
  8
NOTE
  6
CONTINUOUS
 62
     4
 10
-283.93521199999998
 20
27.617992000000001
 30
0.0
 11
-255.0
 21
0.0
 31
0.0
  0
LINE
  5
164
  8
NOTE
  6
CONTINUOUS
 62
     4
 10
-255.0
 20
0.0
 30
0.0
 11
-266.24963200000002
 21
38.385489
 31
0.0
  0
LINE
  5
165
  8
SIZE
  6
CONTINUOUS
 62
    30
 39
50.0
 10
537.98054799999989
 20
10.0
 30
0.0
 11
537.98054799999989
 21
-127.5278899999999
 31
0.0
  0
CIRCLE
  5
166
  8
FIX
  6
CONTINUOUS
 62
    11
 39
50.0
 10
-255.0
 20
0.0
 30
0.0
 40
3.0
  0
LINE
  5
167
  8
NOTE
  6
CONTINUOUS
 62
     4
 10
-255.0
 20
-20.0
 30
0.0
 11
-255.0
 21
20.0
 31
0.0
  0
LINE
  5
168
  8
NOTE
  6
CONTINUOUS
 62
     4
 10
-275.0
 20
0.0
 30
0.0
 11
-235.0
 21
0.0
 31
0.0
  0
LINE
  5
169
  8
NOTE
  6
CONTINUOUS
 62
     4
 10
255.0
 20
-20.0
 30
0.0
 11
255.0
 21
20.0
 31
0.0
  0
LINE
  5
16A
  8
NOTE
  6
CONTINUOUS
 62
     4
 10
275.0
 20
0.0
 30
0.0
 11
235.0
 21
0.0
 31
0.0
  0
CIRCLE
  5
16B
  8
FIX
  6
CONTINUOUS
 62
    11
 39
50.0
 10
255.0
 20
0.0
 30
0.0
 40
3.0
  0
LINE
  5
16C
  8
SIZE
  6
CONTINUOUS
 62
    30
 10
255.0
 20
40.153312
 30
0.0
 11
255.0
 21
462.0122649999999
 31
0.0
  0
LINE
  5
16D
  8
SIZE
  6
CONTINUOUS
 62
    30
 10
-255.0
 20
40.0
 30
0.0
 11
-255.0
 21
462.0122649999999
 31
0.0
  0
LINE
  5
16E
  8
SIZE
  6
CONTINUOUS
 62
    30
 10
243.0
 20
442.01226500000001
 30
0.0
 11
-243.0
 21
442.01226500000001
 31
0.0
  0
CIRCLE
  5
16F
  8
SIZE
  6
CONTINUOUS
 62
    30
 10
255.0
 20
442.01226500000001
 30
0.0
 40
6.0
  0
LINE
  5
170
  8
SIZE
  6
CONTINUOUS
 62
    30
 10
255.0
 20
442.01226500000001
 30
0.0
 11
243.0
 21
442.01226500000001
 31
0.0
  0
CIRCLE
  5
171
  8
SIZE
  6
CONTINUOUS
 62
    30
 10
-255.0
 20
442.01226500000001
 30
0.0
 40
6.0
  0
LINE
  5
172
  8
SIZE
  6
CONTINUOUS
 62
    30
 10
-255.0
 20
442.01226500000001
 30
0.0
 11
-243.0
 21
442.01226500000001
 31
0.0
  0
TEXT
  5
173
  8
SIZE
  6
CONTINUOUS
 62
    30
 10
-68.571428571428555
 20
467.01226500000001
 30
0.0
 40
64.0
  1
510
 41
0.9
 72
     1
 11
0.0
 21
467.01226500000001
 31
0.0
  0
POINT
  5
174
  8
DEFPOINTS
  6
CONTINUOUS
 62
    30
 10
255.0
 20
20.153312
 30
0.0
  0
POINT
  5
175
  8
DEFPOINTS
  6
CONTINUOUS
 62
    30
 10
-255.0
 20
20.0
 30
0.0
  0
POINT
  5
176
  8
DEFPOINTS
  6
CONTINUOUS
 62
    30
 10
-255.0
 20
442.01226500000001
 30
0.0
  0
LINE
  5
177
  8
DETAIL
  6
CONTINUOUS
 62
     5
 10
-264.0
 20
30.0
 30
0.0
 11
-235.972342
 21
30.0
 31
0.0
  0
LINE
  5
178
  8
NOTE
  6
CONTINUOUS
 62
     4
 10
250.0
 20
-4.0
 30
0.0
 11
250.0
 21
36.0
 31
0.0
  0
LINE
  5
179
  8
NOTE
  6
CONTINUOUS
 62
     4
 10
270.0
 20
16.0
 30
0.0
 11
230.0
 21
16.0
 31
0.0
  0
LINE
  5
17A
  8
NOTE
  6
CONTINUOUS
 62
     4
 10
250.0
 20
3.0
 30
0.0
 11
250.0
 21
43.0
 31
0.0
  0
LINE
  5
17B
  8
NOTE
  6
CONTINUOUS
 62
     4
 10
270.0
 20
23.0
 30
0.0
 11
230.0
 21
23.0
 31
0.0
  0
LINE
  5
17C
  8
SIZE
  6
CONTINUOUS
 62
    30
 10
-320.0
 20
0.0
 30
0.0
 11
-692.98879899999997
 21
0.0
 31
0.0
  0
LINE
  5
17D
  8
SIZE
  6
CONTINUOUS
 62
    30
 10
-284.0
 20
30.0
 30
0.0
 11
-692.98879899999997
 21
30.0
 31
0.0
  0
LINE
  5
17E
  8
SIZE
  6
CONTINUOUS
 62
    30
 10
-672.98879899999986
 20
-12.0
 30
0.0
 11
-672.98879899999986
 21
-24.0
 31
0.0
  0
LINE
  5
17F
  8
SIZE
  6
CONTINUOUS
 62
    30
 10
-672.98879899999986
 20
42.0
 30
0.0
 11
-672.98879899999986
 21
54.0
 31
0.0
  0
LINE
  5
180
  8
SIZE
  6
CONTINUOUS
 62
    30
 10
-672.98879899999986
 20
212.03156899999999
 30
0.0
 11
-672.98879899999986
 21
30.0
 31
0.0
  0
TEXT
  5
181
  8
SIZE
  6
CONTINUOUS
 62
    30
 10
-697.98879899999986
 20
93.774426571428563
 30
0.0
 40
64.0
  1
30
 50
90.0
 41
0.9
 72
     1
 11
-697.98879899999986
 21
140.402998
 31
0.0
  0
LINE
  5
182
  8
SIZE
  6
CONTINUOUS
 62
    30
 10
-672.98879899999986
 20
0.0
 30
0.0
 11
-672.98879899999986
 21
30.0
 31
0.0
  0
LINE
  5
183
  8
SIZE
  6
CONTINUOUS
 62
    30
 10
-672.98879899999986
 20
0.0
 30
0.0
 11
-672.98879899999986
 21
30.0
 31
0.0
  0
CIRCLE
  5
184
  8
SIZE
  6
CONTINUOUS
 62
    30
 10
-672.98879899999986
 20
0.0
 30
0.0
 40
6.0
  0
LINE
  5
185
  8
SIZE
  6
CONTINUOUS
 62
    30
 10
-672.98879899999986
 20
0.0
 30
0.0
 11
-672.98879899999986
 21
-12.0
 31
0.0
  0
CIRCLE
  5
186
  8
SIZE
  6
CONTINUOUS
 62
    30
 10
-672.98879899999986
 20
30.0
 30
0.0
 40
6.0
  0
LINE
  5
187
  8
SIZE
  6
CONTINUOUS
 62
    30
 10
-672.98879899999986
 20
30.0
 30
0.0
 11
-672.98879899999986
 21
42.0
 31
0.0
  0
POINT
  5
188
  8
DEFPOINTS
  6
CONTINUOUS
 62
    30
 10
-300.0
 20
0.0
 30
0.0
  0
POINT
  5
189
  8
DEFPOINTS
  6
CONTINUOUS
 62
    30
 10
-264.0
 20
30.0
 30
0.0
  0
POINT
  5
18A
  8
DEFPOINTS
  6
CONTINUOUS
 62
    30
 10
-672.98879899999986
 20
30.0
 30
0.0
  0
LINE
  5
18B
  8
SIZE
  6
CONTINUOUS
 62
    30
 10
-320.0
 20
0.0
 30
0.0
 11
-579.84542699999986
 21
0.0
 31
0.0
  0
LINE
  5
18C
  8
SIZE
  6
CONTINUOUS
 62
    30
 10
-290.0
 20
16.0
 30
0.0
 11
-579.84542699999986
 21
16.0
 31
0.0
  0
LINE
  5
18D
  8
SIZE
  6
CONTINUOUS
 62
    30
 10
-559.84542699999986
 20
-12.0
 30
0.0
 11
-559.84542699999986
 21
-24.0
 31
0.0
  0
LINE
  5
18E
  8
SIZE
  6
CONTINUOUS
 62
    30
 10
-559.84542699999986
 20
28.0
 30
0.0
 11
-559.84542699999986
 21
40.0
 31
0.0
  0
LINE
  5
18F
  8
SIZE
  6
CONTINUOUS
 62
    30
 10
-559.84542699999986
 20
186.88408000000001
 30
0.0
 11
-559.84542699999986
 21
16.0
 31
0.0
  0
TEXT
  5
190
  8
SIZE
  6
CONTINUOUS
 62
    30
 10
-584.84542699999986
 20
82.341222428571456
 30
0.0
 40
64.0
  1
16
 50
90.0
 41
0.9
 72
     1
 11
-584.84542699999986
 21
122.112651
 31
0.0
  0
LINE
  5
191
  8
SIZE
  6
CONTINUOUS
 62
    30
 10
-559.84542699999986
 20
0.0
 30
0.0
 11
-559.84542699999986
 21
16.0
 31
0.0
  0
LINE
  5
192
  8
SIZE
  6
CONTINUOUS
 62
    30
 10
-559.84542699999986
 20
0.0
 30
0.0
 11
-559.84542699999986
 21
16.0
 31
0.0
  0
CIRCLE
  5
193
  8
SIZE
  6
CONTINUOUS
 62
    30
 10
-559.84542699999986
 20
0.0
 30
0.0
 40
6.0
  0
LINE
  5
194
  8
SIZE
  6
CONTINUOUS
 62
    30
 10
-559.84542699999986
 20
0.0
 30
0.0
 11
-559.84542699999986
 21
-12.0
 31
0.0
  0
CIRCLE
  5
195
  8
SIZE
  6
CONTINUOUS
 62
    30
 10
-559.84542699999986
 20
16.0
 30
0.0
 40
6.0
  0
LINE
  5
196
  8
SIZE
  6
CONTINUOUS
 62
    30
 10
-559.84542699999986
 20
16.0
 30
0.0
 11
-559.84542699999986
 21
28.0
 31
0.0
  0
POINT
  5
197
  8
DEFPOINTS
  6
CONTINUOUS
 62
    30
 10
-300.0
 20
0.0
 30
0.0
  0
POINT
  5
198
  8
DEFPOINTS
  6
CONTINUOUS
 62
    30
 10
-270.0
 20
16.0
 30
0.0
  0
POINT
  5
199
  8
DEFPOINTS
  6
CONTINUOUS
 62
    30
 10
-559.84542699999986
 20
16.0
 30
0.0
  0
LINE
  5
19A
  8
SIZE
  6
CONTINUOUS
 62
    30
 10
-290.0
 20
16.0
 30
0.0
 11
-456.29507199999989
 21
16.0
 31
0.0
  0
LINE
  5
19B
  8
SIZE
  6
CONTINUOUS
 62
    30
 10
-290.0
 20
23.0
 30
0.0
 11
-456.29507199999989
 21
23.0
 31
0.0
  0
LINE
  5
19C
  8
SIZE
  6
CONTINUOUS
 62
    30
 10
-436.29507199999989
 20
4.0
 30
0.0
 11
-436.29507199999989
 21
-8.0
 31
0.0
  0
LINE
  5
19D
  8
SIZE
  6
CONTINUOUS
 62
    30
 10
-436.29507199999989
 20
35.0
 30
0.0
 11
-436.29507199999989
 21
47.0
 31
0.0
  0
LINE
  5
19E
  8
SIZE
  6
CONTINUOUS
 62
    30
 10
-436.29507199999989
 20
144.696786
 30
0.0
 11
-436.29507199999989
 21
23.0
 31
0.0
  0
TEXT
  5
19F
  8
SIZE
  6
CONTINUOUS
 62
    30
 10
-461.29507199999989
 20
81.296785999999997
 30
0.0
 40
64.0
  1
7
 50
90.0
 41
0.9
 72
     1
 11
-461.29507199999989
 21
100.496786
 31
0.0
  0
LINE
  5
1A0
  8
SIZE
  6
CONTINUOUS
 62
    30
 10
-436.29507199999989
 20
16.0
 30
0.0
 11
-436.29507199999989
 21
23.0
 31
0.0
  0
LINE
  5
1A1
  8
SIZE
  6
CONTINUOUS
 62
    30
 10
-436.29507199999989
 20
16.0
 30
0.0
 11
-436.29507199999989
 21
23.0
 31
0.0
  0
CIRCLE
  5
1A2
  8
SIZE
  6
CONTINUOUS
 62
    30
 10
-436.29507199999989
 20
16.0
 30
0.0
 40
6.0
  0
LINE
  5
1A3
  8
SIZE
  6
CONTINUOUS
 62
    30
 10
-436.29507199999989
 20
16.0
 30
0.0
 11
-436.29507199999989
 21
4.0
 31
0.0
  0
CIRCLE
  5
1A4
  8
SIZE
  6
CONTINUOUS
 62
    30
 10
-436.29507199999989
 20
23.0
 30
0.0
 40
6.0
  0
LINE
  5
1A5
  8
SIZE
  6
CONTINUOUS
 62
    30
 10
-436.29507199999989
 20
23.0
 30
0.0
 11
-436.29507199999989
 21
35.0
 31
0.0
  0
POINT
  5
1A6
  8
DEFPOINTS
  6
CONTINUOUS
 62
    30
 10
-270.0
 20
16.0
 30
0.0
  0
POINT
  5
1A7
  8
DEFPOINTS
  6
CONTINUOUS
 62
    30
 10
-270.0
 20
23.0
 30
0.0
  0
POINT
  5
1A8
  8
DEFPOINTS
  6
CONTINUOUS
 62
    30
 10
-436.29507199999989
 20
23.0
 30
0.0
  0
LINE
  5
1A9
  8
OUTLINE
  6
CONTINUOUS
 62
     3
 10
-375.0
 20
0.0
 30
0.0
 11
-375.0
 21
-437.0
 31
0.0
  0
LINE
  5
1AA
  8
OUTLINE
  6
CONTINUOUS
 62
     3
 10
-372.0
 20
-440.0
 30
0.0
 11
372.0
 21
-440.0
 31
0.0
  0
LINE
  5
1AB
  8
OUTLINE
  6
CONTINUOUS
 62
     3
 10
375.0
 20
0.0
 30
0.0
 11
375.0
 21
-437.0
 31
0.0
  0
LINE
  5
1AC
  8
OUTLINE
  6
CONTINUOUS
 62
     3
 10
-375.0
 20
0.0
 30
0.0
 11
375.0
 21
0.0
 31
0.0
  0
ARC
  5
1AD
  8
OUTLINE
  6
CONTINUOUS
 62
     3
 10
-372.0
 20
-437.0
 30
0.0
 40
3.0
 50
180.0
 51
270.0
  0
ARC
  5
1AE
  8
OUTLINE
  6
CONTINUOUS
 62
     3
 10
372.0
 20
-437.0
 30
0.0
 40
3.0
 50
270.0
 51
0.0
  0
CIRCLE
  5
1AF
  8
FIX
  6
CONTINUOUS
 62
    11
 39
50.0
 10
-250.0
 20
16.0
 30
0.0
 40
6.5
  0
CIRCLE
  5
1B0
  8
FIX
  6
CONTINUOUS
 62
    11
 39
50.0
 10
-250.0
 20
0.0
 30
0.0
 40
3.0
  0
LINE
  5
1B1
  8
DETAIL
  6
CONTINUOUS
 62
     5
 39
50.0
 10
264.0
 20
1.658733999999999
 30
0.0
 11
264.0
 21
30.0
 31
0.0
  0
CIRCLE
  5
1B2
  8
FIX
  6
CONTINUOUS
 62
    11
 39
50.0
 10
250.0
 20
16.0
 30
0.0
 40
6.5
  0
LINE
  5
1B3
  8
DETAIL
  6
CONTINUOUS
 62
     5
 10
252.5
 20
23.0
 30
0.0
 11
252.5
 21
22.63325
 31
0.0
  0
ARC
  5
1B4
  8
DETAIL
  6
CONTINUOUS
 62
     5
 10
253.5
 20
22.63325
 30
0.0
 40
1.0
 50
180.0
 51
242.181861
  0
ARC
  5
1B5
  8
DETAIL
  6
CONTINUOUS
 62
     5
 10
250.0
 20
23.0
 30
0.0
 40
2.5
 50
0.0
 51
113.57817799999999
  0
ARC
  5
1B6
  8
DETAIL
  6
CONTINUOUS
 62
     5
 10
253.5
 20
9.3667499999999997
 30
0.0
 40
1.0
 50
117.818139
 51
140.70972
  0
ARC
  5
1B7
  8
DETAIL
  6
CONTINUOUS
 62
     5
 10
250.0
 20
16.0
 30
0.0
 40
6.5
 50
297.81813900000009
 51
62.181860999999991
  0
LINE
  5
1B8
  8
DETAIL
  6
CONTINUOUS
 62
     5
 10
264.0
 20
30.0
 30
0.0
 11
249.0
 21
30.0
 31
0.0
  0
TEXT
  5
1B9
  8
NOTE
  6
CONTINUOUS
 62
     4
 10
132.603463
 20
65.884606000000005
 30
0.0
 40
64.0
  1
EA
 41
0.9
  0
LINE
  5
1BA
  8
NOTE
  6
CONTINUOUS
 62
     4
 39
50.0
 10
-250.0
 20
0.0
 30
0.0
 11
-316.436127
 21
362.53749499999998
 31
0.0
  0
LINE
  5
1BB
  8
NOTE
  6
CONTINUOUS
 62
     4
 10
-267.46168799999998
 20
35.987351000000011
 30
0.0
 11
-250.0
 21
0.0
 31
0.0
  0
LINE
  5
1BC
  8
NOTE
  6
CONTINUOUS
 62
     4
 10
-250.0
 20
0.0
 30
0.0
 11
-247.12858900000001
 21
39.896804000000003
 31
0.0
  0
LINE
  5
1BD
  8
SIZE
  6
CONTINUOUS
 62
    30
 10
395.0
 20
0.0
 30
0.0
 11
696.31210699999997
 21
0.0
 31
0.0
  0
LINE
  5
1BE
  8
SIZE
  6
CONTINUOUS
 62
    30
 10
269.0
 20
50.0
 30
0.0
 11
696.31210699999997
 21
50.0
 31
0.0
  0
LINE
  5
1BF
  8
SIZE
  6
CONTINUOUS
 62
    30
 10
676.31210700000008
 20
-12.0
 30
0.0
 11
676.31210700000008
 21
-24.0
 31
0.0
  0
LINE
  5
1C0
  8
SIZE
  6
CONTINUOUS
 62
    30
 10
676.31210700000008
 20
62.0
 30
0.0
 11
676.31210700000008
 21
74.0
 31
0.0
  0
TEXT
  5
1C1
  8
SIZE
  6
CONTINUOUS
 62
    30
 10
651.31210700000008
 20
-125.5539554285714
 30
0.0
 40
64.0
  1
50
 50
90.0
 41
0.9
 72
     1
 11
651.31210700000008
 21
-78.925383999999994
 31
0.0
  0
LINE
  5
1C2
  8
SIZE
  6
CONTINUOUS
 62
    30
 10
676.31210700000008
 20
0.0
 30
0.0
 11
676.31210700000008
 21
50.0
 31
0.0
  0
LINE
  5
1C3
  8
SIZE
  6
CONTINUOUS
 62
    30
 10
676.31210700000008
 20
0.0
 30
0.0
 11
676.31210700000008
 21
50.0
 31
0.0
  0
CIRCLE
  5
1C4
  8
SIZE
  6
CONTINUOUS
 62
    30
 10
676.31210700000008
 20
0.0
 30
0.0
 40
6.0
  0
LINE
  5
1C5
  8
SIZE
  6
CONTINUOUS
 62
    30
 10
676.31210700000008
 20
0.0
 30
0.0
 11
676.31210700000008
 21
-12.0
 31
0.0
  0
CIRCLE
  5
1C6
  8
SIZE
  6
CONTINUOUS
 62
    30
 10
676.31210700000008
 20
50.0
 30
0.0
 40
6.0
  0
LINE
  5
1C7
  8
SIZE
  6
CONTINUOUS
 62
    30
 10
676.31210700000008
 20
50.0
 30
0.0
 11
676.31210700000008
 21
62.0
 31
0.0
  0
POINT
  5
1C8
  8
DEFPOINTS
  6
CONTINUOUS
 62
    30
 10
375.0
 20
0.0
 30
0.0
  0
POINT
  5
1C9
  8
DEFPOINTS
  6
CONTINUOUS
 62
    30
 10
249.0
 20
50.0
 30
0.0
  0
POINT
  5
1CA
  8
DEFPOINTS
  6
CONTINUOUS
 62
    30
 10
676.31210700000008
 20
50.0
 30
0.0
  0
LINE
  5
1CB
  8
SIZE
  6
CONTINUOUS
 62
    30
 39
50.0
 10
676.31210700000008
 20
0.0
 30
0.0
 11
676.31210700000008
 21
-131.77320599999999
 31
0.0
  0
TEXT
  5
1E1
  8
ETC
  6
CONTINUOUS
 62
    61
 10
746.53070573509672
 20
336.82909079419852
 30
0.0
 40
64.0
  1
換気扇
 41
0.9
  0
TEXT
  5
1E2
  8
ETC
  6
CONTINUOUS
 62
    61
 10
755.01992973509675
 20
440.56660679419838
 30
0.0
 40
64.0
  1
V-507RH2_2
 41
0.9
  0
TEXT
  5
215
  8
ETC
  6
CONTINUOUS
 62
    61
 10
835.26728638062173
 20
255.50081913960261
 30
0.0
 40
51.200000000000003
  1
V-507RH
 41
0.9
  0
TEXT
  5
216
  8
ETC
  6
CONTINUOUS
 62
    61
 10
835.26728638062173
 20
181.00085925542251
 30
0.0
 40
51.200000000000003
  1
V-507RH-S
 41
0.9
  0
TEXT
  5
217
  8
ETC
  6
CONTINUOUS
 62
    61
 10
835.26728638062173
 20
101.7912135723318
 30
0.0
 40
51.200000000000003
  1
V-507RH2
 41
0.9
  0
TEXT
  5
218
  8
ETC
  6
CONTINUOUS
 62
    61
 10
835.26728638062173
 20
27.291253688151698
 30
0.0
 40
51.200000000000003
  1
V-507RH2-S
 41
0.9
  0
ENDSEC
  0
EOF
