  0
SECTION
  2
HEADER
  9
$ACADVER
  1
AC1009
  9
$INSBASE
 10
0.0
 20
0.0
 30
0.0
  9
$EXTMIN
 10
-868.08832599999994
 20
-834.0
 30
0.0
  9
$EXTMAX
 10
1411.043221314339
 20
638.38641299999995
 30
50.0
  9
$LIMMIN
 10
-2970.0
 20
-2100.0
  9
$LIMMAX
 10
2970.0
 20
2100.0
  9
$ORTHOMODE
 70
     1
  9
$REGENMODE
 70
     0
  9
$FILLMODE
 70
     1
  9
$QTEXTMODE
 70
     0
  9
$MIRRTEXT
 70
     0
  9
$DRAGMODE
 70
     2
  9
$LTSCALE
 40
20.0
  9
$OSMODE
 70
    32
  9
$ATTMODE
 70
     1
  9
$TEXTSIZE
 40
64.0
  9
$TRACEWID
 40
0.05
  9
$TEXTSTYLE
  7
STANDARD
  9
$CLAYER
  8
ETC
  9
$CELTYPE
  6
CONTINUOUS
  9
$CECOLOR
 62
     8
  9
$DIMSCALE
 40
1.0
  9
$DIMASZ
 40
12.0
  9
$DIMEXO
 40
20.0
  9
$DIMDLI
 40
200.0
  9
$DIMRND
 40
0.0
  9
$DIMDLE
 40
0.0
  9
$DIMEXE
 40
20.0
  9
$DIMTP
 40
0.0
  9
$DIMTM
 40
0.0
  9
$DIMTXT
 40
64.0
  9
$DIMCEN
 40
0.09
  9
$DIMTSZ
 40
0.0
  9
$DIMTOL
 70
     0
  9
$DIMLIM
 70
     0
  9
$DIMTIH
 70
     0
  9
$DIMTOH
 70
     0
  9
$DIMSE1
 70
     0
  9
$DIMSE2
 70
     0
  9
$DIMTAD
 70
     1
  9
$DIMZIN
 70
     8
  9
$DIMBLK
  1
DOT1
  9
$DIMASO
 70
     1
  9
$DIMSHO
 70
     0
  9
$DIMPOST
  1

  9
$DIMAPOST
  1

  9
$DIMALT
 70
     0
  9
$DIMALTD
 70
     2
  9
$DIMALTF
 40
25.399999999999999
  9
$DIMLFAC
 40
1.0
  9
$DIMTOFL
 70
     1
  9
$DIMTVP
 40
0.0
  9
$DIMTIX
 70
     1
  9
$DIMSOXD
 70
     0
  9
$DIMSAH
 70
     1
  9
$DIMBLK1
  1
ORIGIN
  9
$DIMBLK2
  1
ORIGIN
  9
$DIMSTYLE
  2
STANDARD
  9
$DIMCLRD
 70
     0
  9
$DIMCLRE
 70
     0
  9
$DIMCLRT
 70
     0
  9
$DIMTFAC
 40
1.0
  9
$DIMGAP
 40
0.09
  9
$LUNITS
 70
     2
  9
$LUPREC
 70
     4
  9
$SKETCHINC
 40
0.1
  9
$FILLETRAD
 40
3.0
  9
$AUNITS
 70
     1
  9
$AUPREC
 70
     3
  9
$MENU
  1
ACAD
  9
$ELEVATION
 40
0.0
  9
$PELEVATION
 40
0.0
  9
$THICKNESS
 40
50.0
  9
$LIMCHECK
 70
     0
  9
$BLIPMODE
 70
     0
  9
$CHAMFERA
 40
0.0
  9
$CHAMFERB
 40
0.0
  9
$SKPOLY
 70
     0
  9
$TDCREATE
 40
2451453.49385081
  9
$TDUPDATE
 40
2454743.3938064352
  9
$TDINDWG
 40
0.7016809838
  9
$TDUSRTIMER
 40
0.7016808102
  9
$USRTIMER
 70
     1
  9
$ANGBASE
 50
0.0
  9
$ANGDIR
 70
     0
  9
$PDMODE
 70
     3
  9
$PDSIZE
 40
-2.0
  9
$PLINEWID
 40
0.0
  9
$COORDS
 70
     1
  9
$SPLFRAME
 70
     0
  9
$SPLINETYPE
 70
     6
  9
$SPLINESEGS
 70
     8
  9
$ATTDIA
 70
     0
  9
$ATTREQ
 70
     1
  9
$HANDLING
 70
     1
  9
$HANDSEED
  5
25B
  9
$SURFTAB1
 70
     6
  9
$SURFTAB2
 70
     6
  9
$SURFTYPE
 70
     6
  9
$SURFU
 70
     6
  9
$SURFV
 70
     6
  9
$UCSNAME
  2

  9
$UCSORG
 10
0.0
 20
0.0
 30
0.0
  9
$UCSXDIR
 10
1.0
 20
0.0
 30
0.0
  9
$UCSYDIR
 10
0.0
 20
1.0
 30
0.0
  9
$PUCSNAME
  2

  9
$PUCSORG
 10
0.0
 20
0.0
 30
0.0
  9
$PUCSXDIR
 10
1.0
 20
0.0
 30
0.0
  9
$PUCSYDIR
 10
0.0
 20
1.0
 30
0.0
  9
$USERI1
 70
     0
  9
$USERI2
 70
     0
  9
$USERI3
 70
     0
  9
$USERI4
 70
     0
  9
$USERI5
 70
     0
  9
$USERR1
 40
20.0
  9
$USERR2
 40
0.0
  9
$USERR3
 40
0.0
  9
$USERR4
 40
0.0
  9
$USERR5
 40
0.0
  9
$WORLDVIEW
 70
     1
  9
$SHADEDGE
 70
     3
  9
$SHADEDIF
 70
    70
  9
$TILEMODE
 70
     1
  9
$MAXACTVP
 70
    64
  9
$PLIMCHECK
 70
     0
  9
$PEXTMIN
 10
1.0000000000000000E+020
 20
1.0000000000000000E+020
 30
1.0000000000000000E+020
  9
$PEXTMAX
 10
-1.0000000000000000E+020
 20
-1.0000000000000000E+020
 30
-1.0000000000000000E+020
  9
$PLIMMIN
 10
0.0
 20
0.0
  9
$PLIMMAX
 10
12.0
 20
9.0
  9
$UNITMODE
 70
     0
  9
$VISRETAIN
 70
     1
  9
$PLINEGEN
 70
     0
  9
$PSLTSCALE
 70
     1
  0
ENDSEC
  0
SECTION
  2
TABLES
  0
TABLE
  2
VPORT
 70
     1
  0
VPORT
  2
*ACTIVE
 70
     0
 10
0.0
 20
0.0
 11
1.0
 21
1.0
 12
131.41300039897121
 22
103.76380783980591
 13
0.0
 23
0.0
 14
1.0
 24
1.0
 15
0.0
 25
0.0
 16
0.0
 26
0.0
 36
1.0
 17
0.0
 27
0.0
 37
0.0
 40
1862.864557515672
 41
1.7517337031900131
 42
50.0
 43
0.0
 44
0.0
 50
0.0
 51
0.0
 71
     0
 72
   100
 73
     1
 74
     1
 75
     0
 76
     0
 77
     0
 78
     0
  0
ENDTAB
  0
TABLE
  2
LTYPE
 70
     3
  0
LTYPE
  2
CONTINUOUS
 70
     0
  3
実線
 72
    65
 73
     0
 40
0.0
  0
LTYPE
  2
DASHDOT
 70
     0
  3
____ _ ____ _ ____ _ ____ _ ____ _ ____ _ ____
 72
    65
 73
     4
 40
5.5
 49
4.0
 49
-0.6
 49
0.3
 49
-0.6
  0
LTYPE
  2
DASHED
 70
     0
  3
_ _ _ _ _ _ _ _ _ _ _ _ _ _ _ _ _ _ _ _ _ _ _
 72
    65
 73
     2
 40
2.0
 49
1.1999999999999991
 49
-0.8
  0
ENDTAB
  0
TABLE
  2
LAYER
 70
    12
  0
LAYER
  2
0
 70
     0
 62
     7
  6
CONTINUOUS
  0
LAYER
  2
SIZE
 70
     0
 62
    30
  6
CONTINUOUS
  0
LAYER
  2
BASIS
 70
     0
 62
     6
  6
DASHDOT
  0
LAYER
  2
OUTLINE
 70
     0
 62
     3
  6
CONTINUOUS
  0
LAYER
  2
DETAIL
 70
     0
 62
     5
  6
CONTINUOUS
  0
LAYER
  2
ARRANGE
 70
     0
 62
     1
  6
CONTINUOUS
  0
LAYER
  2
DEFPOINTS
 70
     0
 62
     7
  6
CONTINUOUS
  0
LAYER
  2
ETC
 70
     0
 62
    61
  6
CONTINUOUS
  0
LAYER
  2
FIX
 70
     0
 62
    11
  6
CONTINUOUS
  0
LAYER
  2
NOTE
 70
     0
 62
     4
  6
CONTINUOUS
  0
LAYER
  2
SERVICESPACE
 70
     0
 62
     2
  6
DASHDOT
  0
LAYER
  2
SYMBOLLINE
 70
     0
 62
    15
  6
CONTINUOUS
  0
ENDTAB
  0
TABLE
  2
STYLE
 70
     2
  0
STYLE
  2
STANDARD
 70
     0
 40
64.0
 41
0.9
 50
0.0
 71
     0
 42
64.0
  3
SIMPLEX.shx
  4
BIGFONT.shx
  0
STYLE
  2
ANNOTATIVE
 70
     0
 40
0.0
 41
1.0
 50
0.0
 71
     0
 42
0.2
  3
txt
  4

  0
ENDTAB
  0
TABLE
  2
VIEW
 70
     1
  0
VIEW
  2
ALL
 70
     0
 40
4282.6198079999986
 10
0.0
 20
41.309903999999989
 41
5940.0
 11
0.0
 21
0.0
 31
1.0
 12
0.0
 22
0.0
 32
0.0
 42
50.0
 43
0.0
 44
0.0
 50
0.0
 71
     0
  0
ENDTAB
  0
TABLE
  2
UCS
 70
     0
  0
ENDTAB
  0
TABLE
  2
APPID
 70
     4
  0
APPID
  2
ACAD
 70
     0
  0
APPID
  2
ACADANNOTATIVE
 70
     0
  0
APPID
  2
ACAD_MLEADERVER
 70
     0
  0
APPID
  2
ACAD_EXEMPT_FROM_CAD_STANDARDS
 70
     0
  0
ENDTAB
  0
TABLE
  2
DIMSTYLE
 70
     2
  0
DIMSTYLE
  2
STANDARD
 70
     0
  3

  4

  5

  6

  7

 40
1.0
 41
0.18
 42
0.0625
 43
0.38
 44
0.18
 45
0.0
 46
0.0
 47
0.0
 48
0.0
140
0.18
141
0.09
142
0.0
143
25.399999999999999
144
1.0
145
0.0
146
1.0
147
0.09
 71
     0
 72
     0
 73
     1
 74
     1
 75
     0
 76
     0
 77
     0
 78
     0
170
     0
171
     2
172
     0
173
     0
174
     0
175
     0
176
     0
177
     0
178
     0
  0
DIMSTYLE
  2
ANNOTATIVE
 70
     0
  3

  4

  5

  6

  7

 40
1.0
 41
0.18
 42
0.0625
 43
0.38
 44
0.18
 45
0.0
 46
0.0
 47
0.0
 48
0.0
140
0.18
141
0.09
142
0.0
143
25.399999999999999
144
1.0
145
0.0
146
1.0
147
0.09
 71
     0
 72
     0
 73
     1
 74
     1
 75
     0
 76
     0
 77
     0
 78
     0
170
     0
171
     2
172
     0
173
     0
174
     0
175
     0
176
     0
177
     0
178
     0
  0
ENDTAB
  0
ENDSEC
  0
SECTION
  2
BLOCKS
  0
BLOCK
  8
0
  2
$MODEL_SPACE
 70
     0
 10
0.0
 20
0.0
 30
0.0
  3
$MODEL_SPACE
  1

  0
ENDBLK
  5
76
  8
0
  0
BLOCK
 67
     1
  8
0
  2
$PAPER_SPACE
 70
     0
 10
0.0
 20
0.0
 30
0.0
  3
$PAPER_SPACE
  1

  0
ENDBLK
  5
72
 67
     1
  8
0
  0
BLOCK
  8
0
  2
DOT1
 70
     0
 10
0.0
 20
0.0
 30
0.0
  3
DOT1
  1

  0
CIRCLE
  5
8C
  8
SIZE
  6
CONTINUOUS
 62
     7
 10
0.0
 20
0.0
 30
0.0
 40
3.0
  0
ENDBLK
  5
8D
  8
0
  0
BLOCK
  8
0
  2
_ORIGIN
 70
     0
 10
0.0
 20
0.0
 30
0.0
  3
_ORIGIN
  1

  0
CIRCLE
  5
90
  8
0
  6
CONTINUOUS
 62
     7
 10
0.0
 20
0.0
 30
0.0
 40
0.5
  0
LINE
  5
91
  8
0
  6
CONTINUOUS
 62
     7
 10
0.0
 20
0.0
 30
0.0
 11
-1.0
 21
0.0
 31
0.0
  0
ENDBLK
  5
92
  8
0
  0
BLOCK
  8
0
 62
     8
  2
A$C7E802D72
 70
     0
 10
0.0
 20
0.0
 30
0.0
  3
A$C7E802D72
  1

  0
TEXT
  5
243
  8
ETC
  6
CONTINUOUS
 62
    61
 10
0.0000036478176071
 20
228.20956504406681
 30
0.0
 40
51.200000000000003
  1
V-507RH
 41
0.9
  0
TEXT
  5
244
  8
ETC
  6
CONTINUOUS
 62
    61
 10
0.0000036478176071
 20
153.70960515988659
 30
0.0
 40
51.200000000000003
  1
V-507RH-S
 41
0.9
  0
TEXT
  5
245
  8
ETC
  6
CONTINUOUS
 62
    61
 10
0.0000036478176071
 20
74.49995947679605
 30
0.0
 40
51.200000000000003
  1
V-507RH2
 41
0.9
  0
TEXT
  5
246
  8
ETC
  6
CONTINUOUS
 62
    61
 10
0.0000036478176071
 20
-0.0000004073841069
 30
0.0
 40
51.200000000000003
  1
V-507RH2-S
 41
0.9
  0
ENDBLK
  5
248
  8
0
 62
     8
  0
ENDSEC
  0
SECTION
  2
ENTITIES
  0
LINE
  5
94
  8
BASIS
  6
DASHDOT
 62
     6
 10
0.0
 20
91.34451
 30
0.0
 11
0.0
 21
-525.17683
 31
0.0
  0
LINE
  5
95
  8
DETAIL
  6
CONTINUOUS
 62
     5
 10
375.0
 20
0.0
 30
0.0
 11
264.11765800000001
 21
0.0
 31
0.0
  0
CIRCLE
  5
97
  8
ARRANGE
  6
CONTINUOUS
 62
     1
 10
0.0
 20
0.0
 30
0.0
 40
40.0
  0
POINT
  5
98
  8
ARRANGE
  6
CONTINUOUS
 62
     1
 10
0.0
 20
0.0
 30
0.0
  0
LINE
  5
99
  8
DETAIL
  6
CONTINUOUS
 62
     5
 10
375.0
 20
0.0
 30
0.0
 11
375.0
 21
-437.0
 31
0.0
  0
LINE
  5
9A
  8
DETAIL
  6
CONTINUOUS
 62
     5
 10
-375.0
 20
0.0
 30
0.0
 11
-375.0
 21
-437.0
 31
0.0
  0
LINE
  5
9B
  8
BASIS
  6
DASHDOT
 62
     6
 10
-175.0
 20
72.217268000000004
 30
0.0
 11
-175.0
 21
-20.193110999999998
 31
0.0
  0
LINE
  5
9C
  8
DETAIL
  6
CONTINUOUS
 62
     5
 10
372.0
 20
-440.0
 30
0.0
 11
-372.0
 21
-440.0
 31
0.0
  0
LINE
  5
9D
  8
DETAIL
  6
CONTINUOUS
 62
     5
 10
-101.0
 20
50.0
 30
0.0
 11
-249.0
 21
50.0
 31
0.0
  0
LINE
  5
9E
  8
DETAIL
  6
CONTINUOUS
 62
     5
 10
-91.028695999999997
 20
10.0
 30
0.0
 11
-235.88234199999999
 21
10.0
 31
0.0
  0
LINE
  5
9F
  8
DETAIL
  6
CONTINUOUS
 62
     5
 10
-101.0
 20
50.0
 30
0.0
 11
-101.0
 21
10.0
 31
0.0
  0
LINE
  5
A0
  8
DETAIL
  6
CONTINUOUS
 62
     5
 10
-85.0
 20
0.0
 30
0.0
 11
-91.028695999999997
 21
10.0
 31
0.0
  0
LINE
  5
A1
  8
DETAIL
  6
CONTINUOUS
 62
     5
 10
-249.0
 20
50.0
 30
0.0
 11
-249.0
 21
30.0
 31
0.0
  0
LINE
  5
A2
  8
DETAIL
  6
CONTINUOUS
 62
     5
 10
-265.0
 20
0.0
 30
0.0
 11
-264.11765800000001
 21
1.4635709999999991
 31
0.0
  0
LINE
  5
A3
  8
NOTE
  6
CONTINUOUS
 62
     4
 10
250.0
 20
-4.0
 30
0.0
 11
250.0
 21
36.0
 31
0.0
  0
LINE
  5
A4
  8
NOTE
  6
CONTINUOUS
 62
     4
 10
270.0
 20
16.0
 30
0.0
 11
230.0
 21
16.0
 31
0.0
  0
LINE
  5
A5
  8
NOTE
  6
CONTINUOUS
 62
     4
 10
250.0
 20
3.0
 30
0.0
 11
250.0
 21
43.0
 31
0.0
  0
LINE
  5
A6
  8
NOTE
  6
CONTINUOUS
 62
     4
 10
270.0
 20
23.0
 30
0.0
 11
230.0
 21
23.0
 31
0.0
  0
ARC
  5
A7
  8
DETAIL
  6
CONTINUOUS
 62
     5
 10
372.0
 20
-437.0
 30
0.0
 40
3.0
 50
270.0
 51
0.0
  0
ARC
  5
A8
  8
DETAIL
  6
CONTINUOUS
 62
     5
 10
-372.0
 20
-437.0
 30
0.0
 40
3.0
 50
180.0
 51
270.0
  0
LINE
  5
A9
  8
NOTE
  6
CONTINUOUS
 62
     4
 10
0.0
 20
-20.0
 30
0.0
 11
0.0
 21
20.0
 31
0.0
  0
LINE
  5
AA
  8
NOTE
  6
CONTINUOUS
 62
     4
 10
20.0
 20
0.0
 30
0.0
 11
-20.0
 21
0.0
 31
0.0
  0
LINE
  5
AB
  8
NOTE
  6
CONTINUOUS
 62
     4
 10
-14.835164000000001
 20
-37.147246000000003
 30
0.0
 11
0.0
 21
0.0
 31
0.0
  0
LINE
  5
AC
  8
NOTE
  6
CONTINUOUS
 62
     4
 10
0.0
 20
0.0
 30
0.0
 11
5.7259949999999993
 21
-39.588040999999997
 31
0.0
  0
LINE
  5
AD
  8
NOTE
  6
CONTINUOUS
 62
     4
 10
0.0
 20
0.0
 30
0.0
 11
-32.851545000000002
 21
-327.0861700000001
 31
0.0
  0
TEXT
  5
AE
  8
NOTE
  6
CONTINUOUS
 62
     4
 10
-140.76797199999999
 20
-300.01062400000001
 30
0.0
 40
64.0
  1
EL
 41
0.9
  0
LINE
  5
AF
  8
NOTE
  6
CONTINUOUS
 62
     4
 10
-32.851545000000002
 20
-327.0861700000001
 30
0.0
 11
-155.40799100000001
 21
-327.0861700000001
 31
0.0
  0
CIRCLE
  5
B0
  8
FIX
  6
CONTINUOUS
 62
    11
 39
50.0
 10
250.0
 20
0.0
 30
0.0
 40
5.0
  0
LINE
  5
B1
  8
NOTE
  6
CONTINUOUS
 62
     4
 10
250.0
 20
-20.0
 30
0.0
 11
250.0
 21
20.0
 31
0.0
  0
LINE
  5
B2
  8
NOTE
  6
CONTINUOUS
 62
     4
 10
270.0
 20
0.0
 30
0.0
 11
230.0
 21
0.0
 31
0.0
  0
LINE
  5
B3
  8
NOTE
  6
CONTINUOUS
 62
     4
 10
260.0
 20
-20.0
 30
0.0
 11
260.0
 21
20.0
 31
0.0
  0
LINE
  5
B4
  8
NOTE
  6
CONTINUOUS
 62
     4
 10
280.0
 20
0.0
 30
0.0
 11
240.0
 21
0.0
 31
0.0
  0
CIRCLE
  5
B5
  8
FIX
  6
CONTINUOUS
 62
    11
 39
50.0
 10
260.0
 20
0.0
 30
0.0
 40
6.5
  0
CIRCLE
  5
B6
  8
FIX
  6
CONTINUOUS
 62
    11
 39
50.0
 10
-260.0
 20
0.0
 30
0.0
 40
6.5
  0
CIRCLE
  5
B7
  8
FIX
  6
CONTINUOUS
 62
    11
 39
50.0
 10
-250.0
 20
0.0
 30
0.0
 40
5.0
  0
LINE
  5
B8
  8
NOTE
  6
CONTINUOUS
 62
     4
 10
-250.0
 20
-20.0
 30
0.0
 11
-250.0
 21
20.0
 31
0.0
  0
LINE
  5
B9
  8
NOTE
  6
CONTINUOUS
 62
     4
 10
-270.0
 20
0.0
 30
0.0
 11
-230.0
 21
0.0
 31
0.0
  0
LINE
  5
BA
  8
NOTE
  6
CONTINUOUS
 62
     4
 10
-260.0
 20
-20.0
 30
0.0
 11
-260.0
 21
20.0
 31
0.0
  0
LINE
  5
BB
  8
NOTE
  6
CONTINUOUS
 62
     4
 10
-280.0
 20
0.0
 30
0.0
 11
-240.0
 21
0.0
 31
0.0
  0
LINE
  5
BC
  8
SIZE
  6
CONTINUOUS
 62
    30
 10
-260.0
 20
40.0
 30
0.0
 11
-260.0
 21
569.38641299999995
 31
0.0
  0
LINE
  5
BD
  8
SIZE
  6
CONTINUOUS
 62
    30
 10
260.0
 20
40.0
 30
0.0
 11
260.0
 21
569.38641299999995
 31
0.0
  0
LINE
  5
BE
  8
SIZE
  6
CONTINUOUS
 62
    30
 10
-248.0
 20
549.38641299999995
 30
0.0
 11
248.0
 21
549.38641299999995
 31
0.0
  0
CIRCLE
  5
BF
  8
SIZE
  6
CONTINUOUS
 62
    30
 10
-260.0
 20
549.38641299999995
 30
0.0
 40
6.0
  0
LINE
  5
C0
  8
SIZE
  6
CONTINUOUS
 62
    30
 10
-260.0
 20
549.38641299999995
 30
0.0
 11
-248.0
 21
549.38641299999995
 31
0.0
  0
CIRCLE
  5
C1
  8
SIZE
  6
CONTINUOUS
 62
    30
 10
260.0
 20
549.38641299999995
 30
0.0
 40
6.0
  0
LINE
  5
C2
  8
SIZE
  6
CONTINUOUS
 62
    30
 10
260.0
 20
549.38641299999995
 30
0.0
 11
248.0
 21
549.38641299999995
 31
0.0
  0
TEXT
  5
C3
  8
SIZE
  6
CONTINUOUS
 62
    30
 10
-74.05714285714285
 20
574.38641299999995
 30
0.0
 40
64.0
  1
520
 41
0.9
 72
     1
 11
0.0
 21
574.38641299999995
 31
0.0
  0
POINT
  5
C4
  8
DEFPOINTS
  6
CONTINUOUS
 62
    30
 10
-260.0
 20
20.0
 30
0.0
  0
POINT
  5
C5
  8
DEFPOINTS
  6
CONTINUOUS
 62
    30
 10
260.0
 20
20.0
 30
0.0
  0
POINT
  5
C6
  8
DEFPOINTS
  6
CONTINUOUS
 62
    30
 10
260.0
 20
549.38641299999995
 30
0.0
  0
LINE
  5
C7
  8
SIZE
  6
CONTINUOUS
 62
    30
 10
-250.0
 20
62.100000000000001
 30
0.0
 11
-250.0
 21
450.74916100000002
 31
0.0
  0
LINE
  5
C8
  8
SIZE
  6
CONTINUOUS
 62
    30
 10
250.0
 20
55.100000000000001
 30
0.0
 11
250.0
 21
450.74916100000002
 31
0.0
  0
LINE
  5
C9
  8
SIZE
  6
CONTINUOUS
 62
    30
 10
-238.0
 20
430.74916100000002
 30
0.0
 11
238.0
 21
430.74916100000002
 31
0.0
  0
CIRCLE
  5
CA
  8
SIZE
  6
CONTINUOUS
 62
    30
 10
-250.0
 20
430.74916100000002
 30
0.0
 40
6.0
  0
LINE
  5
CB
  8
SIZE
  6
CONTINUOUS
 62
    30
 10
-250.0
 20
430.74916100000002
 30
0.0
 11
-238.0
 21
430.74916100000002
 31
0.0
  0
CIRCLE
  5
CC
  8
SIZE
  6
CONTINUOUS
 62
    30
 10
250.0
 20
430.74916100000002
 30
0.0
 40
6.0
  0
LINE
  5
CD
  8
SIZE
  6
CONTINUOUS
 62
    30
 10
250.0
 20
430.74916100000002
 30
0.0
 11
238.0
 21
430.74916100000002
 31
0.0
  0
TEXT
  5
CE
  8
SIZE
  6
CONTINUOUS
 62
    30
 10
-74.05714285714285
 20
455.74916100000002
 30
0.0
 40
64.0
  1
500
 41
0.9
 72
     1
 11
0.0
 21
455.74916100000002
 31
0.0
  0
POINT
  5
CF
  8
DEFPOINTS
  6
CONTINUOUS
 62
    30
 10
-250.0
 20
42.099999999999987
 30
0.0
  0
POINT
  5
D0
  8
DEFPOINTS
  6
CONTINUOUS
 62
    30
 10
250.0
 20
35.100000000000001
 30
0.0
  0
POINT
  5
D1
  8
DEFPOINTS
  6
CONTINUOUS
 62
    30
 10
250.0
 20
430.74916100000002
 30
0.0
  0
LINE
  5
D2
  8
SIZE
  6
CONTINUOUS
 62
    30
 10
0.0
 20
111.34451
 30
0.0
 11
0.0
 21
320.42898500000001
 31
0.0
  0
LINE
  5
D3
  8
SIZE
  6
CONTINUOUS
 62
    30
 10
-175.0
 20
92.217268000000004
 30
0.0
 11
-175.0
 21
320.42898500000001
 31
0.0
  0
LINE
  5
D4
  8
SIZE
  6
CONTINUOUS
 62
    30
 10
-12.0
 20
300.42898500000001
 30
0.0
 11
-163.0
 21
300.42898500000001
 31
0.0
  0
TEXT
  5
D5
  8
SIZE
  6
CONTINUOUS
 62
    30
 10
-162.17211757142849
 20
325.42898500000001
 30
0.0
 40
64.0
  1
175
 41
0.9
 72
     1
 11
-93.600688999999988
 21
325.42898500000001
 31
0.0
  0
CIRCLE
  5
D6
  8
SIZE
  6
CONTINUOUS
 62
    30
 10
0.0
 20
300.42898500000001
 30
0.0
 40
6.0
  0
LINE
  5
D7
  8
SIZE
  6
CONTINUOUS
 62
    30
 10
0.0
 20
300.42898500000001
 30
0.0
 11
-12.0
 21
300.42898500000001
 31
0.0
  0
CIRCLE
  5
D8
  8
SIZE
  6
CONTINUOUS
 62
    30
 10
-175.0
 20
300.42898500000001
 30
0.0
 40
6.0
  0
LINE
  5
D9
  8
SIZE
  6
CONTINUOUS
 62
    30
 10
-175.0
 20
300.42898500000001
 30
0.0
 11
-163.0
 21
300.42898500000001
 31
0.0
  0
POINT
  5
DA
  8
DEFPOINTS
  6
CONTINUOUS
 62
    30
 10
0.0
 20
91.34451
 30
0.0
  0
POINT
  5
DB
  8
DEFPOINTS
  6
CONTINUOUS
 62
    30
 10
-175.0
 20
72.217268000000004
 30
0.0
  0
POINT
  5
DC
  8
DEFPOINTS
  6
CONTINUOUS
 62
    30
 10
-175.0
 20
300.42898500000001
 30
0.0
  0
LINE
  5
DD
  8
SIZE
  6
CONTINUOUS
 62
    30
 10
-249.0
 20
70.0
 30
0.0
 11
-249.0
 21
254.80233999999999
 31
0.0
  0
LINE
  5
DE
  8
SIZE
  6
CONTINUOUS
 62
    30
 10
-101.0
 20
70.0
 30
0.0
 11
-101.0
 21
254.80233999999999
 31
0.0
  0
LINE
  5
DF
  8
SIZE
  6
CONTINUOUS
 62
    30
 10
-237.0
 20
234.80233999999999
 30
0.0
 11
-113.0
 21
234.80233999999999
 31
0.0
  0
LINE
  5
E0
  8
SIZE
  6
CONTINUOUS
 62
    30
 10
-527.62857099999985
 20
234.80233999999999
 30
0.0
 11
-249.0
 21
234.80233999999999
 31
0.0
  0
TEXT
  5
E1
  8
SIZE
  6
CONTINUOUS
 62
    30
 10
-516.89142857142861
 20
259.80234000000002
 30
0.0
 40
64.0
  1
φ148
 41
0.9
 72
     1
 11
-408.0
 21
259.80234000000002
 31
0.0
  0
CIRCLE
  5
E2
  8
SIZE
  6
CONTINUOUS
 62
    30
 10
-249.0
 20
234.80233999999999
 30
0.0
 40
6.0
  0
LINE
  5
E3
  8
SIZE
  6
CONTINUOUS
 62
    30
 10
-249.0
 20
234.80233999999999
 30
0.0
 11
-237.0
 21
234.80233999999999
 31
0.0
  0
CIRCLE
  5
E4
  8
SIZE
  6
CONTINUOUS
 62
    30
 10
-101.0
 20
234.80233999999999
 30
0.0
 40
6.0
  0
LINE
  5
E5
  8
SIZE
  6
CONTINUOUS
 62
    30
 10
-101.0
 20
234.80233999999999
 30
0.0
 11
-113.0
 21
234.80233999999999
 31
0.0
  0
POINT
  5
E6
  8
DEFPOINTS
  6
CONTINUOUS
 62
    30
 10
-249.0
 20
50.0
 30
0.0
  0
POINT
  5
E7
  8
DEFPOINTS
  6
CONTINUOUS
 62
    30
 10
-101.0
 20
50.0
 30
0.0
  0
POINT
  5
E8
  8
DEFPOINTS
  6
CONTINUOUS
 62
    30
 10
-101.0
 20
234.80233999999999
 30
0.0
  0
LINE
  5
E9
  8
SIZE
  6
CONTINUOUS
 62
    30
 10
-375.0
 20
-457.0
 30
0.0
 11
-375.0
 21
-834.0
 31
0.0
  0
LINE
  5
EA
  8
SIZE
  6
CONTINUOUS
 62
    30
 10
375.0
 20
-457.0
 30
0.0
 11
375.0
 21
-834.0
 31
0.0
  0
LINE
  5
EB
  8
SIZE
  6
CONTINUOUS
 62
    30
 10
-363.0
 20
-814.0
 30
0.0
 11
363.0
 21
-814.0
 31
0.0
  0
CIRCLE
  5
EC
  8
SIZE
  6
CONTINUOUS
 62
    30
 10
-375.0
 20
-814.0
 30
0.0
 40
6.0
  0
LINE
  5
ED
  8
SIZE
  6
CONTINUOUS
 62
    30
 10
-375.0
 20
-814.0
 30
0.0
 11
-363.0
 21
-814.0
 31
0.0
  0
CIRCLE
  5
EE
  8
SIZE
  6
CONTINUOUS
 62
    30
 10
375.0
 20
-814.0
 30
0.0
 40
6.0
  0
LINE
  5
EF
  8
SIZE
  6
CONTINUOUS
 62
    30
 10
375.0
 20
-814.0
 30
0.0
 11
363.0
 21
-814.0
 31
0.0
  0
TEXT
  5
F0
  8
SIZE
  6
CONTINUOUS
 62
    30
 10
-74.057142857142864
 20
-789.0
 30
0.0
 40
64.0
  1
750
 41
0.9
 72
     1
 11
0.0
 21
-789.0
 31
0.0
  0
POINT
  5
F1
  8
DEFPOINTS
  6
CONTINUOUS
 62
    30
 10
-375.0
 20
-437.0
 30
0.0
  0
POINT
  5
F2
  8
DEFPOINTS
  6
CONTINUOUS
 62
    30
 10
375.0
 20
-437.0
 30
0.0
  0
POINT
  5
F3
  8
DEFPOINTS
  6
CONTINUOUS
 62
    30
 10
375.0
 20
-814.0
 30
0.0
  0
TEXT
  5
F4
  8
NOTE
  6
CONTINUOUS
 62
     4
 10
-835.96061399999996
 20
131.60768400000001
 30
0.0
 40
64.0
  1
AH 2-φ13
 41
0.9
  0
LINE
  5
F5
  8
NOTE
  6
CONTINUOUS
 62
     4
 10
-379.865275
 20
97.795748000000003
 30
0.0
 11
-868.08832599999994
 21
97.795748000000003
 31
0.0
  0
TEXT
  5
F6
  8
NOTE
  6
CONTINUOUS
 62
     4
 10
390.30475999999999
 20
280.62720899999999
 30
0.0
 40
64.0
  1
4-φ10
 41
0.9
  0
LINE
  5
F7
  8
NOTE
  6
CONTINUOUS
 62
     4
 10
354.69585899999998
 20
246.81527299999999
 30
0.0
 11
686.32630099999994
 21
246.81527299999999
 31
0.0
  0
TEXT
  5
F8
  8
NOTE
  6
CONTINUOUS
 62
     4
 10
505.14987300000001
 20
-647.30442800000003
 30
0.0
 40
64.0
  1
4-φ6
 41
0.9
  0
LINE
  5
F9
  8
NOTE
  6
CONTINUOUS
 62
     4
 10
499.402579
 20
-681.22101999999995
 30
0.0
 11
745.08051799999987
 21
-681.22101999999995
 31
0.0
  0
LINE
  5
FA
  8
NOTE
  6
CONTINUOUS
 62
     4
 10
-260.0
 20
0.0
 30
0.0
 11
-379.865275
 21
97.795748000000003
 31
0.0
  0
LINE
  5
FB
  8
NOTE
  6
CONTINUOUS
 62
     4
 10
-296.643348
 20
16.039484000000002
 30
0.0
 11
-260.0
 21
0.0
 31
0.0
  0
LINE
  5
FC
  8
NOTE
  6
CONTINUOUS
 62
     4
 10
-260.0
 20
0.0
 30
0.0
 11
-283.71432800000002
 21
32.212274999999998
 31
0.0
  0
CIRCLE
  5
FD
  8
FIX
  6
CONTINUOUS
 62
    11
 39
50.0
 10
-250.0
 20
0.0
 30
0.0
 40
3.0
  0
LINE
  5
FE
  8
NOTE
  6
CONTINUOUS
 62
     4
 10
354.69585899999998
 20
246.81527299999999
 30
0.0
 11
250.0
 21
0.0
 31
0.0
  0
LINE
  5
FF
  8
NOTE
  6
CONTINUOUS
 62
     4
 10
255.0
 20
-364.0
 30
0.0
 11
499.402579
 21
-681.22101999999995
 31
0.0
  0
LINE
  5
100
  8
NOTE
  6
CONTINUOUS
 62
     4
 10
274.48272400000002
 20
31.632203000000011
 30
0.0
 11
250.0
 21
0.0
 31
0.0
  0
LINE
  5
101
  8
NOTE
  6
CONTINUOUS
 62
     4
 10
250.0
 20
0.0
 30
0.0
 11
255.38655900000001
 21
39.635653000000012
 31
0.0
  0
LINE
  5
102
  8
NOTE
  6
CONTINUOUS
 62
     4
 10
268.82424300000002
 20
-401.53518799999989
 30
0.0
 11
255.0
 21
-364.0
 31
0.0
  0
LINE
  5
103
  8
NOTE
  6
CONTINUOUS
 62
     4
 10
255.0
 20
-364.0
 30
0.0
 11
285.73973899999999
 21
-389.59430400000002
 31
0.0
  0
LINE
  5
104
  8
NOTE
  6
CONTINUOUS
 62
     4
 10
-255.0
 20
-264.0
 30
0.0
 11
-255.0
 21
-224.0
 31
0.0
  0
LINE
  5
105
  8
NOTE
  6
CONTINUOUS
 62
     4
 10
-275.0
 20
-244.0
 30
0.0
 11
-235.0
 21
-244.0
 31
0.0
  0
CIRCLE
  5
106
  8
FIX
  6
CONTINUOUS
 62
    11
 39
50.0
 10
-255.0
 20
-244.0
 30
0.0
 40
3.0
  0
LINE
  5
107
  8
DETAIL
  6
CONTINUOUS
 62
     5
 10
-264.0
 20
30.0
 30
0.0
 11
-236.0
 21
30.0
 31
0.0
  0
LINE
  5
108
  8
NOTE
  6
CONTINUOUS
 62
     4
 10
-250.0
 20
-4.0
 30
0.0
 11
-250.0
 21
36.0
 31
0.0
  0
LINE
  5
109
  8
NOTE
  6
CONTINUOUS
 62
     4
 10
-270.0
 20
16.0
 30
0.0
 11
-230.0
 21
16.0
 31
0.0
  0
LINE
  5
10A
  8
NOTE
  6
CONTINUOUS
 62
     4
 10
-250.0
 20
3.0
 30
0.0
 11
-250.0
 21
43.0
 31
0.0
  0
LINE
  5
10B
  8
NOTE
  6
CONTINUOUS
 62
     4
 10
-270.0
 20
23.0
 30
0.0
 11
-230.0
 21
23.0
 31
0.0
  0
LINE
  5
10C
  8
OUTLINE
  6
CONTINUOUS
 62
     3
 10
375.0
 20
0.0
 30
0.0
 11
375.0
 21
-437.0
 31
0.0
  0
LINE
  5
10D
  8
OUTLINE
  6
CONTINUOUS
 62
     3
 10
372.0
 20
-440.0
 30
0.0
 11
-372.0
 21
-440.0
 31
0.0
  0
LINE
  5
10E
  8
OUTLINE
  6
CONTINUOUS
 62
     3
 10
-375.0
 20
0.0
 30
0.0
 11
-375.0
 21
-437.0
 31
0.0
  0
LINE
  5
10F
  8
OUTLINE
  6
CONTINUOUS
 62
     3
 10
375.0
 20
0.0
 30
0.0
 11
-375.0
 21
0.0
 31
0.0
  0
ARC
  5
110
  8
OUTLINE
  6
CONTINUOUS
 62
     3
 10
372.0
 20
-437.0
 30
0.0
 40
3.0
 50
270.0
 51
0.0
  0
ARC
  5
111
  8
OUTLINE
  6
CONTINUOUS
 62
     3
 10
-372.0
 20
-437.0
 30
0.0
 40
3.0
 50
180.0
 51
270.0
  0
LINE
  5
112
  8
DETAIL
  6
DASHED
 62
     5
 10
-90.0
 20
-199.40000000000001
 30
0.0
 11
90.0
 21
-199.40000000000001
 31
0.0
  0
LINE
  5
113
  8
DETAIL
  6
DASHED
 62
     5
 10
90.0
 20
-0.6
 30
0.0
 11
-90.0
 21
-0.6
 31
0.0
  0
LINE
  5
114
  8
BASIS
  6
DASHDOT
 62
     6
 10
-132.237199
 20
-100.0
 30
0.0
 11
127.094309
 21
-100.0
 31
0.0
  0
LINE
  5
115
  8
DETAIL
  6
DASHED
 62
     5
 10
-99.400000000000006
 20
-190.0
 30
0.0
 11
-90.0
 21
-199.40000000000001
 31
0.0
  0
LINE
  5
116
  8
DETAIL
  6
DASHED
 62
     5
 10
-99.400000000000006
 20
-190.0
 30
0.0
 11
-99.400000000000006
 21
-10.0
 31
0.0
  0
LINE
  5
117
  8
DETAIL
  6
DASHED
 62
     5
 10
-99.400000000000006
 20
-186.59999999999999
 30
0.0
 11
-100.0
 21
-186.59999999999999
 31
0.0
  0
LINE
  5
118
  8
DETAIL
  6
DASHED
 62
     5
 10
-99.400000000000006
 20
-190.0
 30
0.0
 11
-100.0
 21
-190.0
 31
0.0
  0
LINE
  5
119
  8
DETAIL
  6
DASHED
 62
     5
 10
-99.400000000000006
 20
-10.0
 30
0.0
 11
-90.0
 21
-0.6
 31
0.0
  0
LINE
  5
11A
  8
DETAIL
  6
DASHED
 62
     5
 10
90.0
 20
-199.40000000000001
 30
0.0
 11
99.400000000000006
 21
-190.0
 31
0.0
  0
LINE
  5
11B
  8
DETAIL
  6
DASHED
 62
     5
 10
99.400000000000006
 20
-190.0
 30
0.0
 11
99.400000000000006
 21
-10.0
 31
0.0
  0
LINE
  5
11C
  8
DETAIL
  6
DASHED
 62
     5
 10
90.0
 20
-0.6
 30
0.0
 11
99.400000000000006
 21
-10.0
 31
0.0
  0
CIRCLE
  5
11D
  8
DETAIL
  6
DASHED
 62
     5
 10
0.0
 20
-100.0
 30
0.0
 40
74.0
  0
CIRCLE
  5
11E
  8
DETAIL
  6
DASHED
 62
     5
 10
0.0
 20
-100.0
 30
0.0
 40
90.0
  0
LINE
  5
11F
  8
DETAIL
  6
CONTINUOUS
 62
     5
 10
-350.10000000000002
 20
-192.30000000000001
 30
0.0
 11
-350.10000000000002
 21
0.0
 31
0.0
  0
LINE
  5
120
  8
DETAIL
  6
CONTINUOUS
 62
     5
 10
-325.10000000000002
 20
-192.30000000000001
 30
0.0
 11
-350.10000000000002
 21
-192.30000000000001
 31
0.0
  0
LINE
  5
121
  8
DETAIL
  6
CONTINUOUS
 62
     5
 10
-264.11765800000001
 20
-167.65147200000001
 30
0.0
 11
-350.10000000000002
 21
-167.65147200000001
 31
0.0
  0
CIRCLE
  5
122
  8
FIX
  6
CONTINUOUS
 62
    11
 39
50.0
 10
-250.0
 20
-109.90000000000001
 30
0.0
 40
2.5
  0
ARC
  5
123
  8
DETAIL
  6
CONTINUOUS
 62
     5
 10
-250.0
 20
-109.90000000000001
 30
0.0
 40
2.5
 50
180.0
 51
0.0
  0
ARC
  5
124
  8
DETAIL
  6
CONTINUOUS
 62
     5
 10
-250.0
 20
-79.900000000000006
 30
0.0
 40
2.5
 50
0.0
 51
180.0
  0
LINE
  5
125
  8
DETAIL
  6
CONTINUOUS
 62
     5
 10
-252.5
 20
-79.900000000000006
 30
0.0
 11
-252.5
 21
-109.90000000000001
 31
0.0
  0
LINE
  5
126
  8
DETAIL
  6
CONTINUOUS
 62
     5
 10
-247.5
 20
-79.900000000000006
 30
0.0
 11
-247.5
 21
-109.90000000000001
 31
0.0
  0
CIRCLE
  5
127
  8
FIX
  6
CONTINUOUS
 62
    11
 39
50.0
 10
-250.0
 20
-19.899999999999999
 30
0.0
 40
2.5
  0
ARC
  5
128
  8
DETAIL
  6
CONTINUOUS
 62
     5
 10
-250.0
 20
-19.899999999999999
 30
0.0
 40
2.5
 50
180.0
 51
0.0
  0
LINE
  5
129
  8
DETAIL
  6
CONTINUOUS
 62
     5
 10
-100.0
 20
-187.90000000000001
 30
0.0
 11
-350.10000000000002
 21
-187.90000000000001
 31
0.0
  0
LINE
  5
12A
  8
DETAIL
  6
CONTINUOUS
 62
     5
 10
-99.400000000000006
 20
-167.65147200000001
 30
0.0
 11
-235.88234199999999
 21
-167.65147200000001
 31
0.0
  0
LINE
  5
12B
  8
DETAIL
  6
CONTINUOUS
 62
     5
 10
-325.10000000000002
 20
-192.30000000000001
 30
0.0
 11
-325.10000000000002
 21
-429.62393099999991
 31
0.0
  0
LINE
  5
12C
  8
DETAIL
  6
CONTINUOUS
 62
     5
 10
-325.10000000000002
 20
-429.62393099999991
 30
0.0
 11
-350.10000000000002
 21
-429.62393099999991
 31
0.0
  0
LINE
  5
12D
  8
DETAIL
  6
CONTINUOUS
 62
     5
 10
-350.10000000000002
 20
-440.0
 30
0.0
 11
-350.10000000000002
 21
-429.62393099999991
 31
0.0
  0
LINE
  5
12E
  8
DETAIL
  6
CONTINUOUS
 62
     5
 10
325.10000000000002
 20
-421.65129400000001
 30
0.0
 11
-325.10000000000002
 21
-421.65129400000001
 31
0.0
  0
LINE
  5
12F
  8
DETAIL
  6
CONTINUOUS
 62
     5
 10
325.10000000000002
 20
-192.30000000000001
 30
0.0
 11
325.10000000000002
 21
-429.62393099999991
 31
0.0
  0
LINE
  5
130
  8
DETAIL
  6
CONTINUOUS
 62
     5
 10
325.10000000000002
 20
-429.62393099999991
 30
0.0
 11
350.10000000000002
 21
-429.62393099999991
 31
0.0
  0
LINE
  5
131
  8
DETAIL
  6
CONTINUOUS
 62
     5
 10
350.10000000000002
 20
-440.0
 30
0.0
 11
350.10000000000002
 21
-429.62393099999991
 31
0.0
  0
LINE
  5
132
  8
DETAIL
  6
CONTINUOUS
 62
     5
 10
100.0
 20
-187.90000000000001
 30
0.0
 11
350.10000000000002
 21
-187.90000000000001
 31
0.0
  0
LINE
  5
133
  8
DETAIL
  6
CONTINUOUS
 62
     5
 10
100.0
 20
-167.65147200000001
 30
0.0
 11
235.88234199999999
 21
-167.65147200000001
 31
0.0
  0
LINE
  5
134
  8
DETAIL
  6
CONTINUOUS
 62
     5
 10
325.10000000000002
 20
-192.30000000000001
 30
0.0
 11
350.10000000000002
 21
-192.30000000000001
 31
0.0
  0
LINE
  5
135
  8
DETAIL
  6
CONTINUOUS
 62
     5
 10
350.10000000000002
 20
-192.30000000000001
 30
0.0
 11
350.10000000000002
 21
0.0
 31
0.0
  0
LINE
  5
136
  8
DETAIL
  6
CONTINUOUS
 62
     5
 10
264.11765800000001
 20
-167.65147200000001
 30
0.0
 11
350.10000000000002
 21
-167.65147200000001
 31
0.0
  0
CIRCLE
  5
137
  8
FIX
  6
CONTINUOUS
 62
    11
 39
50.0
 10
-255.0
 20
-364.0
 30
0.0
 40
3.0
  0
LINE
  5
138
  8
NOTE
  6
CONTINUOUS
 62
     4
 10
-255.0
 20
-384.0
 30
0.0
 11
-255.0
 21
-344.0
 31
0.0
  0
LINE
  5
139
  8
NOTE
  6
CONTINUOUS
 62
     4
 10
-275.0
 20
-364.0
 30
0.0
 11
-235.0
 21
-364.0
 31
0.0
  0
CIRCLE
  5
13A
  8
FIX
  6
CONTINUOUS
 62
    11
 39
50.0
 10
255.0
 20
-244.0
 30
0.0
 40
3.0
  0
LINE
  5
13B
  8
NOTE
  6
CONTINUOUS
 62
     4
 10
255.0
 20
-264.0
 30
0.0
 11
255.0
 21
-224.0
 31
0.0
  0
LINE
  5
13C
  8
NOTE
  6
CONTINUOUS
 62
     4
 10
275.0
 20
-244.0
 30
0.0
 11
235.0
 21
-244.0
 31
0.0
  0
CIRCLE
  5
13D
  8
FIX
  6
CONTINUOUS
 62
    11
 39
50.0
 10
255.0
 20
-364.0
 30
0.0
 40
3.0
  0
LINE
  5
13E
  8
NOTE
  6
CONTINUOUS
 62
     4
 10
255.0
 20
-384.0
 30
0.0
 11
255.0
 21
-344.0
 31
0.0
  0
LINE
  5
13F
  8
NOTE
  6
CONTINUOUS
 62
     4
 10
275.0
 20
-364.0
 30
0.0
 11
235.0
 21
-364.0
 31
0.0
  0
CIRCLE
  5
140
  8
DETAIL
  6
CONTINUOUS
 62
     5
 39
50.0
 10
-255.0
 20
-244.0
 30
0.0
 40
3.0
  0
CIRCLE
  5
141
  8
DETAIL
  6
CONTINUOUS
 62
     5
 39
50.0
 10
-255.0
 20
-364.0
 30
0.0
 40
3.0
  0
CIRCLE
  5
142
  8
DETAIL
  6
CONTINUOUS
 62
     5
 39
50.0
 10
255.0
 20
-244.0
 30
0.0
 40
3.0
  0
CIRCLE
  5
143
  8
DETAIL
  6
CONTINUOUS
 62
     5
 39
50.0
 10
255.0
 20
-364.0
 30
0.0
 40
3.0
  0
LINE
  5
144
  8
SIZE
  6
CONTINUOUS
 62
    30
 10
255.0
 20
-404.0
 30
0.0
 11
255.0
 21
-711.0
 31
0.0
  0
LINE
  5
145
  8
SIZE
  6
CONTINUOUS
 62
    30
 10
-255.0
 20
-404.0
 30
0.0
 11
-255.0
 21
-711.0
 31
0.0
  0
LINE
  5
146
  8
SIZE
  6
CONTINUOUS
 62
    30
 10
243.0
 20
-691.0
 30
0.0
 11
-243.0
 21
-691.0
 31
0.0
  0
CIRCLE
  5
147
  8
SIZE
  6
CONTINUOUS
 62
    30
 10
255.0
 20
-691.0
 30
0.0
 40
6.0
  0
LINE
  5
148
  8
SIZE
  6
CONTINUOUS
 62
    30
 10
255.0
 20
-691.0
 30
0.0
 11
243.0
 21
-691.0
 31
0.0
  0
CIRCLE
  5
149
  8
SIZE
  6
CONTINUOUS
 62
    30
 10
-255.0
 20
-691.0
 30
0.0
 40
6.0
  0
LINE
  5
14A
  8
SIZE
  6
CONTINUOUS
 62
    30
 10
-255.0
 20
-691.0
 30
0.0
 11
-243.0
 21
-691.0
 31
0.0
  0
TEXT
  5
14B
  8
SIZE
  6
CONTINUOUS
 62
    30
 10
-68.571428571428555
 20
-666.0
 30
0.0
 40
64.0
  1
510
 41
0.9
 72
     1
 11
0.0
 21
-666.0
 31
0.0
  0
POINT
  5
14C
  8
DEFPOINTS
  6
CONTINUOUS
 62
    30
 10
255.0
 20
-384.0
 30
0.0
  0
POINT
  5
14D
  8
DEFPOINTS
  6
CONTINUOUS
 62
    30
 10
-255.0
 20
-384.0
 30
0.0
  0
POINT
  5
14E
  8
DEFPOINTS
  6
CONTINUOUS
 62
    30
 10
-255.0
 20
-691.0
 30
0.0
  0
LINE
  5
14F
  8
SIZE
  6
CONTINUOUS
 62
    30
 10
-295.0
 20
-244.0
 30
0.0
 11
-606.67734099999996
 21
-244.0
 31
0.0
  0
LINE
  5
150
  8
SIZE
  6
CONTINUOUS
 62
    30
 10
-295.0
 20
-364.0
 30
0.0
 11
-606.67734099999996
 21
-364.0
 31
0.0
  0
LINE
  5
151
  8
SIZE
  6
CONTINUOUS
 62
    30
 10
-586.67734099999996
 20
-256.0
 30
0.0
 11
-586.67734099999996
 21
-352.0
 31
0.0
  0
LINE
  5
152
  8
SIZE
  6
CONTINUOUS
 62
    30
 10
-586.67734099999996
 20
-582.80868299999997
 30
0.0
 11
-586.67734099999996
 21
-364.0
 31
0.0
  0
TEXT
  5
153
  8
SIZE
  6
CONTINUOUS
 62
    30
 10
-611.67734099999996
 20
-557.80868357142856
 30
0.0
 40
64.0
  1
120
 50
90.0
 41
0.9
 72
     1
 11
-611.67734099999996
 21
-489.237255
 31
0.0
  0
CIRCLE
  5
154
  8
SIZE
  6
CONTINUOUS
 62
    30
 10
-586.67734099999996
 20
-244.0
 30
0.0
 40
6.0
  0
LINE
  5
155
  8
SIZE
  6
CONTINUOUS
 62
    30
 10
-586.67734099999996
 20
-244.0
 30
0.0
 11
-586.67734099999996
 21
-256.0
 31
0.0
  0
CIRCLE
  5
156
  8
SIZE
  6
CONTINUOUS
 62
    30
 10
-586.67734099999996
 20
-364.0
 30
0.0
 40
6.0
  0
LINE
  5
157
  8
SIZE
  6
CONTINUOUS
 62
    30
 10
-586.67734099999996
 20
-364.0
 30
0.0
 11
-586.67734099999996
 21
-352.0
 31
0.0
  0
POINT
  5
158
  8
DEFPOINTS
  6
CONTINUOUS
 62
    30
 10
-275.0
 20
-244.0
 30
0.0
  0
POINT
  5
159
  8
DEFPOINTS
  6
CONTINUOUS
 62
    30
 10
-275.0
 20
-364.0
 30
0.0
  0
POINT
  5
15A
  8
DEFPOINTS
  6
CONTINUOUS
 62
    30
 10
-586.67734099999996
 20
-364.0
 30
0.0
  0
LINE
  5
15B
  8
DETAIL
  6
CONTINUOUS
 62
     5
 10
-252.5
 20
9.3667499999999997
 30
0.0
 11
-252.5
 21
-19.899999999999999
 31
0.0
  0
LINE
  5
15C
  8
DETAIL
  6
CONTINUOUS
 62
     5
 10
-247.5
 20
9.3667499999999997
 30
0.0
 11
-247.5
 21
-19.899999999999999
 31
0.0
  0
ARC
  5
15D
  8
DETAIL
  6
CONTINUOUS
 62
     5
 10
-250.0
 20
16.0
 30
0.0
 40
6.5
 50
117.818139
 51
242.181861
  0
ARC
  5
15E
  8
DETAIL
  6
CONTINUOUS
 62
     5
 10
-250.0
 20
16.0
 30
0.0
 40
6.5
 50
297.81813900000009
 51
62.181860999999991
  0
ARC
  5
15F
  8
DETAIL
  6
CONTINUOUS
 62
     5
 10
-253.5
 20
9.3667499999999997
 30
0.0
 40
1.0
 50
0.0
 51
62.181860999999991
  0
ARC
  5
160
  8
DETAIL
  6
CONTINUOUS
 62
     5
 10
-246.5
 20
9.3667499999999997
 30
0.0
 40
1.0
 50
117.818139
 51
180.0
  0
ARC
  5
161
  8
DETAIL
  6
CONTINUOUS
 62
     5
 10
-250.0
 20
23.0
 30
0.0
 40
2.5
 50
0.0
 51
180.0
  0
ARC
  5
162
  8
DETAIL
  6
CONTINUOUS
 62
     5
 10
-253.5
 20
22.63325
 30
0.0
 40
1.0
 50
297.81813900000009
 51
0.0
  0
ARC
  5
163
  8
DETAIL
  6
CONTINUOUS
 62
     5
 10
-246.5
 20
22.63325
 30
0.0
 40
1.0
 50
180.0
 51
242.181861
  0
LINE
  5
164
  8
DETAIL
  6
CONTINUOUS
 62
     5
 10
-252.5
 20
23.0
 30
0.0
 11
-252.5
 21
22.63325
 31
0.0
  0
LINE
  5
165
  8
DETAIL
  6
CONTINUOUS
 62
     5
 10
-247.5
 20
23.0
 30
0.0
 11
-247.5
 21
22.63325
 31
0.0
  0
CIRCLE
  5
166
  8
FIX
  6
CONTINUOUS
 62
    11
 39
50.0
 10
-250.0
 20
16.0
 30
0.0
 40
6.5
  0
CIRCLE
  5
167
  8
FIX
  6
CONTINUOUS
 62
    11
 39
50.0
 10
-250.0
 20
-79.900000000000006
 30
0.0
 40
2.5
  0
LINE
  5
168
  8
NOTE
  6
CONTINUOUS
 62
     4
 10
-250.0
 20
-39.899999999999999
 30
0.0
 11
-250.0
 21
0.1
 31
0.0
  0
LINE
  5
169
  8
NOTE
  6
CONTINUOUS
 62
     4
 10
-270.0
 20
-19.899999999999999
 30
0.0
 11
-230.0
 21
-19.899999999999999
 31
0.0
  0
LINE
  5
16A
  8
NOTE
  6
CONTINUOUS
 62
     4
 10
-250.0
 20
-99.900000000000006
 30
0.0
 11
-250.0
 21
-59.899999999999999
 31
0.0
  0
LINE
  5
16B
  8
NOTE
  6
CONTINUOUS
 62
     4
 10
-270.0
 20
-79.900000000000006
 30
0.0
 11
-230.0
 21
-79.900000000000006
 31
0.0
  0
LINE
  5
16C
  8
NOTE
  6
CONTINUOUS
 62
     4
 10
-250.0
 20
-129.90000000000001
 30
0.0
 11
-250.0
 21
-89.900000000000006
 31
0.0
  0
LINE
  5
16D
  8
NOTE
  6
CONTINUOUS
 62
     4
 10
-270.0
 20
-109.90000000000001
 30
0.0
 11
-230.0
 21
-109.90000000000001
 31
0.0
  0
LINE
  5
16E
  8
DETAIL
  6
CONTINUOUS
 62
     5
 10
-249.0
 20
25.291288000000002
 30
0.0
 11
-249.0
 21
10.0
 31
0.0
  0
LINE
  5
16F
  8
DETAIL
  6
CONTINUOUS
 62
     5
 10
-264.11765800000001
 20
0.0
 30
0.0
 11
-375.0
 21
0.0
 31
0.0
  0
LINE
  5
170
  8
DETAIL
  6
CONTINUOUS
 62
     5
 10
-247.5
 20
0.0
 30
0.0
 11
-252.5
 21
0.0
 31
0.0
  0
LINE
  5
171
  8
DETAIL
  6
CONTINUOUS
 62
     5
 10
-247.27394799999999
 20
10.0
 30
0.0
 11
-252.72605200000001
 21
10.0
 31
0.0
  0
LINE
  5
172
  8
DETAIL
  6
CONTINUOUS
 62
     5
 10
-264.0
 20
-170.0
 30
0.0
 11
-236.0
 21
-170.0
 31
0.0
  0
LINE
  5
173
  8
DETAIL
  6
CONTINUOUS
 62
     5
 10
236.0
 20
-170.0
 30
0.0
 11
264.0
 21
-170.0
 31
0.0
  0
CIRCLE
  5
174
  8
FIX
  6
CONTINUOUS
 62
    11
 39
50.0
 10
250.0
 20
-79.900000000000006
 30
0.0
 40
2.5
  0
CIRCLE
  5
175
  8
FIX
  6
CONTINUOUS
 62
    11
 39
50.0
 10
250.0
 20
-109.90000000000001
 30
0.0
 40
2.5
  0
LINE
  5
176
  8
NOTE
  6
CONTINUOUS
 62
     4
 10
250.0
 20
-99.900000000000006
 30
0.0
 11
250.0
 21
-59.899999999999999
 31
0.0
  0
LINE
  5
177
  8
NOTE
  6
CONTINUOUS
 62
     4
 10
230.0
 20
-79.900000000000006
 30
0.0
 11
270.0
 21
-79.900000000000006
 31
0.0
  0
LINE
  5
178
  8
DETAIL
  6
CONTINUOUS
 62
     5
 10
252.5
 20
-79.900000000000006
 30
0.0
 11
252.5
 21
-109.90000000000001
 31
0.0
  0
LINE
  5
179
  8
DETAIL
  6
CONTINUOUS
 62
     5
 10
247.5
 20
-79.900000000000006
 30
0.0
 11
247.5
 21
-109.90000000000001
 31
0.0
  0
LINE
  5
17A
  8
NOTE
  6
CONTINUOUS
 62
     4
 10
250.0
 20
-129.90000000000001
 30
0.0
 11
250.0
 21
-89.900000000000006
 31
0.0
  0
LINE
  5
17B
  8
NOTE
  6
CONTINUOUS
 62
     4
 10
230.0
 20
-109.90000000000001
 30
0.0
 11
270.0
 21
-109.90000000000001
 31
0.0
  0
ARC
  5
17C
  8
DETAIL
  6
CONTINUOUS
 62
     5
 10
250.0
 20
-109.90000000000001
 30
0.0
 40
2.5
 50
180.0
 51
0.0
  0
ARC
  5
17D
  8
DETAIL
  6
CONTINUOUS
 62
     5
 10
250.0
 20
-79.900000000000006
 30
0.0
 40
2.5
 50
0.0
 51
180.0
  0
LINE
  5
17E
  8
NOTE
  6
CONTINUOUS
 62
     4
 10
250.0
 20
-39.899999999999999
 30
0.0
 11
250.0
 21
0.1
 31
0.0
  0
LINE
  5
17F
  8
NOTE
  6
CONTINUOUS
 62
     4
 10
230.0
 20
-19.899999999999999
 30
0.0
 11
270.0
 21
-19.899999999999999
 31
0.0
  0
LINE
  5
180
  8
DETAIL
  6
CONTINUOUS
 62
     5
 10
236.0
 20
30.0
 30
0.0
 11
264.0
 21
30.0
 31
0.0
  0
ARC
  5
181
  8
DETAIL
  6
CONTINUOUS
 62
     5
 10
246.5
 20
9.3667499999999997
 30
0.0
 40
1.0
 50
0.0
 51
62.181860999999991
  0
ARC
  5
182
  8
DETAIL
  6
CONTINUOUS
 62
     5
 10
253.5
 20
9.3667499999999997
 30
0.0
 40
1.0
 50
117.818139
 51
180.0
  0
LINE
  5
183
  8
DETAIL
  6
CONTINUOUS
 62
     5
 10
252.5
 20
9.3667499999999997
 30
0.0
 11
252.5
 21
-19.899999999999999
 31
0.0
  0
LINE
  5
184
  8
DETAIL
  6
CONTINUOUS
 62
     5
 10
247.5
 20
9.3667499999999997
 30
0.0
 11
247.5
 21
-19.899999999999999
 31
0.0
  0
CIRCLE
  5
185
  8
FIX
  6
CONTINUOUS
 62
    11
 39
50.0
 10
250.0
 20
-19.899999999999999
 30
0.0
 40
2.5
  0
ARC
  5
186
  8
DETAIL
  6
CONTINUOUS
 62
     5
 10
250.0
 20
-19.899999999999999
 30
0.0
 40
2.5
 50
180.0
 51
0.0
  0
CIRCLE
  5
187
  8
FIX
  6
CONTINUOUS
 62
    11
 39
50.0
 10
250.0
 20
16.0
 30
0.0
 40
6.5
  0
ARC
  5
188
  8
DETAIL
  6
CONTINUOUS
 62
     5
 10
250.0
 20
16.0
 30
0.0
 40
6.5
 50
117.818139
 51
242.181861
  0
ARC
  5
189
  8
DETAIL
  6
CONTINUOUS
 62
     5
 10
250.0
 20
16.0
 30
0.0
 40
6.5
 50
297.81813900000009
 51
62.181860999999991
  0
ARC
  5
18A
  8
DETAIL
  6
CONTINUOUS
 62
     5
 10
250.0
 20
23.0
 30
0.0
 40
2.5
 50
0.0
 51
180.0
  0
ARC
  5
18B
  8
DETAIL
  6
CONTINUOUS
 62
     5
 10
246.5
 20
22.63325
 30
0.0
 40
1.0
 50
297.81813900000009
 51
0.0
  0
ARC
  5
18C
  8
DETAIL
  6
CONTINUOUS
 62
     5
 10
253.5
 20
22.63325
 30
0.0
 40
1.0
 50
180.0
 51
242.181861
  0
LINE
  5
18D
  8
DETAIL
  6
CONTINUOUS
 62
     5
 10
247.5
 20
23.0
 30
0.0
 11
247.5
 21
22.63325
 31
0.0
  0
LINE
  5
18E
  8
DETAIL
  6
CONTINUOUS
 62
     5
 10
252.5
 20
23.0
 30
0.0
 11
252.5
 21
22.63325
 31
0.0
  0
LINE
  5
18F
  8
DETAIL
  6
CONTINUOUS
 62
     5
 10
235.88234199999999
 20
0.0
 30
0.0
 11
-235.88234199999999
 21
0.0
 31
0.0
  0
LINE
  5
190
  8
DETAIL
  6
CONTINUOUS
 62
     5
 10
252.5
 20
0.0
 30
0.0
 11
247.5
 21
0.0
 31
0.0
  0
LINE
  5
191
  8
SIZE
  6
CONTINUOUS
 62
    30
 10
-81.0
 20
50.0
 30
0.0
 11
129.44329200000001
 21
50.0
 31
0.0
  0
LINE
  5
192
  8
SIZE
  6
CONTINUOUS
 62
    30
 10
-81.0
 20
10.0
 30
0.0
 11
129.44329200000001
 21
10.0
 31
0.0
  0
LINE
  5
193
  8
SIZE
  6
CONTINUOUS
 62
    30
 10
109.443292
 20
62.0
 30
0.0
 11
109.443292
 21
74.0
 31
0.0
  0
LINE
  5
194
  8
SIZE
  6
CONTINUOUS
 62
    30
 10
109.443292
 20
-2.0
 30
0.0
 11
109.443292
 21
-14.0
 31
0.0
  0
LINE
  5
195
  8
SIZE
  6
CONTINUOUS
 62
    30
 10
109.443292
 20
219.091272
 30
0.0
 11
109.443292
 21
50.0
 31
0.0
  0
TEXT
  5
196
  8
SIZE
  6
CONTINUOUS
 62
    30
 10
84.443292
 20
100.8341295714286
 30
0.0
 40
64.0
  1
40
 50
90.0
 41
0.9
 72
     1
 11
84.443292
 21
147.46270100000001
 31
0.0
  0
LINE
  5
197
  8
SIZE
  6
CONTINUOUS
 62
    30
 10
109.443292
 20
50.0
 30
0.0
 11
109.443292
 21
10.0
 31
0.0
  0
LINE
  5
198
  8
SIZE
  6
CONTINUOUS
 62
    30
 10
109.443292
 20
50.0
 30
0.0
 11
109.443292
 21
10.0
 31
0.0
  0
CIRCLE
  5
199
  8
SIZE
  6
CONTINUOUS
 62
    30
 10
109.443292
 20
50.0
 30
0.0
 40
6.0
  0
LINE
  5
19A
  8
SIZE
  6
CONTINUOUS
 62
    30
 10
109.443292
 20
50.0
 30
0.0
 11
109.443292
 21
62.0
 31
0.0
  0
CIRCLE
  5
19B
  8
SIZE
  6
CONTINUOUS
 62
    30
 10
109.443292
 20
10.0
 30
0.0
 40
6.0
  0
LINE
  5
19C
  8
SIZE
  6
CONTINUOUS
 62
    30
 10
109.443292
 20
10.0
 30
0.0
 11
109.443292
 21
-2.0
 31
0.0
  0
POINT
  5
19D
  8
DEFPOINTS
  6
CONTINUOUS
 62
    30
 10
-101.0
 20
50.0
 30
0.0
  0
POINT
  5
19E
  8
DEFPOINTS
  6
CONTINUOUS
 62
    30
 10
-101.0
 20
10.0
 30
0.0
  0
POINT
  5
19F
  8
DEFPOINTS
  6
CONTINUOUS
 62
    30
 10
109.443292
 20
10.0
 30
0.0
  0
LINE
  5
1A0
  8
DETAIL
  6
CONTINUOUS
 62
     5
 10
-264.0
 20
30.0
 30
0.0
 11
-264.0
 21
-170.0
 31
0.0
  0
LINE
  5
1A1
  8
DETAIL
  6
CONTINUOUS
 62
     5
 10
-236.0
 20
30.0
 30
0.0
 11
-236.0
 21
-170.0
 31
0.0
  0
LINE
  5
1A2
  8
DETAIL
  6
CONTINUOUS
 62
     5
 10
236.0
 20
30.0
 30
0.0
 11
236.0
 21
-170.0
 31
0.0
  0
LINE
  5
1A3
  8
DETAIL
  6
CONTINUOUS
 62
     5
 10
264.0
 20
30.0
 30
0.0
 11
264.0
 21
-170.0
 31
0.0
  0
CIRCLE
  5
1A4
  8
FIX
  6
CONTINUOUS
 62
    11
 39
50.0
 10
250.0
 20
0.0
 30
0.0
 40
3.0
  0
TEXT
  5
1A5
  8
NOTE
  6
CONTINUOUS
 62
     4
 10
-222.867897
 20
70.656661999999983
 30
0.0
 40
64.0
  1
EA
 41
0.9
  0
LINE
  5
1A6
  8
SIZE
  6
CONTINUOUS
 62
    30
 10
-395.0
 20
0.0
 30
0.0
 11
-606.67734099999996
 21
0.0
 31
0.0
  0
LINE
  5
1A7
  8
SIZE
  6
CONTINUOUS
 62
    30
 10
-586.67734099999996
 20
-12.0
 30
0.0
 11
-586.67734099999996
 21
-232.0
 31
0.0
  0
CIRCLE
  5
1A8
  8
SIZE
  6
CONTINUOUS
 62
    30
 10
-586.67734099999996
 20
0.0
 30
0.0
 40
6.0
  0
LINE
  5
1A9
  8
SIZE
  6
CONTINUOUS
 62
    30
 10
-586.67734099999996
 20
0.0
 30
0.0
 11
-586.67734099999996
 21
-12.0
 31
0.0
  0
CIRCLE
  5
1AA
  8
SIZE
  6
CONTINUOUS
 62
    30
 10
-586.67734099999996
 20
-244.0
 30
0.0
 40
6.0
  0
LINE
  5
1AB
  8
SIZE
  6
CONTINUOUS
 62
    30
 10
-586.67734099999996
 20
-244.0
 30
0.0
 11
-586.67734099999996
 21
-232.0
 31
0.0
  0
TEXT
  5
1AC
  8
SIZE
  6
CONTINUOUS
 62
    30
 10
-611.67734099999996
 20
-197.42857142857139
 30
0.0
 40
64.0
  1
244
 50
90.0
 41
0.9
 72
     1
 11
-611.67734099999996
 21
-122.0
 31
0.0
  0
POINT
  5
1AD
  8
DEFPOINTS
  6
CONTINUOUS
 62
    30
 10
-375.0
 20
0.0
 30
0.0
  0
POINT
  5
1AE
  8
DEFPOINTS
  6
CONTINUOUS
 62
    30
 10
-586.67734099999996
 20
-244.0
 30
0.0
  0
POINT
  5
1AF
  8
DEFPOINTS
  6
CONTINUOUS
 62
    30
 10
-586.67734099999996
 20
-244.0
 30
0.0
  0
LINE
  5
1B0
  8
SIZE
  6
CONTINUOUS
 62
    30
 10
-395.0
 20
0.0
 30
0.0
 11
-489.06680099999988
 21
0.0
 31
0.0
  0
LINE
  5
1B1
  8
SIZE
  6
CONTINUOUS
 62
    30
 10
-152.237199
 20
-100.0
 30
0.0
 11
-489.06680099999988
 21
-100.0
 31
0.0
  0
LINE
  5
1B2
  8
SIZE
  6
CONTINUOUS
 62
    30
 10
-469.066801
 20
12.0
 30
0.0
 11
-469.066801
 21
24.0
 31
0.0
  0
LINE
  5
1B3
  8
SIZE
  6
CONTINUOUS
 62
    30
 10
-469.066801
 20
-112.0
 30
0.0
 11
-469.066801
 21
-124.0
 31
0.0
  0
LINE
  5
1B4
  8
SIZE
  6
CONTINUOUS
 62
    30
 10
-469.066801
 20
0.0
 30
0.0
 11
-469.066801
 21
-100.0
 31
0.0
  0
CIRCLE
  5
1B5
  8
SIZE
  6
CONTINUOUS
 62
    30
 10
-469.066801
 20
0.0
 30
0.0
 40
6.0
  0
LINE
  5
1B6
  8
SIZE
  6
CONTINUOUS
 62
    30
 10
-469.066801
 20
0.0
 30
0.0
 11
-469.066801
 21
12.0
 31
0.0
  0
CIRCLE
  5
1B7
  8
SIZE
  6
CONTINUOUS
 62
    30
 10
-469.066801
 20
-100.0
 30
0.0
 40
6.0
  0
LINE
  5
1B8
  8
SIZE
  6
CONTINUOUS
 62
    30
 10
-469.066801
 20
-100.0
 30
0.0
 11
-469.066801
 21
-112.0
 31
0.0
  0
TEXT
  5
1B9
  8
SIZE
  6
CONTINUOUS
 62
    30
 10
-494.066801
 20
-118.5714285714285
 30
0.0
 40
64.0
  1
100
 50
90.0
 41
0.9
 72
     1
 11
-494.066801
 21
-50.0
 31
0.0
  0
POINT
  5
1BA
  8
DEFPOINTS
  6
CONTINUOUS
 62
    30
 10
-375.0
 20
0.0
 30
0.0
  0
POINT
  5
1BB
  8
DEFPOINTS
  6
CONTINUOUS
 62
    30
 10
-132.237199
 20
-100.0
 30
0.0
  0
POINT
  5
1BC
  8
DEFPOINTS
  6
CONTINUOUS
 62
    30
 10
-469.066801
 20
-100.0
 30
0.0
  0
LINE
  5
1BD
  8
SIZE
  6
CONTINUOUS
 62
    30
 10
395.0
 20
0.0
 30
0.0
 11
735.32586500000002
 21
0.0
 31
0.0
  0
LINE
  5
1BE
  8
SIZE
  6
CONTINUOUS
 62
    30
 10
392.0
 20
-440.0
 30
0.0
 11
735.32586500000002
 21
-440.0
 31
0.0
  0
LINE
  5
1BF
  8
SIZE
  6
CONTINUOUS
 62
    30
 10
715.32586500000002
 20
-12.0
 30
0.0
 11
715.32586500000002
 21
-428.0
 31
0.0
  0
CIRCLE
  5
1C0
  8
SIZE
  6
CONTINUOUS
 62
    30
 10
715.32586500000002
 20
0.0
 30
0.0
 40
6.0
  0
LINE
  5
1C1
  8
SIZE
  6
CONTINUOUS
 62
    30
 10
715.32586500000002
 20
0.0
 30
0.0
 11
715.32586500000002
 21
-12.0
 31
0.0
  0
CIRCLE
  5
1C2
  8
SIZE
  6
CONTINUOUS
 62
    30
 10
715.32586500000002
 20
-440.0
 30
0.0
 40
6.0
  0
LINE
  5
1C3
  8
SIZE
  6
CONTINUOUS
 62
    30
 10
715.32586500000002
 20
-440.0
 30
0.0
 11
715.32586500000002
 21
-428.0
 31
0.0
  0
TEXT
  5
1C4
  8
SIZE
  6
CONTINUOUS
 62
    30
 10
690.32586500000002
 20
-294.05714285714282
 30
0.0
 40
64.0
  1
440
 50
90.0
 41
0.9
 72
     1
 11
690.32586500000002
 21
-220.0
 31
0.0
  0
POINT
  5
1C5
  8
DEFPOINTS
  6
CONTINUOUS
 62
    30
 10
375.0
 20
0.0
 30
0.0
  0
POINT
  5
1C6
  8
DEFPOINTS
  6
CONTINUOUS
 62
    30
 10
372.0
 20
-440.0
 30
0.0
  0
POINT
  5
1C7
  8
DEFPOINTS
  6
CONTINUOUS
 62
    30
 10
715.32586500000002
 20
-440.0
 30
0.0
  0
LINE
  5
1C8
  8
SIZE
  6
CONTINUOUS
 62
    30
 10
395.0
 20
0.0
 30
0.0
 11
735.32586500000002
 21
0.0
 31
0.0
  0
LINE
  5
1C9
  8
SIZE
  6
CONTINUOUS
 62
    30
 10
284.0
 20
30.0
 30
0.0
 11
735.32586500000002
 21
30.0
 31
0.0
  0
LINE
  5
1CA
  8
SIZE
  6
CONTINUOUS
 62
    30
 10
715.32586500000002
 20
-12.0
 30
0.0
 11
715.32586500000002
 21
-24.0
 31
0.0
  0
LINE
  5
1CB
  8
SIZE
  6
CONTINUOUS
 62
    30
 10
715.32586500000002
 20
42.0
 30
0.0
 11
715.32586500000002
 21
54.0
 31
0.0
  0
LINE
  5
1CC
  8
SIZE
  6
CONTINUOUS
 62
    30
 10
715.32586500000002
 20
198.652714
 30
0.0
 11
715.32586500000002
 21
30.0
 31
0.0
  0
TEXT
  5
1CD
  8
SIZE
  6
CONTINUOUS
 62
    30
 10
690.32586500000002
 20
80.395570571428564
 30
0.0
 40
64.0
  1
30
 50
90.0
 41
0.9
 72
     1
 11
690.32586500000002
 21
127.024142
 31
0.0
  0
LINE
  5
1CE
  8
SIZE
  6
CONTINUOUS
 62
    30
 10
715.32586500000002
 20
0.0
 30
0.0
 11
715.32586500000002
 21
30.0
 31
0.0
  0
LINE
  5
1CF
  8
SIZE
  6
CONTINUOUS
 62
    30
 10
715.32586500000002
 20
0.0
 30
0.0
 11
715.32586500000002
 21
30.0
 31
0.0
  0
CIRCLE
  5
1D0
  8
SIZE
  6
CONTINUOUS
 62
    30
 10
715.32586500000002
 20
0.0
 30
0.0
 40
6.0
  0
LINE
  5
1D1
  8
SIZE
  6
CONTINUOUS
 62
    30
 10
715.32586500000002
 20
0.0
 30
0.0
 11
715.32586500000002
 21
-12.0
 31
0.0
  0
CIRCLE
  5
1D2
  8
SIZE
  6
CONTINUOUS
 62
    30
 10
715.32586500000002
 20
30.0
 30
0.0
 40
6.0
  0
LINE
  5
1D3
  8
SIZE
  6
CONTINUOUS
 62
    30
 10
715.32586500000002
 20
30.0
 30
0.0
 11
715.32586500000002
 21
42.0
 31
0.0
  0
POINT
  5
1D4
  8
DEFPOINTS
  6
CONTINUOUS
 62
    30
 10
375.0
 20
0.0
 30
0.0
  0
POINT
  5
1D5
  8
DEFPOINTS
  6
CONTINUOUS
 62
    30
 10
264.0
 20
30.0
 30
0.0
  0
POINT
  5
1D6
  8
DEFPOINTS
  6
CONTINUOUS
 62
    30
 10
715.32586500000002
 20
30.0
 30
0.0
  0
LINE
  5
1D7
  8
SIZE
  6
CONTINUOUS
 62
    30
 10
395.0
 20
0.0
 30
0.0
 11
623.69509800000003
 21
0.0
 31
0.0
  0
LINE
  5
1D8
  8
SIZE
  6
CONTINUOUS
 62
    30
 10
290.0
 20
16.0
 30
0.0
 11
623.69509800000003
 21
16.0
 31
0.0
  0
LINE
  5
1D9
  8
SIZE
  6
CONTINUOUS
 62
    30
 10
603.69509800000003
 20
-12.0
 30
0.0
 11
603.69509800000003
 21
-24.0
 31
0.0
  0
LINE
  5
1DA
  8
SIZE
  6
CONTINUOUS
 62
    30
 10
603.69509800000003
 20
28.0
 30
0.0
 11
603.69509800000003
 21
40.0
 31
0.0
  0
LINE
  5
1DB
  8
SIZE
  6
CONTINUOUS
 62
    30
 10
603.69509800000003
 20
186.07474999999999
 30
0.0
 11
603.69509800000003
 21
16.0
 31
0.0
  0
TEXT
  5
1DC
  8
SIZE
  6
CONTINUOUS
 62
    30
 10
578.69509800000003
 20
81.531892428571425
 30
0.0
 40
64.0
  1
16
 50
90.0
 41
0.9
 72
     1
 11
578.69509800000003
 21
121.303321
 31
0.0
  0
LINE
  5
1DD
  8
SIZE
  6
CONTINUOUS
 62
    30
 10
603.69509800000003
 20
0.0
 30
0.0
 11
603.69509800000003
 21
16.0
 31
0.0
  0
LINE
  5
1DE
  8
SIZE
  6
CONTINUOUS
 62
    30
 10
603.69509800000003
 20
0.0
 30
0.0
 11
603.69509800000003
 21
16.0
 31
0.0
  0
CIRCLE
  5
1DF
  8
SIZE
  6
CONTINUOUS
 62
    30
 10
603.69509800000003
 20
0.0
 30
0.0
 40
6.0
  0
LINE
  5
1E0
  8
SIZE
  6
CONTINUOUS
 62
    30
 10
603.69509800000003
 20
0.0
 30
0.0
 11
603.69509800000003
 21
-12.0
 31
0.0
  0
CIRCLE
  5
1E1
  8
SIZE
  6
CONTINUOUS
 62
    30
 10
603.69509800000003
 20
16.0
 30
0.0
 40
6.0
  0
LINE
  5
1E2
  8
SIZE
  6
CONTINUOUS
 62
    30
 10
603.69509800000003
 20
16.0
 30
0.0
 11
603.69509800000003
 21
28.0
 31
0.0
  0
POINT
  5
1E3
  8
DEFPOINTS
  6
CONTINUOUS
 62
    30
 10
375.0
 20
0.0
 30
0.0
  0
POINT
  5
1E4
  8
DEFPOINTS
  6
CONTINUOUS
 62
    30
 10
270.0
 20
16.0
 30
0.0
  0
POINT
  5
1E5
  8
DEFPOINTS
  6
CONTINUOUS
 62
    30
 10
603.69509800000003
 20
16.0
 30
0.0
  0
LINE
  5
1E6
  8
SIZE
  6
CONTINUOUS
 62
    30
 10
290.0
 20
16.0
 30
0.0
 11
509.201998
 21
16.0
 31
0.0
  0
LINE
  5
1E7
  8
SIZE
  6
CONTINUOUS
 62
    30
 10
290.0
 20
23.0
 30
0.0
 11
509.201998
 21
23.0
 31
0.0
  0
LINE
  5
1E8
  8
SIZE
  6
CONTINUOUS
 62
    30
 10
489.201998
 20
4.0
 30
0.0
 11
489.201998
 21
-8.0
 31
0.0
  0
LINE
  5
1E9
  8
SIZE
  6
CONTINUOUS
 62
    30
 10
489.201998
 20
35.0
 30
0.0
 11
489.201998
 21
47.0
 31
0.0
  0
LINE
  5
1EA
  8
SIZE
  6
CONTINUOUS
 62
    30
 10
489.201998
 20
156.92209199999999
 30
0.0
 11
489.201998
 21
23.0
 31
0.0
  0
TEXT
  5
1EB
  8
SIZE
  6
CONTINUOUS
 62
    30
 10
464.201998
 20
93.522091999999986
 30
0.0
 40
64.0
  1
7
 50
90.0
 41
0.9
 72
     1
 11
464.201998
 21
112.722092
 31
0.0
  0
LINE
  5
1EC
  8
SIZE
  6
CONTINUOUS
 62
    30
 10
489.201998
 20
16.0
 30
0.0
 11
489.201998
 21
23.0
 31
0.0
  0
LINE
  5
1ED
  8
SIZE
  6
CONTINUOUS
 62
    30
 10
489.201998
 20
16.0
 30
0.0
 11
489.201998
 21
23.0
 31
0.0
  0
CIRCLE
  5
1EE
  8
SIZE
  6
CONTINUOUS
 62
    30
 10
489.201998
 20
16.0
 30
0.0
 40
6.0
  0
LINE
  5
1EF
  8
SIZE
  6
CONTINUOUS
 62
    30
 10
489.201998
 20
16.0
 30
0.0
 11
489.201998
 21
4.0
 31
0.0
  0
CIRCLE
  5
1F0
  8
SIZE
  6
CONTINUOUS
 62
    30
 10
489.201998
 20
23.0
 30
0.0
 40
6.0
  0
LINE
  5
1F1
  8
SIZE
  6
CONTINUOUS
 62
    30
 10
489.201998
 20
23.0
 30
0.0
 11
489.201998
 21
35.0
 31
0.0
  0
POINT
  5
1F2
  8
DEFPOINTS
  6
CONTINUOUS
 62
    30
 10
270.0
 20
16.0
 30
0.0
  0
POINT
  5
1F3
  8
DEFPOINTS
  6
CONTINUOUS
 62
    30
 10
270.0
 20
23.0
 30
0.0
  0
POINT
  5
1F4
  8
DEFPOINTS
  6
CONTINUOUS
 62
    30
 10
489.201998
 20
23.0
 30
0.0
  0
LINE
  5
1F5
  8
SIZE
  6
CONTINUOUS
 62
    30
 10
-395.0
 20
0.0
 30
0.0
 11
-606.67734099999996
 21
0.0
 31
0.0
  0
LINE
  5
1F6
  8
SIZE
  6
CONTINUOUS
 62
    30
 10
-269.0
 20
50.0
 30
0.0
 11
-606.67734099999996
 21
50.0
 31
0.0
  0
LINE
  5
1F7
  8
SIZE
  6
CONTINUOUS
 62
    30
 10
-586.67734099999996
 20
-12.0
 30
0.0
 11
-586.67734099999996
 21
-24.0
 31
0.0
  0
LINE
  5
1F8
  8
SIZE
  6
CONTINUOUS
 62
    30
 10
-586.67734099999996
 20
62.0
 30
0.0
 11
-586.67734099999996
 21
74.0
 31
0.0
  0
LINE
  5
1F9
  8
SIZE
  6
CONTINUOUS
 62
    30
 10
-586.67734099999996
 20
0.0
 30
0.0
 11
-586.67734099999996
 21
50.0
 31
0.0
  0
CIRCLE
  5
1FA
  8
SIZE
  6
CONTINUOUS
 62
    30
 10
-586.67734099999996
 20
0.0
 30
0.0
 40
6.0
  0
LINE
  5
1FB
  8
SIZE
  6
CONTINUOUS
 62
    30
 10
-586.67734099999996
 20
0.0
 30
0.0
 11
-586.67734099999996
 21
-12.0
 31
0.0
  0
CIRCLE
  5
1FC
  8
SIZE
  6
CONTINUOUS
 62
    30
 10
-586.67734099999996
 20
50.0
 30
0.0
 40
6.0
  0
LINE
  5
1FD
  8
SIZE
  6
CONTINUOUS
 62
    30
 10
-586.67734099999996
 20
50.0
 30
0.0
 11
-586.67734099999996
 21
62.0
 31
0.0
  0
TEXT
  5
1FE
  8
SIZE
  6
CONTINUOUS
 62
    30
 10
-611.67734099999996
 20
-21.628571428571419
 30
0.0
 40
64.0
  1
50
 50
90.0
 41
0.9
 72
     1
 11
-611.67734099999996
 21
25.0
 31
0.0
  0
POINT
  5
1FF
  8
DEFPOINTS
  6
CONTINUOUS
 62
    30
 10
-375.0
 20
0.0
 30
0.0
  0
POINT
  5
200
  8
DEFPOINTS
  6
CONTINUOUS
 62
    30
 10
-249.0
 20
50.0
 30
0.0
  0
POINT
  5
201
  8
DEFPOINTS
  6
CONTINUOUS
 62
    30
 10
-586.67734099999996
 20
50.0
 30
0.0
  0
TEXT
  5
20A
  8
ETC
  6
CONTINUOUS
 62
    61
 10
834.78256874290969
 20
470.12451403149419
 30
0.0
 40
64.0
  1
換気扇
 41
0.9
  0
TEXT
  5
20B
  8
ETC
  6
CONTINUOUS
 62
    61
 10
843.27179274290972
 20
573.8620300314941
 30
0.0
 40
64.0
  1
V-507RH2_3
 41
0.9
  0
TEXT
  5
23E
  8
ETC
  6
CONTINUOUS
 62
    61
 10
925.27938852004161
 20
369.38547514474692
 30
0.0
 40
51.200000000000003
  1
V-507RH
 41
0.9
  0
TEXT
  5
23F
  8
ETC
  6
CONTINUOUS
 62
    61
 10
925.27938852004161
 20
294.88551526056682
 30
0.0
 40
51.200000000000003
  1
V-507RH-S
 41
0.9
  0
TEXT
  5
240
  8
ETC
  6
CONTINUOUS
 62
    61
 10
925.27938852004161
 20
215.67586957747611
 30
0.0
 40
51.200000000000003
  1
V-507RH2
 41
0.9
  0
TEXT
  5
241
  8
ETC
  6
CONTINUOUS
 62
    61
 10
925.27938852004161
 20
141.17590969329601
 30
0.0
 40
51.200000000000003
  1
V-507RH2-S
 41
0.9
  0
ENDSEC
  0
EOF
