  0
SECTION
  2
HEADER
  9
$ACADVER
  1
AC1009
  9
$INSBASE
 10
0.0
 20
0.0
 30
0.0
  9
$EXTMIN
 10
-689.74976700000013
 20
-692.46767799999986
 30
0.0
  9
$EXTMAX
 10
1317.437037914792
 20
603.10920160339015
 30
50.0
  9
$LIMMIN
 10
-2970.0
 20
-2100.0
  9
$LIMMAX
 10
2970.0
 20
2100.0
  9
$ORTHOMODE
 70
     1
  9
$REGENMODE
 70
     0
  9
$FILLMODE
 70
     1
  9
$QTEXTMODE
 70
     0
  9
$MIRRTEXT
 70
     0
  9
$DRAGMODE
 70
     2
  9
$LTSCALE
 40
20.0
  9
$OSMODE
 70
    32
  9
$ATTMODE
 70
     1
  9
$TEXTSIZE
 40
64.0
  9
$TRACEWID
 40
0.05
  9
$TEXTSTYLE
  7
STANDARD
  9
$CLAYER
  8
ETC
  9
$CELTYPE
  6
CONTINUOUS
  9
$CECOLOR
 62
     5
  9
$DIMSCALE
 40
1.0
  9
$DIMASZ
 40
12.0
  9
$DIMEXO
 40
20.0
  9
$DIMDLI
 40
200.0
  9
$DIMRND
 40
0.0
  9
$DIMDLE
 40
0.0
  9
$DIMEXE
 40
20.0
  9
$DIMTP
 40
0.0
  9
$DIMTM
 40
0.0
  9
$DIMTXT
 40
64.0
  9
$DIMCEN
 40
0.09
  9
$DIMTSZ
 40
0.0
  9
$DIMTOL
 70
     0
  9
$DIMLIM
 70
     0
  9
$DIMTIH
 70
     0
  9
$DIMTOH
 70
     0
  9
$DIMSE1
 70
     0
  9
$DIMSE2
 70
     0
  9
$DIMTAD
 70
     1
  9
$DIMZIN
 70
     8
  9
$DIMBLK
  1
DOT1
  9
$DIMASO
 70
     1
  9
$DIMSHO
 70
     0
  9
$DIMPOST
  1

  9
$DIMAPOST
  1

  9
$DIMALT
 70
     0
  9
$DIMALTD
 70
     2
  9
$DIMALTF
 40
25.399999999999999
  9
$DIMLFAC
 40
1.0
  9
$DIMTOFL
 70
     1
  9
$DIMTVP
 40
0.0
  9
$DIMTIX
 70
     1
  9
$DIMSOXD
 70
     0
  9
$DIMSAH
 70
     1
  9
$DIMBLK1
  1
ORIGIN
  9
$DIMBLK2
  1
ORIGIN
  9
$DIMSTYLE
  2
STANDARD
  9
$DIMCLRD
 70
     0
  9
$DIMCLRE
 70
     0
  9
$DIMCLRT
 70
     0
  9
$DIMTFAC
 40
1.0
  9
$DIMGAP
 40
0.09
  9
$LUNITS
 70
     2
  9
$LUPREC
 70
     4
  9
$SKETCHINC
 40
0.1
  9
$FILLETRAD
 40
5.0
  9
$AUNITS
 70
     1
  9
$AUPREC
 70
     3
  9
$MENU
  1
ACAD
  9
$ELEVATION
 40
0.0
  9
$PELEVATION
 40
0.0
  9
$THICKNESS
 40
50.0
  9
$LIMCHECK
 70
     0
  9
$BLIPMODE
 70
     0
  9
$CHAMFERA
 40
0.0
  9
$CHAMFERB
 40
0.0
  9
$SKPOLY
 70
     0
  9
$TDCREATE
 40
2451453.49385081
  9
$TDUPDATE
 40
2454743.39735397
  9
$TDINDWG
 40
0.6669502315
  9
$TDUSRTIMER
 40
0.6669502315
  9
$USRTIMER
 70
     1
  9
$ANGBASE
 50
0.0
  9
$ANGDIR
 70
     0
  9
$PDMODE
 70
     3
  9
$PDSIZE
 40
-2.0
  9
$PLINEWID
 40
0.0
  9
$COORDS
 70
     1
  9
$SPLFRAME
 70
     0
  9
$SPLINETYPE
 70
     6
  9
$SPLINESEGS
 70
     8
  9
$ATTDIA
 70
     0
  9
$ATTREQ
 70
     1
  9
$HANDLING
 70
     1
  9
$HANDSEED
  5
24E
  9
$SURFTAB1
 70
     6
  9
$SURFTAB2
 70
     6
  9
$SURFTYPE
 70
     6
  9
$SURFU
 70
     6
  9
$SURFV
 70
     6
  9
$UCSNAME
  2

  9
$UCSORG
 10
0.0
 20
0.0
 30
0.0
  9
$UCSXDIR
 10
1.0
 20
0.0
 30
0.0
  9
$UCSYDIR
 10
0.0
 20
1.0
 30
0.0
  9
$PUCSNAME
  2

  9
$PUCSORG
 10
0.0
 20
0.0
 30
0.0
  9
$PUCSXDIR
 10
1.0
 20
0.0
 30
0.0
  9
$PUCSYDIR
 10
0.0
 20
1.0
 30
0.0
  9
$USERI1
 70
     0
  9
$USERI2
 70
     0
  9
$USERI3
 70
     0
  9
$USERI4
 70
     0
  9
$USERI5
 70
     0
  9
$USERR1
 40
20.0
  9
$USERR2
 40
0.0
  9
$USERR3
 40
0.0
  9
$USERR4
 40
0.0
  9
$USERR5
 40
0.0
  9
$WORLDVIEW
 70
     1
  9
$SHADEDGE
 70
     3
  9
$SHADEDIF
 70
    70
  9
$TILEMODE
 70
     1
  9
$MAXACTVP
 70
    64
  9
$PLIMCHECK
 70
     0
  9
$PEXTMIN
 10
1.0000000000000000E+020
 20
1.0000000000000000E+020
 30
1.0000000000000000E+020
  9
$PEXTMAX
 10
-1.0000000000000000E+020
 20
-1.0000000000000000E+020
 30
-1.0000000000000000E+020
  9
$PLIMMIN
 10
0.0
 20
0.0
  9
$PLIMMAX
 10
12.0
 20
9.0
  9
$UNITMODE
 70
     0
  9
$VISRETAIN
 70
     1
  9
$PLINEGEN
 70
     0
  9
$PSLTSCALE
 70
     1
  0
ENDSEC
  0
SECTION
  2
TABLES
  0
TABLE
  2
VPORT
 70
     1
  0
VPORT
  2
*ACTIVE
 70
     0
 10
0.0
 20
0.0
 11
1.0
 21
1.0
 12
110.2413353989711
 22
-8.3781751601939032
 13
0.0
 23
0.0
 14
1.0
 24
1.0
 15
0.0
 25
0.0
 16
0.0
 26
0.0
 36
1.0
 17
0.0
 27
0.0
 37
0.0
 40
1862.864557515672
 41
1.7517337031900131
 42
50.0
 43
0.0
 44
0.0
 50
0.0
 51
0.0
 71
     0
 72
   100
 73
     1
 74
     1
 75
     0
 76
     0
 77
     0
 78
     0
  0
ENDTAB
  0
TABLE
  2
LTYPE
 70
     3
  0
LTYPE
  2
CONTINUOUS
 70
     0
  3
実線
 72
    65
 73
     0
 40
0.0
  0
LTYPE
  2
DASHDOT
 70
     0
  3
____ _ ____ _ ____ _ ____ _ ____ _ ____ _ ____
 72
    65
 73
     4
 40
5.5
 49
4.0
 49
-0.6
 49
0.3
 49
-0.6
  0
LTYPE
  2
DASHED
 70
     0
  3
_ _ _ _ _ _ _ _ _ _ _ _ _ _ _ _ _ _ _ _ _ _ _
 72
    65
 73
     2
 40
2.0
 49
1.1999999999999991
 49
-0.8
  0
ENDTAB
  0
TABLE
  2
LAYER
 70
    12
  0
LAYER
  2
0
 70
     0
 62
     7
  6
CONTINUOUS
  0
LAYER
  2
DETAIL
 70
     0
 62
     5
  6
CONTINUOUS
  0
LAYER
  2
BASIS
 70
     0
 62
     6
  6
DASHDOT
  0
LAYER
  2
OUTLINE
 70
     0
 62
     3
  6
CONTINUOUS
  0
LAYER
  2
SIZE
 70
     0
 62
    30
  6
CONTINUOUS
  0
LAYER
  2
ARRANGE
 70
     0
 62
     1
  6
CONTINUOUS
  0
LAYER
  2
DEFPOINTS
 70
     0
 62
     7
  6
CONTINUOUS
  0
LAYER
  2
ETC
 70
     0
 62
    61
  6
CONTINUOUS
  0
LAYER
  2
FIX
 70
     0
 62
    11
  6
CONTINUOUS
  0
LAYER
  2
NOTE
 70
     0
 62
     4
  6
CONTINUOUS
  0
LAYER
  2
SERVICESPACE
 70
     0
 62
     2
  6
DASHDOT
  0
LAYER
  2
SYMBOLLINE
 70
     0
 62
    15
  6
CONTINUOUS
  0
ENDTAB
  0
TABLE
  2
STYLE
 70
     2
  0
STYLE
  2
STANDARD
 70
     0
 40
64.0
 41
0.9
 50
0.0
 71
     0
 42
64.0
  3
SIMPLEX.shx
  4
BIGFONT.shx
  0
STYLE
  2
ANNOTATIVE
 70
     0
 40
0.0
 41
1.0
 50
0.0
 71
     0
 42
0.2
  3
txt
  4

  0
ENDTAB
  0
TABLE
  2
VIEW
 70
     1
  0
VIEW
  2
ALL
 70
     0
 40
4282.6198079999986
 10
0.0
 20
41.309903999999989
 41
5940.0
 11
0.0
 21
0.0
 31
1.0
 12
0.0
 22
0.0
 32
0.0
 42
50.0
 43
0.0
 44
0.0
 50
0.0
 71
     0
  0
ENDTAB
  0
TABLE
  2
UCS
 70
     0
  0
ENDTAB
  0
TABLE
  2
APPID
 70
     4
  0
APPID
  2
ACAD
 70
     0
  0
APPID
  2
ACADANNOTATIVE
 70
     0
  0
APPID
  2
ACAD_MLEADERVER
 70
     0
  0
APPID
  2
ACAD_EXEMPT_FROM_CAD_STANDARDS
 70
     0
  0
ENDTAB
  0
TABLE
  2
DIMSTYLE
 70
     2
  0
DIMSTYLE
  2
STANDARD
 70
     0
  3

  4

  5

  6

  7

 40
1.0
 41
0.18
 42
0.0625
 43
0.38
 44
0.18
 45
0.0
 46
0.0
 47
0.0
 48
0.0
140
0.18
141
0.09
142
0.0
143
25.399999999999999
144
1.0
145
0.0
146
1.0
147
0.09
 71
     0
 72
     0
 73
     1
 74
     1
 75
     0
 76
     0
 77
     0
 78
     0
170
     0
171
     2
172
     0
173
     0
174
     0
175
     0
176
     0
177
     0
178
     0
  0
DIMSTYLE
  2
ANNOTATIVE
 70
     0
  3

  4

  5

  6

  7

 40
1.0
 41
0.18
 42
0.0625
 43
0.38
 44
0.18
 45
0.0
 46
0.0
 47
0.0
 48
0.0
140
0.18
141
0.09
142
0.0
143
25.399999999999999
144
1.0
145
0.0
146
1.0
147
0.09
 71
     0
 72
     0
 73
     1
 74
     1
 75
     0
 76
     0
 77
     0
 78
     0
170
     0
171
     2
172
     0
173
     0
174
     0
175
     0
176
     0
177
     0
178
     0
  0
ENDTAB
  0
ENDSEC
  0
SECTION
  2
BLOCKS
  0
BLOCK
  8
0
  2
$MODEL_SPACE
 70
     0
 10
0.0
 20
0.0
 30
0.0
  3
$MODEL_SPACE
  1

  0
ENDBLK
  5
76
  8
0
  0
BLOCK
 67
     1
  8
0
  2
$PAPER_SPACE
 70
     0
 10
0.0
 20
0.0
 30
0.0
  3
$PAPER_SPACE
  1

  0
ENDBLK
  5
72
 67
     1
  8
0
  0
BLOCK
  8
0
  2
DOT1
 70
     0
 10
0.0
 20
0.0
 30
0.0
  3
DOT1
  1

  0
CIRCLE
  5
8C
  8
SIZE
  6
CONTINUOUS
 62
     7
 10
0.0
 20
0.0
 30
0.0
 40
3.0
  0
ENDBLK
  5
8D
  8
0
  0
BLOCK
  8
0
  2
_ORIGIN
 70
     0
 10
0.0
 20
0.0
 30
0.0
  3
_ORIGIN
  1

  0
CIRCLE
  5
90
  8
0
  6
CONTINUOUS
 62
     7
 10
0.0
 20
0.0
 30
0.0
 40
0.5
  0
LINE
  5
91
  8
0
  6
CONTINUOUS
 62
     7
 10
0.0
 20
0.0
 30
0.0
 11
-1.0
 21
0.0
 31
0.0
  0
ENDBLK
  5
92
  8
0
  0
ENDSEC
  0
SECTION
  2
ENTITIES
  0
LINE
  5
94
  8
BASIS
  6
DASHDOT
 62
     6
 10
0.0
 20
91.34451
 30
0.0
 11
0.0
 21
-692.46767799999986
 31
0.0
  0
LINE
  5
95
  8
DETAIL
  6
CONTINUOUS
 62
     5
 10
-375.0
 20
0.0
 30
0.0
 11
375.0
 21
0.0
 31
0.0
  0
CIRCLE
  5
97
  8
ARRANGE
  6
CONTINUOUS
 62
     1
 10
0.0
 20
0.0
 30
0.0
 40
40.0
  0
POINT
  5
98
  8
ARRANGE
  6
CONTINUOUS
 62
     1
 10
0.0
 20
0.0
 30
0.0
  0
LINE
  5
99
  8
DETAIL
  6
CONTINUOUS
 62
     5
 10
-375.0
 20
0.0
 30
0.0
 11
-375.0
 21
-591.66026299999987
 31
0.0
  0
LINE
  5
9A
  8
DETAIL
  6
CONTINUOUS
 62
     5
 10
375.0
 20
0.0
 30
0.0
 11
375.0
 21
-591.66026299999987
 31
0.0
  0
LINE
  5
9B
  8
DETAIL
  6
CONTINUOUS
 62
     5
 10
-350.10000000000002
 20
-600.0
 30
0.0
 11
350.10000000000002
 21
-600.0
 31
0.0
  0
LINE
  5
9C
  8
DETAIL
  6
DASHED
 62
     5
 10
-74.0
 20
50.0
 30
0.0
 11
-74.0
 21
10.0
 31
0.0
  0
LINE
  5
9D
  8
DETAIL
  6
DASHED
 62
     5
 10
74.0
 20
50.0
 30
0.0
 11
74.0
 21
10.0
 31
0.0
  0
LINE
  5
9E
  8
DETAIL
  6
DASHED
 62
     5
 10
-74.0
 20
50.0
 30
0.0
 11
74.0
 21
50.0
 31
0.0
  0
LINE
  5
9F
  8
DETAIL
  6
DASHED
 62
     5
 10
-90.0
 20
0.0
 30
0.0
 11
-83.971303999999989
 21
10.0
 31
0.0
  0
LINE
  5
A0
  8
DETAIL
  6
DASHED
 62
     5
 10
-83.971303999999989
 20
10.0
 30
0.0
 11
83.971303999999989
 21
10.0
 31
0.0
  0
LINE
  5
A1
  8
DETAIL
  6
DASHED
 62
     5
 10
90.0
 20
0.0
 30
0.0
 11
83.971303999999989
 21
10.0
 31
0.0
  0
LINE
  5
A2
  8
DETAIL
  6
CONTINUOUS
 62
     5
 10
-350.10000000000002
 20
-600.0
 30
0.0
 11
-350.10000000000002
 21
0.0
 31
0.0
  0
LINE
  5
A3
  8
DETAIL
  6
CONTINUOUS
 62
     5
 10
-358.08358399999997
 20
-600.0
 30
0.0
 11
-350.10000000000002
 21
-600.0
 31
0.0
  0
LINE
  5
A4
  8
DETAIL
  6
CONTINUOUS
 62
     5
 10
-359.15828900000002
 20
-599.80089399999997
 30
0.0
 11
-373.07470499999999
 21
-594.46115700000007
 31
0.0
  0
ARC
  5
A5
  8
DETAIL
  6
CONTINUOUS
 62
     5
 10
-372.0
 20
-591.66026299999987
 30
0.0
 40
3.0
 50
180.0
 51
249.008162
  0
ARC
  5
A6
  8
DETAIL
  6
CONTINUOUS
 62
     5
 10
-358.08358399999997
 20
-597.0
 30
0.0
 40
3.0
 50
249.008162
 51
270.0
  0
ARC
  5
A7
  8
DETAIL
  6
CONTINUOUS
 62
     5
 10
-372.0
 20
-540.52728899999988
 30
0.0
 40
3.0
 50
180.0
 51
195.24579399999999
  0
LINE
  5
A8
  8
DETAIL
  6
CONTINUOUS
 62
     5
 10
350.10000000000002
 20
-600.0
 30
0.0
 11
350.10000000000002
 21
0.0
 31
0.0
  0
LINE
  5
A9
  8
DETAIL
  6
CONTINUOUS
 62
     5
 10
359.15828900000002
 20
-599.80089399999997
 30
0.0
 11
373.07470499999999
 21
-594.46115700000007
 31
0.0
  0
ARC
  5
AA
  8
DETAIL
  6
CONTINUOUS
 62
     5
 10
372.0
 20
-591.66026299999987
 30
0.0
 40
3.0
 50
290.99183799999997
 51
0.0
  0
ARC
  5
AB
  8
DETAIL
  6
CONTINUOUS
 62
     5
 10
358.08358399999997
 20
-597.0
 30
0.0
 40
3.0
 50
270.0
 51
290.99183799999997
  0
LINE
  5
AC
  8
DETAIL
  6
CONTINUOUS
 62
     5
 10
358.08358399999997
 20
-600.0
 30
0.0
 11
350.10000000000002
 21
-600.0
 31
0.0
  0
LINE
  5
AD
  8
SIZE
  6
CONTINUOUS
 62
    30
 10
-250.0
 20
25.0
 30
0.0
 11
-250.0
 21
259.68235299999998
 31
0.0
  0
LINE
  5
AE
  8
SIZE
  6
CONTINUOUS
 62
    30
 10
250.0
 20
25.0
 30
0.0
 11
250.0
 21
259.68235299999998
 31
0.0
  0
LINE
  5
AF
  8
SIZE
  6
CONTINUOUS
 62
    30
 10
-238.0
 20
239.68235300000001
 30
0.0
 11
238.0
 21
239.68235300000001
 31
0.0
  0
CIRCLE
  5
B0
  8
SIZE
  6
CONTINUOUS
 62
    30
 10
-250.0
 20
239.68235300000001
 30
0.0
 40
6.0
  0
LINE
  5
B1
  8
SIZE
  6
CONTINUOUS
 62
    30
 10
-250.0
 20
239.68235300000001
 30
0.0
 11
-238.0
 21
239.68235300000001
 31
0.0
  0
CIRCLE
  5
B2
  8
SIZE
  6
CONTINUOUS
 62
    30
 10
250.0
 20
239.68235300000001
 30
0.0
 40
6.0
  0
LINE
  5
B3
  8
SIZE
  6
CONTINUOUS
 62
    30
 10
250.0
 20
239.68235300000001
 30
0.0
 11
238.0
 21
239.68235300000001
 31
0.0
  0
TEXT
  5
B4
  8
SIZE
  6
CONTINUOUS
 62
    30
 10
-74.05714285714285
 20
264.68235299999998
 30
0.0
 40
64.0
  1
500
 41
0.9
 72
     1
 11
0.0
 21
264.68235299999998
 31
0.0
  0
POINT
  5
B5
  8
DEFPOINTS
  6
CONTINUOUS
 62
    30
 10
-250.0
 20
5.0
 30
0.0
  0
POINT
  5
B6
  8
DEFPOINTS
  6
CONTINUOUS
 62
    30
 10
250.0
 20
5.0
 30
0.0
  0
POINT
  5
B7
  8
DEFPOINTS
  6
CONTINUOUS
 62
    30
 10
250.0
 20
239.68235300000001
 30
0.0
  0
LINE
  5
B8
  8
SIZE
  6
CONTINUOUS
 62
    30
 10
-395.0
 20
0.0
 30
0.0
 11
-620.74976700000002
 21
0.0
 31
0.0
  0
LINE
  5
B9
  8
SIZE
  6
CONTINUOUS
 62
    30
 10
-370.10000000000002
 20
-600.0
 30
0.0
 11
-620.74976700000002
 21
-600.0
 31
0.0
  0
LINE
  5
BA
  8
SIZE
  6
CONTINUOUS
 62
    30
 10
-600.74976700000002
 20
-12.0
 30
0.0
 11
-600.74976700000002
 21
-588.0
 31
0.0
  0
CIRCLE
  5
BB
  8
SIZE
  6
CONTINUOUS
 62
    30
 10
-600.74976700000002
 20
0.0
 30
0.0
 40
6.0
  0
LINE
  5
BC
  8
SIZE
  6
CONTINUOUS
 62
    30
 10
-600.74976700000002
 20
0.0
 30
0.0
 11
-600.74976700000002
 21
-12.0
 31
0.0
  0
CIRCLE
  5
BD
  8
SIZE
  6
CONTINUOUS
 62
    30
 10
-600.74976700000002
 20
-600.0
 30
0.0
 40
6.0
  0
LINE
  5
BE
  8
SIZE
  6
CONTINUOUS
 62
    30
 10
-600.74976700000002
 20
-600.0
 30
0.0
 11
-600.74976700000002
 21
-588.0
 31
0.0
  0
TEXT
  5
BF
  8
SIZE
  6
CONTINUOUS
 62
    30
 10
-625.74976700000002
 20
-374.05714285714282
 30
0.0
 40
64.0
  1
600
 50
90.0
 41
0.9
 72
     1
 11
-625.74976700000002
 21
-300.0
 31
0.0
  0
POINT
  5
C0
  8
DEFPOINTS
  6
CONTINUOUS
 62
    30
 10
-375.0
 20
0.0
 30
0.0
  0
POINT
  5
C1
  8
DEFPOINTS
  6
CONTINUOUS
 62
    30
 10
-350.10000000000002
 20
-600.0
 30
0.0
  0
POINT
  5
C2
  8
DEFPOINTS
  6
CONTINUOUS
 62
    30
 10
-600.74976700000002
 20
-600.0
 30
0.0
  0
LINE
  5
C3
  8
NOTE
  6
CONTINUOUS
 62
     4
 10
-255.0
 20
-20.0
 30
0.0
 11
-255.0
 21
20.0
 31
0.0
  0
LINE
  5
C4
  8
NOTE
  6
CONTINUOUS
 62
     4
 10
-275.0
 20
0.0
 30
0.0
 11
-235.0
 21
0.0
 31
0.0
  0
LINE
  5
C5
  8
NOTE
  6
CONTINUOUS
 62
     4
 10
255.0
 20
-20.0
 30
0.0
 11
255.0
 21
20.0
 31
0.0
  0
LINE
  5
C6
  8
NOTE
  6
CONTINUOUS
 62
     4
 10
275.0
 20
0.0
 30
0.0
 11
235.0
 21
0.0
 31
0.0
  0
LINE
  5
C7
  8
SIZE
  6
CONTINUOUS
 62
    30
 10
255.0
 20
40.0
 30
0.0
 11
255.0
 21
370.0
 31
0.0
  0
LINE
  5
C8
  8
SIZE
  6
CONTINUOUS
 62
    30
 10
-255.0
 20
40.0
 30
0.0
 11
-255.0
 21
370.0
 31
0.0
  0
LINE
  5
C9
  8
SIZE
  6
CONTINUOUS
 62
    30
 10
243.0
 20
350.0
 30
0.0
 11
-243.0
 21
350.0
 31
0.0
  0
CIRCLE
  5
CA
  8
SIZE
  6
CONTINUOUS
 62
    30
 10
255.0
 20
350.0
 30
0.0
 40
6.0
  0
LINE
  5
CB
  8
SIZE
  6
CONTINUOUS
 62
    30
 10
255.0
 20
350.0
 30
0.0
 11
243.0
 21
350.0
 31
0.0
  0
CIRCLE
  5
CC
  8
SIZE
  6
CONTINUOUS
 62
    30
 10
-255.0
 20
350.0
 30
0.0
 40
6.0
  0
LINE
  5
CD
  8
SIZE
  6
CONTINUOUS
 62
    30
 10
-255.0
 20
350.0
 30
0.0
 11
-243.0
 21
350.0
 31
0.0
  0
TEXT
  5
CE
  8
SIZE
  6
CONTINUOUS
 62
    30
 10
-68.571428571428555
 20
375.0
 30
0.0
 40
64.0
  1
510
 41
0.9
 72
     1
 11
0.0
 21
375.0
 31
0.0
  0
POINT
  5
CF
  8
DEFPOINTS
  6
CONTINUOUS
 62
    30
 10
255.0
 20
20.0
 30
0.0
  0
POINT
  5
D0
  8
DEFPOINTS
  6
CONTINUOUS
 62
    30
 10
-255.0
 20
20.0
 30
0.0
  0
POINT
  5
D1
  8
DEFPOINTS
  6
CONTINUOUS
 62
    30
 10
-255.0
 20
350.0
 30
0.0
  0
TEXT
  5
D2
  8
NOTE
  6
CONTINUOUS
 62
     4
 10
421.5094059999999
 20
272.87624099999999
 30
0.0
 40
64.0
  1
4-φ6
 41
0.9
  0
LINE
  5
D3
  8
NOTE
  6
CONTINUOUS
 62
     4
 10
677.39016700000002
 20
239.06430399999999
 30
0.0
 11
403.06500899999992
 21
239.06430399999999
 31
0.0
  0
CIRCLE
  5
D4
  8
FIX
  6
CONTINUOUS
 62
    11
 39
50.0
 10
-255.0
 20
0.0
 30
0.0
 40
3.0
  0
CIRCLE
  5
D5
  8
FIX
  6
CONTINUOUS
 62
    11
 39
50.0
 10
250.0
 20
0.0
 30
0.0
 40
6.5
  0
LINE
  5
D6
  8
NOTE
  6
CONTINUOUS
 62
     4
 10
250.0
 20
-20.0
 30
0.0
 11
250.0
 21
20.0
 31
0.0
  0
LINE
  5
D7
  8
NOTE
  6
CONTINUOUS
 62
     4
 10
270.0
 20
0.0
 30
0.0
 11
230.0
 21
0.0
 31
0.0
  0
CIRCLE
  5
D8
  8
FIX
  6
CONTINUOUS
 62
    11
 39
50.0
 10
255.0
 20
0.0
 30
0.0
 40
3.0
  0
CIRCLE
  5
D9
  8
FIX
  6
CONTINUOUS
 62
    11
 39
50.0
 10
-250.0
 20
0.0
 30
0.0
 40
6.5
  0
LINE
  5
DA
  8
NOTE
  6
CONTINUOUS
 62
     4
 10
-250.0
 20
-20.0
 30
0.0
 11
-250.0
 21
20.0
 31
0.0
  0
LINE
  5
DB
  8
NOTE
  6
CONTINUOUS
 62
     4
 10
-270.0
 20
0.0
 30
0.0
 11
-230.0
 21
0.0
 31
0.0
  0
LINE
  5
DC
  8
DETAIL
  6
CONTINUOUS
 62
     5
 10
-264.0
 20
6.0
 30
0.0
 11
-264.0
 21
0.0
 31
0.0
  0
LINE
  5
DD
  8
DETAIL
  6
CONTINUOUS
 62
     5
 10
-236.0
 20
6.0
 30
0.0
 11
-236.0
 21
0.0
 31
0.0
  0
LINE
  5
DE
  8
DETAIL
  6
CONTINUOUS
 62
     5
 10
-264.0
 20
6.0
 30
0.0
 11
-262.5
 21
6.0
 31
0.0
  0
LINE
  5
DF
  8
DETAIL
  6
CONTINUOUS
 62
     5
 10
-237.5
 20
6.0
 30
0.0
 11
-237.5
 21
1.5
 31
0.0
  0
LINE
  5
E0
  8
DETAIL
  6
CONTINUOUS
 62
     5
 10
-262.5
 20
6.0
 30
0.0
 11
-262.5
 21
1.5
 31
0.0
  0
LINE
  5
E1
  8
DETAIL
  6
CONTINUOUS
 62
     5
 10
-237.5
 20
6.0
 30
0.0
 11
-236.0
 21
6.0
 31
0.0
  0
LINE
  5
E2
  8
DETAIL
  6
CONTINUOUS
 62
     5
 10
-262.5
 20
1.5
 30
0.0
 11
-237.5
 21
1.5
 31
0.0
  0
LINE
  5
E3
  8
DETAIL
  6
CONTINUOUS
 62
     5
 10
236.0
 20
6.0
 30
0.0
 11
236.0
 21
0.0
 31
0.0
  0
LINE
  5
E4
  8
DETAIL
  6
CONTINUOUS
 62
     5
 10
264.0
 20
6.0
 30
0.0
 11
264.0
 21
0.0
 31
0.0
  0
LINE
  5
E5
  8
DETAIL
  6
CONTINUOUS
 62
     5
 10
262.5
 20
1.5
 30
0.0
 11
237.5
 21
1.5
 31
0.0
  0
LINE
  5
E6
  8
DETAIL
  6
CONTINUOUS
 62
     5
 10
262.5
 20
6.0
 30
0.0
 11
262.5
 21
1.5
 31
0.0
  0
LINE
  5
E7
  8
DETAIL
  6
CONTINUOUS
 62
     5
 10
264.0
 20
6.0
 30
0.0
 11
262.5
 21
6.0
 31
0.0
  0
LINE
  5
E8
  8
DETAIL
  6
CONTINUOUS
 62
     5
 10
237.5
 20
6.0
 30
0.0
 11
237.5
 21
1.5
 31
0.0
  0
LINE
  5
E9
  8
DETAIL
  6
CONTINUOUS
 62
     5
 10
237.5
 20
6.0
 30
0.0
 11
236.0
 21
6.0
 31
0.0
  0
LINE
  5
EA
  8
NOTE
  6
CONTINUOUS
 62
     4
 39
50.0
 10
255.0
 20
0.0
 30
0.0
 11
403.06500899999992
 21
239.06430399999999
 31
0.0
  0
LINE
  5
EB
  8
NOTE
  6
CONTINUOUS
 62
     4
 10
267.04562800000002
 20
38.143189
 30
0.0
 11
255.0
 21
0.0
 31
0.0
  0
LINE
  5
EC
  8
NOTE
  6
CONTINUOUS
 62
     4
 10
255.0
 20
0.0
 30
0.0
 11
284.50341500000002
 21
27.010155999999998
 31
0.0
  0
LINE
  5
ED
  8
OUTLINE
  6
CONTINUOUS
 62
     3
 10
-375.0
 20
0.0
 30
0.0
 11
375.0
 21
0.0
 31
0.0
  0
LINE
  5
EE
  8
OUTLINE
  6
CONTINUOUS
 62
     3
 10
-375.0
 20
0.0
 30
0.0
 11
-375.0
 21
-591.66026299999987
 31
0.0
  0
LINE
  5
EF
  8
OUTLINE
  6
CONTINUOUS
 62
     3
 10
-359.15828900000002
 20
-599.80089399999997
 30
0.0
 11
-373.07470499999999
 21
-594.46115700000007
 31
0.0
  0
ARC
  5
F0
  8
OUTLINE
  6
CONTINUOUS
 62
     3
 10
-372.0
 20
-591.66026299999987
 30
0.0
 40
3.0
 50
180.0
 51
249.008162
  0
ARC
  5
F1
  8
OUTLINE
  6
CONTINUOUS
 62
     3
 10
-358.08358399999997
 20
-597.0
 30
0.0
 40
3.0
 50
249.008162
 51
270.0
  0
LINE
  5
F2
  8
OUTLINE
  6
CONTINUOUS
 62
     3
 10
-358.08358399999997
 20
-600.0
 30
0.0
 11
-350.10000000000002
 21
-600.0
 31
0.0
  0
LINE
  5
F3
  8
OUTLINE
  6
CONTINUOUS
 62
     3
 10
359.15828900000002
 20
-599.80089399999997
 30
0.0
 11
373.07470499999999
 21
-594.46115700000007
 31
0.0
  0
LINE
  5
F4
  8
OUTLINE
  6
CONTINUOUS
 62
     3
 10
358.08358399999997
 20
-600.0
 30
0.0
 11
350.10000000000002
 21
-600.0
 31
0.0
  0
ARC
  5
F5
  8
OUTLINE
  6
CONTINUOUS
 62
     3
 10
358.08358399999997
 20
-597.0
 30
0.0
 40
3.0
 50
270.0
 51
290.99183799999997
  0
ARC
  5
F6
  8
OUTLINE
  6
CONTINUOUS
 62
     3
 10
372.0
 20
-591.66026299999987
 30
0.0
 40
3.0
 50
290.99183799999997
 51
0.0
  0
LINE
  5
F7
  8
OUTLINE
  6
CONTINUOUS
 62
     3
 10
-350.10000000000002
 20
-600.0
 30
0.0
 11
358.08358399999997
 21
-600.0
 31
0.0
  0
LINE
  5
F8
  8
OUTLINE
  6
CONTINUOUS
 62
     3
 10
375.0
 20
0.0
 30
0.0
 11
375.0
 21
-591.66026299999987
 31
0.0
  0
ARC
  5
F9
  8
OUTLINE
  6
CONTINUOUS
 62
     3
 10
-372.0
 20
-540.52728899999988
 30
0.0
 40
3.0
 50
180.0
 51
195.24579399999999
  0
LINE
  5
FA
  8
DETAIL
  6
CONTINUOUS
 62
     5
 10
-375.0
 20
-148.0
 30
0.0
 11
350.10000000000002
 21
-148.0
 31
0.0
  0
LINE
  5
FB
  8
DETAIL
  6
CONTINUOUS
 62
     5
 10
350.10000000000002
 20
-356.0
 30
0.0
 11
-350.10000000000002
 21
-356.0
 31
0.0
  0
LINE
  5
FC
  8
DETAIL
  6
CONTINUOUS
 62
     5
 10
350.10000000000002
 20
-452.0
 30
0.0
 11
-375.0
 21
-452.0
 31
0.0
  0
LINE
  5
FD
  8
DETAIL
  6
CONTINUOUS
 62
     5
 10
350.10000000000002
 20
-472.0
 30
0.0
 11
-350.10000000000002
 21
-472.0
 31
0.0
  0
LINE
  5
FE
  8
DETAIL
  6
CONTINUOUS
 62
     5
 10
-100.5
 20
-486.0
 30
0.0
 11
32.5
 21
-486.0
 31
0.0
  0
LINE
  5
FF
  8
DETAIL
  6
CONTINUOUS
 62
     5
 10
-100.5
 20
-586.0
 30
0.0
 11
32.5
 21
-586.0
 31
0.0
  0
LINE
  5
100
  8
DETAIL
  6
CONTINUOUS
 62
     5
 39
50.0
 10
42.5
 20
-496.0
 30
0.0
 11
42.5
 21
-576.0
 31
0.0
  0
LINE
  5
101
  8
DETAIL
  6
CONTINUOUS
 62
     5
 39
50.0
 10
-110.5
 20
-496.0
 30
0.0
 11
-110.5
 21
-576.0
 31
0.0
  0
ARC
  5
102
  8
DETAIL
  6
CONTINUOUS
 62
     5
 39
50.0
 10
-100.5
 20
-496.0
 30
0.0
 40
10.0
 50
90.0
 51
180.0
  0
ARC
  5
103
  8
DETAIL
  6
CONTINUOUS
 62
     5
 10
-100.5
 20
-576.0
 30
0.0
 40
10.0
 50
180.0
 51
270.0
  0
ARC
  5
104
  8
DETAIL
  6
CONTINUOUS
 62
     5
 39
50.0
 10
32.5
 20
-576.0
 30
0.0
 40
10.0
 50
270.0
 51
0.0
  0
ARC
  5
105
  8
DETAIL
  6
CONTINUOUS
 62
     5
 39
50.0
 10
32.5
 20
-496.0
 30
0.0
 40
10.0
 50
0.0
 51
90.0
  0
ARC
  5
106
  8
DETAIL
  6
CONTINUOUS
 62
     5
 39
50.0
 10
-191.52771200000001
 20
-362.34314599999999
 30
0.0
 40
6.0
 50
0.0
 51
180.0
  0
ARC
  5
107
  8
DETAIL
  6
CONTINUOUS
 62
     5
 39
50.0
 10
-191.52771200000001
 20
-380.34314599999999
 30
0.0
 40
6.0
 50
180.0
 51
0.0
  0
LINE
  5
108
  8
DETAIL
  6
CONTINUOUS
 62
     5
 39
50.0
 10
-197.52771200000001
 20
-362.34314599999999
 30
0.0
 11
-197.52771200000001
 21
-380.34314599999999
 31
0.0
  0
LINE
  5
109
  8
DETAIL
  6
CONTINUOUS
 62
     5
 39
50.0
 10
-185.52771200000001
 20
-362.34314599999999
 30
0.0
 11
-185.52771200000001
 21
-380.34314599999999
 31
0.0
  0
LINE
  5
10A
  8
DETAIL
  6
CONTINUOUS
 62
     5
 10
-200.0
 20
-356.0
 30
0.0
 11
-200.0
 21
-452.0
 31
0.0
  0
LINE
  5
10B
  8
DETAIL
  6
CONTINUOUS
 62
     5
 10
200.0
 20
-356.0
 30
0.0
 11
200.0
 21
-452.0
 31
0.0
  0
LINE
  5
10C
  8
DETAIL
  6
CONTINUOUS
 62
     5
 39
50.0
 10
-185.52771200000001
 20
-395.34314599999999
 30
0.0
 11
-185.52771200000001
 21
-413.34314599999988
 31
0.0
  0
LINE
  5
10D
  8
DETAIL
  6
CONTINUOUS
 62
     5
 39
50.0
 10
-197.52771200000001
 20
-395.34314599999999
 30
0.0
 11
-197.52771200000001
 21
-413.34314599999988
 31
0.0
  0
ARC
  5
10E
  8
DETAIL
  6
CONTINUOUS
 62
     5
 39
50.0
 10
-191.52771200000001
 20
-413.34314599999988
 30
0.0
 40
6.0
 50
180.0
 51
0.0
  0
ARC
  5
10F
  8
DETAIL
  6
CONTINUOUS
 62
     5
 39
50.0
 10
-191.52771200000001
 20
-395.34314599999999
 30
0.0
 40
6.0
 50
0.0
 51
180.0
  0
ARC
  5
110
  8
DETAIL
  6
CONTINUOUS
 62
     5
 39
50.0
 10
-191.52771200000001
 20
-428.34314599999999
 30
0.0
 40
6.0
 50
0.0
 51
180.0
  0
ARC
  5
111
  8
DETAIL
  6
CONTINUOUS
 62
     5
 39
50.0
 10
-191.52771200000001
 20
-446.34314599999988
 30
0.0
 40
6.0
 50
180.0
 51
0.0
  0
LINE
  5
112
  8
DETAIL
  6
CONTINUOUS
 62
     5
 39
50.0
 10
-197.52771200000001
 20
-428.34314599999999
 30
0.0
 11
-197.52771200000001
 21
-446.34314599999988
 31
0.0
  0
LINE
  5
113
  8
DETAIL
  6
CONTINUOUS
 62
     5
 39
50.0
 10
-185.52771200000001
 20
-428.34314599999999
 30
0.0
 11
-185.52771200000001
 21
-446.34314599999988
 31
0.0
  0
LINE
  5
114
  8
DETAIL
  6
CONTINUOUS
 62
     5
 39
50.0
 10
-161.52771200000001
 20
-428.34314599999999
 30
0.0
 11
-161.52771200000001
 21
-446.34314599999988
 31
0.0
  0
LINE
  5
115
  8
DETAIL
  6
CONTINUOUS
 62
     5
 39
50.0
 10
-173.52771200000001
 20
-428.34314599999999
 30
0.0
 11
-173.52771200000001
 21
-446.34314599999988
 31
0.0
  0
ARC
  5
116
  8
DETAIL
  6
CONTINUOUS
 62
     5
 39
50.0
 10
-167.52771200000001
 20
-446.34314599999988
 30
0.0
 40
6.0
 50
180.0
 51
0.0
  0
ARC
  5
117
  8
DETAIL
  6
CONTINUOUS
 62
     5
 39
50.0
 10
-167.52771200000001
 20
-428.34314599999999
 30
0.0
 40
6.0
 50
0.0
 51
180.0
  0
ARC
  5
118
  8
DETAIL
  6
CONTINUOUS
 62
     5
 39
50.0
 10
-167.52771200000001
 20
-395.34314599999999
 30
0.0
 40
6.0
 50
0.0
 51
180.0
  0
ARC
  5
119
  8
DETAIL
  6
CONTINUOUS
 62
     5
 39
50.0
 10
-167.52771200000001
 20
-413.34314599999988
 30
0.0
 40
6.0
 50
180.0
 51
0.0
  0
LINE
  5
11A
  8
DETAIL
  6
CONTINUOUS
 62
     5
 39
50.0
 10
-173.52771200000001
 20
-395.34314599999999
 30
0.0
 11
-173.52771200000001
 21
-413.34314599999988
 31
0.0
  0
LINE
  5
11B
  8
DETAIL
  6
CONTINUOUS
 62
     5
 39
50.0
 10
-161.52771200000001
 20
-395.34314599999999
 30
0.0
 11
-161.52771200000001
 21
-413.34314599999988
 31
0.0
  0
LINE
  5
11C
  8
DETAIL
  6
CONTINUOUS
 62
     5
 39
50.0
 10
-161.52771200000001
 20
-362.34314599999999
 30
0.0
 11
-161.52771200000001
 21
-380.34314599999999
 31
0.0
  0
LINE
  5
11D
  8
DETAIL
  6
CONTINUOUS
 62
     5
 39
50.0
 10
-173.52771200000001
 20
-362.34314599999999
 30
0.0
 11
-173.52771200000001
 21
-380.34314599999999
 31
0.0
  0
ARC
  5
11E
  8
DETAIL
  6
CONTINUOUS
 62
     5
 39
50.0
 10
-167.52771200000001
 20
-380.34314599999999
 30
0.0
 40
6.0
 50
180.0
 51
0.0
  0
ARC
  5
11F
  8
DETAIL
  6
CONTINUOUS
 62
     5
 39
50.0
 10
-167.52771200000001
 20
-362.34314599999999
 30
0.0
 40
6.0
 50
0.0
 51
180.0
  0
ARC
  5
120
  8
DETAIL
  6
CONTINUOUS
 62
     5
 39
50.0
 10
-143.52771200000001
 20
-362.34314599999999
 30
0.0
 40
6.0
 50
0.0
 51
180.0
  0
ARC
  5
121
  8
DETAIL
  6
CONTINUOUS
 62
     5
 39
50.0
 10
-143.52771200000001
 20
-380.34314599999999
 30
0.0
 40
6.0
 50
180.0
 51
0.0
  0
LINE
  5
122
  8
DETAIL
  6
CONTINUOUS
 62
     5
 39
50.0
 10
-149.52771200000001
 20
-362.34314599999999
 30
0.0
 11
-149.52771200000001
 21
-380.34314599999999
 31
0.0
  0
LINE
  5
123
  8
DETAIL
  6
CONTINUOUS
 62
     5
 39
50.0
 10
-137.52771200000001
 20
-362.34314599999999
 30
0.0
 11
-137.52771200000001
 21
-380.34314599999999
 31
0.0
  0
LINE
  5
124
  8
DETAIL
  6
CONTINUOUS
 62
     5
 39
50.0
 10
-137.52771200000001
 20
-395.34314599999999
 30
0.0
 11
-137.52771200000001
 21
-413.34314599999988
 31
0.0
  0
LINE
  5
125
  8
DETAIL
  6
CONTINUOUS
 62
     5
 39
50.0
 10
-149.52771200000001
 20
-395.34314599999999
 30
0.0
 11
-149.52771200000001
 21
-413.34314599999988
 31
0.0
  0
ARC
  5
126
  8
DETAIL
  6
CONTINUOUS
 62
     5
 39
50.0
 10
-143.52771200000001
 20
-413.34314599999988
 30
0.0
 40
6.0
 50
180.0
 51
0.0
  0
ARC
  5
127
  8
DETAIL
  6
CONTINUOUS
 62
     5
 39
50.0
 10
-143.52771200000001
 20
-395.34314599999999
 30
0.0
 40
6.0
 50
0.0
 51
180.0
  0
ARC
  5
128
  8
DETAIL
  6
CONTINUOUS
 62
     5
 39
50.0
 10
-143.52771200000001
 20
-428.34314599999999
 30
0.0
 40
6.0
 50
0.0
 51
180.0
  0
ARC
  5
129
  8
DETAIL
  6
CONTINUOUS
 62
     5
 39
50.0
 10
-143.52771200000001
 20
-446.34314599999988
 30
0.0
 40
6.0
 50
180.0
 51
0.0
  0
LINE
  5
12A
  8
DETAIL
  6
CONTINUOUS
 62
     5
 39
50.0
 10
-149.52771200000001
 20
-428.34314599999999
 30
0.0
 11
-149.52771200000001
 21
-446.34314599999988
 31
0.0
  0
LINE
  5
12B
  8
DETAIL
  6
CONTINUOUS
 62
     5
 39
50.0
 10
-137.52771200000001
 20
-428.34314599999999
 30
0.0
 11
-137.52771200000001
 21
-446.34314599999988
 31
0.0
  0
LINE
  5
12C
  8
DETAIL
  6
CONTINUOUS
 62
     5
 39
50.0
 10
-65.527711999999994
 20
-428.34314599999999
 30
0.0
 11
-65.527711999999994
 21
-446.34314599999988
 31
0.0
  0
LINE
  5
12D
  8
DETAIL
  6
CONTINUOUS
 62
     5
 39
50.0
 10
-77.527711999999994
 20
-428.34314599999999
 30
0.0
 11
-77.527711999999994
 21
-446.34314599999988
 31
0.0
  0
ARC
  5
12E
  8
DETAIL
  6
CONTINUOUS
 62
     5
 39
50.0
 10
-71.527711999999994
 20
-446.34314599999988
 30
0.0
 40
6.0
 50
180.0
 51
0.0
  0
ARC
  5
12F
  8
DETAIL
  6
CONTINUOUS
 62
     5
 39
50.0
 10
-71.527711999999994
 20
-428.34314599999999
 30
0.0
 40
6.0
 50
0.0
 51
180.0
  0
ARC
  5
130
  8
DETAIL
  6
CONTINUOUS
 62
     5
 39
50.0
 10
-71.527711999999994
 20
-395.34314599999999
 30
0.0
 40
6.0
 50
0.0
 51
180.0
  0
ARC
  5
131
  8
DETAIL
  6
CONTINUOUS
 62
     5
 39
50.0
 10
-71.527711999999994
 20
-413.34314599999988
 30
0.0
 40
6.0
 50
180.0
 51
0.0
  0
LINE
  5
132
  8
DETAIL
  6
CONTINUOUS
 62
     5
 39
50.0
 10
-77.527711999999994
 20
-395.34314599999999
 30
0.0
 11
-77.527711999999994
 21
-413.34314599999988
 31
0.0
  0
LINE
  5
133
  8
DETAIL
  6
CONTINUOUS
 62
     5
 39
50.0
 10
-65.527711999999994
 20
-395.34314599999999
 30
0.0
 11
-65.527711999999994
 21
-413.34314599999988
 31
0.0
  0
LINE
  5
134
  8
DETAIL
  6
CONTINUOUS
 62
     5
 39
50.0
 10
-65.527711999999994
 20
-362.34314599999999
 30
0.0
 11
-65.527711999999994
 21
-380.34314599999999
 31
0.0
  0
LINE
  5
135
  8
DETAIL
  6
CONTINUOUS
 62
     5
 39
50.0
 10
-77.527711999999994
 20
-362.34314599999999
 30
0.0
 11
-77.527711999999994
 21
-380.34314599999999
 31
0.0
  0
ARC
  5
136
  8
DETAIL
  6
CONTINUOUS
 62
     5
 39
50.0
 10
-71.527711999999994
 20
-380.34314599999999
 30
0.0
 40
6.0
 50
180.0
 51
0.0
  0
ARC
  5
137
  8
DETAIL
  6
CONTINUOUS
 62
     5
 39
50.0
 10
-71.527711999999994
 20
-362.34314599999999
 30
0.0
 40
6.0
 50
0.0
 51
180.0
  0
ARC
  5
138
  8
DETAIL
  6
CONTINUOUS
 62
     5
 39
50.0
 10
-95.527711999999994
 20
-362.34314599999999
 30
0.0
 40
6.0
 50
0.0
 51
180.0
  0
ARC
  5
139
  8
DETAIL
  6
CONTINUOUS
 62
     5
 39
50.0
 10
-95.527711999999994
 20
-380.34314599999999
 30
0.0
 40
6.0
 50
180.0
 51
0.0
  0
LINE
  5
13A
  8
DETAIL
  6
CONTINUOUS
 62
     5
 39
50.0
 10
-101.52771199999999
 20
-362.34314599999999
 30
0.0
 11
-101.52771199999999
 21
-380.34314599999999
 31
0.0
  0
LINE
  5
13B
  8
DETAIL
  6
CONTINUOUS
 62
     5
 39
50.0
 10
-89.527711999999994
 20
-362.34314599999999
 30
0.0
 11
-89.527711999999994
 21
-380.34314599999999
 31
0.0
  0
LINE
  5
13C
  8
DETAIL
  6
CONTINUOUS
 62
     5
 39
50.0
 10
-89.527711999999994
 20
-395.34314599999999
 30
0.0
 11
-89.527711999999994
 21
-413.34314599999988
 31
0.0
  0
LINE
  5
13D
  8
DETAIL
  6
CONTINUOUS
 62
     5
 39
50.0
 10
-101.52771199999999
 20
-395.34314599999999
 30
0.0
 11
-101.52771199999999
 21
-413.34314599999988
 31
0.0
  0
ARC
  5
13E
  8
DETAIL
  6
CONTINUOUS
 62
     5
 39
50.0
 10
-95.527711999999994
 20
-413.34314599999988
 30
0.0
 40
6.0
 50
180.0
 51
0.0
  0
ARC
  5
13F
  8
DETAIL
  6
CONTINUOUS
 62
     5
 39
50.0
 10
-95.527711999999994
 20
-395.34314599999999
 30
0.0
 40
6.0
 50
0.0
 51
180.0
  0
ARC
  5
140
  8
DETAIL
  6
CONTINUOUS
 62
     5
 39
50.0
 10
-95.527711999999994
 20
-428.34314599999999
 30
0.0
 40
6.0
 50
0.0
 51
180.0
  0
ARC
  5
141
  8
DETAIL
  6
CONTINUOUS
 62
     5
 39
50.0
 10
-95.527711999999994
 20
-446.34314599999988
 30
0.0
 40
6.0
 50
180.0
 51
0.0
  0
LINE
  5
142
  8
DETAIL
  6
CONTINUOUS
 62
     5
 39
50.0
 10
-101.52771199999999
 20
-428.34314599999999
 30
0.0
 11
-101.52771199999999
 21
-446.34314599999988
 31
0.0
  0
LINE
  5
143
  8
DETAIL
  6
CONTINUOUS
 62
     5
 39
50.0
 10
-89.527711999999994
 20
-428.34314599999999
 30
0.0
 11
-89.527711999999994
 21
-446.34314599999988
 31
0.0
  0
LINE
  5
144
  8
DETAIL
  6
CONTINUOUS
 62
     5
 39
50.0
 10
-113.52771199999999
 20
-428.34314599999999
 30
0.0
 11
-113.52771199999999
 21
-446.34314599999988
 31
0.0
  0
LINE
  5
145
  8
DETAIL
  6
CONTINUOUS
 62
     5
 39
50.0
 10
-125.52771199999999
 20
-428.34314599999999
 30
0.0
 11
-125.52771199999999
 21
-446.34314599999988
 31
0.0
  0
ARC
  5
146
  8
DETAIL
  6
CONTINUOUS
 62
     5
 39
50.0
 10
-119.52771199999999
 20
-446.34314599999988
 30
0.0
 40
6.0
 50
180.0
 51
0.0
  0
ARC
  5
147
  8
DETAIL
  6
CONTINUOUS
 62
     5
 39
50.0
 10
-119.52771199999999
 20
-428.34314599999999
 30
0.0
 40
6.0
 50
0.0
 51
180.0
  0
ARC
  5
148
  8
DETAIL
  6
CONTINUOUS
 62
     5
 39
50.0
 10
-119.52771199999999
 20
-395.34314599999999
 30
0.0
 40
6.0
 50
0.0
 51
180.0
  0
ARC
  5
149
  8
DETAIL
  6
CONTINUOUS
 62
     5
 39
50.0
 10
-119.52771199999999
 20
-413.34314599999988
 30
0.0
 40
6.0
 50
180.0
 51
0.0
  0
LINE
  5
14A
  8
DETAIL
  6
CONTINUOUS
 62
     5
 39
50.0
 10
-125.52771199999999
 20
-395.34314599999999
 30
0.0
 11
-125.52771199999999
 21
-413.34314599999988
 31
0.0
  0
LINE
  5
14B
  8
DETAIL
  6
CONTINUOUS
 62
     5
 39
50.0
 10
-113.52771199999999
 20
-395.34314599999999
 30
0.0
 11
-113.52771199999999
 21
-413.34314599999988
 31
0.0
  0
LINE
  5
14C
  8
DETAIL
  6
CONTINUOUS
 62
     5
 39
50.0
 10
-113.52771199999999
 20
-362.34314599999999
 30
0.0
 11
-113.52771199999999
 21
-380.34314599999999
 31
0.0
  0
LINE
  5
14D
  8
DETAIL
  6
CONTINUOUS
 62
     5
 39
50.0
 10
-125.52771199999999
 20
-362.34314599999999
 30
0.0
 11
-125.52771199999999
 21
-380.34314599999999
 31
0.0
  0
ARC
  5
14E
  8
DETAIL
  6
CONTINUOUS
 62
     5
 39
50.0
 10
-119.52771199999999
 20
-380.34314599999999
 30
0.0
 40
6.0
 50
180.0
 51
0.0
  0
ARC
  5
14F
  8
DETAIL
  6
CONTINUOUS
 62
     5
 39
50.0
 10
-119.52771199999999
 20
-362.34314599999999
 30
0.0
 40
6.0
 50
0.0
 51
180.0
  0
ARC
  5
150
  8
DETAIL
  6
CONTINUOUS
 62
     5
 39
50.0
 10
-47.527712000000001
 20
-362.34314599999999
 30
0.0
 40
6.0
 50
0.0
 51
180.0
  0
ARC
  5
151
  8
DETAIL
  6
CONTINUOUS
 62
     5
 39
50.0
 10
-47.527712000000001
 20
-380.34314599999999
 30
0.0
 40
6.0
 50
180.0
 51
0.0
  0
LINE
  5
152
  8
DETAIL
  6
CONTINUOUS
 62
     5
 39
50.0
 10
-53.527712000000001
 20
-362.34314599999999
 30
0.0
 11
-53.527712000000001
 21
-380.34314599999999
 31
0.0
  0
LINE
  5
153
  8
DETAIL
  6
CONTINUOUS
 62
     5
 39
50.0
 10
-41.527712000000001
 20
-362.34314599999999
 30
0.0
 11
-41.527712000000001
 21
-380.34314599999999
 31
0.0
  0
LINE
  5
154
  8
DETAIL
  6
CONTINUOUS
 62
     5
 39
50.0
 10
-41.527712000000001
 20
-395.34314599999999
 30
0.0
 11
-41.527712000000001
 21
-413.34314599999988
 31
0.0
  0
LINE
  5
155
  8
DETAIL
  6
CONTINUOUS
 62
     5
 39
50.0
 10
-53.527712000000001
 20
-395.34314599999999
 30
0.0
 11
-53.527712000000001
 21
-413.34314599999988
 31
0.0
  0
ARC
  5
156
  8
DETAIL
  6
CONTINUOUS
 62
     5
 39
50.0
 10
-47.527712000000001
 20
-413.34314599999988
 30
0.0
 40
6.0
 50
180.0
 51
0.0
  0
ARC
  5
157
  8
DETAIL
  6
CONTINUOUS
 62
     5
 39
50.0
 10
-47.527712000000001
 20
-395.34314599999999
 30
0.0
 40
6.0
 50
0.0
 51
180.0
  0
ARC
  5
158
  8
DETAIL
  6
CONTINUOUS
 62
     5
 39
50.0
 10
-47.527712000000001
 20
-428.34314599999999
 30
0.0
 40
6.0
 50
0.0
 51
180.0
  0
ARC
  5
159
  8
DETAIL
  6
CONTINUOUS
 62
     5
 39
50.0
 10
-47.527712000000001
 20
-446.34314599999988
 30
0.0
 40
6.0
 50
180.0
 51
0.0
  0
LINE
  5
15A
  8
DETAIL
  6
CONTINUOUS
 62
     5
 39
50.0
 10
-53.527712000000001
 20
-428.34314599999999
 30
0.0
 11
-53.527712000000001
 21
-446.34314599999988
 31
0.0
  0
LINE
  5
15B
  8
DETAIL
  6
CONTINUOUS
 62
     5
 39
50.0
 10
-41.527712000000001
 20
-428.34314599999999
 30
0.0
 11
-41.527712000000001
 21
-446.34314599999988
 31
0.0
  0
LINE
  5
15C
  8
DETAIL
  6
CONTINUOUS
 62
     5
 39
50.0
 10
-17.527712000000001
 20
-428.34314599999999
 30
0.0
 11
-17.527712000000001
 21
-446.34314599999988
 31
0.0
  0
LINE
  5
15D
  8
DETAIL
  6
CONTINUOUS
 62
     5
 39
50.0
 10
-29.527712000000001
 20
-428.34314599999999
 30
0.0
 11
-29.527712000000001
 21
-446.34314599999988
 31
0.0
  0
ARC
  5
15E
  8
DETAIL
  6
CONTINUOUS
 62
     5
 39
50.0
 10
-23.527712000000001
 20
-446.34314599999988
 30
0.0
 40
6.0
 50
180.0
 51
0.0
  0
ARC
  5
15F
  8
DETAIL
  6
CONTINUOUS
 62
     5
 39
50.0
 10
-23.527712000000001
 20
-428.34314599999999
 30
0.0
 40
6.0
 50
0.0
 51
180.0
  0
ARC
  5
160
  8
DETAIL
  6
CONTINUOUS
 62
     5
 39
50.0
 10
-23.527712000000001
 20
-395.34314599999999
 30
0.0
 40
6.0
 50
0.0
 51
180.0
  0
ARC
  5
161
  8
DETAIL
  6
CONTINUOUS
 62
     5
 39
50.0
 10
-23.527712000000001
 20
-413.34314599999988
 30
0.0
 40
6.0
 50
180.0
 51
0.0
  0
LINE
  5
162
  8
DETAIL
  6
CONTINUOUS
 62
     5
 39
50.0
 10
-29.527712000000001
 20
-395.34314599999999
 30
0.0
 11
-29.527712000000001
 21
-413.34314599999988
 31
0.0
  0
LINE
  5
163
  8
DETAIL
  6
CONTINUOUS
 62
     5
 39
50.0
 10
-17.527712000000001
 20
-395.34314599999999
 30
0.0
 11
-17.527712000000001
 21
-413.34314599999988
 31
0.0
  0
LINE
  5
164
  8
DETAIL
  6
CONTINUOUS
 62
     5
 39
50.0
 10
-17.527712000000001
 20
-362.34314599999999
 30
0.0
 11
-17.527712000000001
 21
-380.34314599999999
 31
0.0
  0
LINE
  5
165
  8
DETAIL
  6
CONTINUOUS
 62
     5
 39
50.0
 10
-29.527712000000001
 20
-362.34314599999999
 30
0.0
 11
-29.527712000000001
 21
-380.34314599999999
 31
0.0
  0
ARC
  5
166
  8
DETAIL
  6
CONTINUOUS
 62
     5
 39
50.0
 10
-23.527712000000001
 20
-380.34314599999999
 30
0.0
 40
6.0
 50
180.0
 51
0.0
  0
ARC
  5
167
  8
DETAIL
  6
CONTINUOUS
 62
     5
 39
50.0
 10
-23.527712000000001
 20
-362.34314599999999
 30
0.0
 40
6.0
 50
0.0
 51
180.0
  0
ARC
  5
168
  8
DETAIL
  6
CONTINUOUS
 62
     5
 39
50.0
 10
0.472288
 20
-362.34314599999999
 30
0.0
 40
6.0
 50
0.0
 51
180.0
  0
ARC
  5
169
  8
DETAIL
  6
CONTINUOUS
 62
     5
 39
50.0
 10
0.472288
 20
-380.34314599999999
 30
0.0
 40
6.0
 50
180.0
 51
0.0
  0
LINE
  5
16A
  8
DETAIL
  6
CONTINUOUS
 62
     5
 39
50.0
 10
-5.5277120000000002
 20
-362.34314599999999
 30
0.0
 11
-5.5277120000000002
 21
-380.34314599999999
 31
0.0
  0
LINE
  5
16B
  8
DETAIL
  6
CONTINUOUS
 62
     5
 39
50.0
 10
6.4722879999999989
 20
-362.34314599999999
 30
0.0
 11
6.4722879999999989
 21
-380.34314599999999
 31
0.0
  0
LINE
  5
16C
  8
DETAIL
  6
CONTINUOUS
 62
     5
 39
50.0
 10
6.4722879999999989
 20
-395.34314599999999
 30
0.0
 11
6.4722879999999989
 21
-413.34314599999988
 31
0.0
  0
LINE
  5
16D
  8
DETAIL
  6
CONTINUOUS
 62
     5
 39
50.0
 10
-5.5277120000000002
 20
-395.34314599999999
 30
0.0
 11
-5.5277120000000002
 21
-413.34314599999988
 31
0.0
  0
ARC
  5
16E
  8
DETAIL
  6
CONTINUOUS
 62
     5
 39
50.0
 10
0.472288
 20
-413.34314599999988
 30
0.0
 40
6.0
 50
180.0
 51
0.0
  0
ARC
  5
16F
  8
DETAIL
  6
CONTINUOUS
 62
     5
 39
50.0
 10
0.472288
 20
-395.34314599999999
 30
0.0
 40
6.0
 50
0.0
 51
180.0
  0
ARC
  5
170
  8
DETAIL
  6
CONTINUOUS
 62
     5
 39
50.0
 10
0.472288
 20
-428.34314599999999
 30
0.0
 40
6.0
 50
0.0
 51
180.0
  0
ARC
  5
171
  8
DETAIL
  6
CONTINUOUS
 62
     5
 39
50.0
 10
0.472288
 20
-446.34314599999988
 30
0.0
 40
6.0
 50
180.0
 51
0.0
  0
LINE
  5
172
  8
DETAIL
  6
CONTINUOUS
 62
     5
 39
50.0
 10
-5.5277120000000002
 20
-428.34314599999999
 30
0.0
 11
-5.5277120000000002
 21
-446.34314599999988
 31
0.0
  0
LINE
  5
173
  8
DETAIL
  6
CONTINUOUS
 62
     5
 39
50.0
 10
6.4722879999999989
 20
-428.34314599999999
 30
0.0
 11
6.4722879999999989
 21
-446.34314599999988
 31
0.0
  0
ARC
  5
174
  8
DETAIL
  6
CONTINUOUS
 62
     5
 39
50.0
 10
192.47228799999999
 20
-362.34314599999999
 30
0.0
 40
6.0
 50
0.0
 51
180.0
  0
ARC
  5
175
  8
DETAIL
  6
CONTINUOUS
 62
     5
 39
50.0
 10
192.47228799999999
 20
-380.34314599999999
 30
0.0
 40
6.0
 50
180.0
 51
0.0
  0
LINE
  5
176
  8
DETAIL
  6
CONTINUOUS
 62
     5
 39
50.0
 10
186.47228799999999
 20
-362.34314599999999
 30
0.0
 11
186.47228799999999
 21
-380.34314599999999
 31
0.0
  0
LINE
  5
177
  8
DETAIL
  6
CONTINUOUS
 62
     5
 39
50.0
 10
198.47228799999991
 20
-362.34314599999999
 30
0.0
 11
198.47228799999991
 21
-380.34314599999999
 31
0.0
  0
LINE
  5
178
  8
DETAIL
  6
CONTINUOUS
 62
     5
 39
50.0
 10
198.47228799999991
 20
-395.34314599999999
 30
0.0
 11
198.47228799999991
 21
-413.34314599999988
 31
0.0
  0
LINE
  5
179
  8
DETAIL
  6
CONTINUOUS
 62
     5
 39
50.0
 10
186.47228799999999
 20
-395.34314599999999
 30
0.0
 11
186.47228799999999
 21
-413.34314599999988
 31
0.0
  0
ARC
  5
17A
  8
DETAIL
  6
CONTINUOUS
 62
     5
 39
50.0
 10
192.47228799999999
 20
-413.34314599999988
 30
0.0
 40
6.0
 50
180.0
 51
0.0
  0
ARC
  5
17B
  8
DETAIL
  6
CONTINUOUS
 62
     5
 39
50.0
 10
192.47228799999999
 20
-395.34314599999999
 30
0.0
 40
6.0
 50
0.0
 51
180.0
  0
ARC
  5
17C
  8
DETAIL
  6
CONTINUOUS
 62
     5
 39
50.0
 10
192.47228799999999
 20
-428.34314599999999
 30
0.0
 40
6.0
 50
0.0
 51
180.0
  0
ARC
  5
17D
  8
DETAIL
  6
CONTINUOUS
 62
     5
 39
50.0
 10
192.47228799999999
 20
-446.34314599999988
 30
0.0
 40
6.0
 50
180.0
 51
0.0
  0
LINE
  5
17E
  8
DETAIL
  6
CONTINUOUS
 62
     5
 39
50.0
 10
186.47228799999999
 20
-428.34314599999999
 30
0.0
 11
186.47228799999999
 21
-446.34314599999988
 31
0.0
  0
LINE
  5
17F
  8
DETAIL
  6
CONTINUOUS
 62
     5
 39
50.0
 10
198.47228799999991
 20
-428.34314599999999
 30
0.0
 11
198.47228799999991
 21
-446.34314599999988
 31
0.0
  0
LINE
  5
180
  8
DETAIL
  6
CONTINUOUS
 62
     5
 39
50.0
 10
174.47228799999999
 20
-428.34314599999999
 30
0.0
 11
174.47228799999999
 21
-446.34314599999988
 31
0.0
  0
LINE
  5
181
  8
DETAIL
  6
CONTINUOUS
 62
     5
 39
50.0
 10
162.47228799999999
 20
-428.34314599999999
 30
0.0
 11
162.47228799999999
 21
-446.34314599999988
 31
0.0
  0
ARC
  5
182
  8
DETAIL
  6
CONTINUOUS
 62
     5
 39
50.0
 10
168.47228799999999
 20
-446.34314599999988
 30
0.0
 40
6.0
 50
180.0
 51
0.0
  0
ARC
  5
183
  8
DETAIL
  6
CONTINUOUS
 62
     5
 39
50.0
 10
168.47228799999999
 20
-428.34314599999999
 30
0.0
 40
6.0
 50
0.0
 51
180.0
  0
ARC
  5
184
  8
DETAIL
  6
CONTINUOUS
 62
     5
 39
50.0
 10
168.47228799999999
 20
-395.34314599999999
 30
0.0
 40
6.0
 50
0.0
 51
180.0
  0
ARC
  5
185
  8
DETAIL
  6
CONTINUOUS
 62
     5
 39
50.0
 10
168.47228799999999
 20
-413.34314599999988
 30
0.0
 40
6.0
 50
180.0
 51
0.0
  0
LINE
  5
186
  8
DETAIL
  6
CONTINUOUS
 62
     5
 39
50.0
 10
162.47228799999999
 20
-395.34314599999999
 30
0.0
 11
162.47228799999999
 21
-413.34314599999988
 31
0.0
  0
LINE
  5
187
  8
DETAIL
  6
CONTINUOUS
 62
     5
 39
50.0
 10
174.47228799999999
 20
-395.34314599999999
 30
0.0
 11
174.47228799999999
 21
-413.34314599999988
 31
0.0
  0
LINE
  5
188
  8
DETAIL
  6
CONTINUOUS
 62
     5
 39
50.0
 10
174.47228799999999
 20
-362.34314599999999
 30
0.0
 11
174.47228799999999
 21
-380.34314599999999
 31
0.0
  0
LINE
  5
189
  8
DETAIL
  6
CONTINUOUS
 62
     5
 39
50.0
 10
162.47228799999999
 20
-362.34314599999999
 30
0.0
 11
162.47228799999999
 21
-380.34314599999999
 31
0.0
  0
ARC
  5
18A
  8
DETAIL
  6
CONTINUOUS
 62
     5
 39
50.0
 10
168.47228799999999
 20
-380.34314599999999
 30
0.0
 40
6.0
 50
180.0
 51
0.0
  0
ARC
  5
18B
  8
DETAIL
  6
CONTINUOUS
 62
     5
 39
50.0
 10
168.47228799999999
 20
-362.34314599999999
 30
0.0
 40
6.0
 50
0.0
 51
180.0
  0
ARC
  5
18C
  8
DETAIL
  6
CONTINUOUS
 62
     5
 39
50.0
 10
96.472288000000006
 20
-362.34314599999999
 30
0.0
 40
6.0
 50
0.0
 51
180.0
  0
ARC
  5
18D
  8
DETAIL
  6
CONTINUOUS
 62
     5
 39
50.0
 10
96.472288000000006
 20
-380.34314599999999
 30
0.0
 40
6.0
 50
180.0
 51
0.0
  0
LINE
  5
18E
  8
DETAIL
  6
CONTINUOUS
 62
     5
 39
50.0
 10
90.472288000000006
 20
-362.34314599999999
 30
0.0
 11
90.472288000000006
 21
-380.34314599999999
 31
0.0
  0
LINE
  5
18F
  8
DETAIL
  6
CONTINUOUS
 62
     5
 39
50.0
 10
102.47228800000001
 20
-362.34314599999999
 30
0.0
 11
102.47228800000001
 21
-380.34314599999999
 31
0.0
  0
LINE
  5
190
  8
DETAIL
  6
CONTINUOUS
 62
     5
 39
50.0
 10
102.47228800000001
 20
-395.34314599999999
 30
0.0
 11
102.47228800000001
 21
-413.34314599999988
 31
0.0
  0
LINE
  5
191
  8
DETAIL
  6
CONTINUOUS
 62
     5
 39
50.0
 10
90.472288000000006
 20
-395.34314599999999
 30
0.0
 11
90.472288000000006
 21
-413.34314599999988
 31
0.0
  0
ARC
  5
192
  8
DETAIL
  6
CONTINUOUS
 62
     5
 39
50.0
 10
96.472288000000006
 20
-413.34314599999988
 30
0.0
 40
6.0
 50
180.0
 51
0.0
  0
ARC
  5
193
  8
DETAIL
  6
CONTINUOUS
 62
     5
 39
50.0
 10
96.472288000000006
 20
-395.34314599999999
 30
0.0
 40
6.0
 50
0.0
 51
180.0
  0
ARC
  5
194
  8
DETAIL
  6
CONTINUOUS
 62
     5
 39
50.0
 10
96.472288000000006
 20
-428.34314599999999
 30
0.0
 40
6.0
 50
0.0
 51
180.0
  0
ARC
  5
195
  8
DETAIL
  6
CONTINUOUS
 62
     5
 39
50.0
 10
96.472288000000006
 20
-446.34314599999988
 30
0.0
 40
6.0
 50
180.0
 51
0.0
  0
LINE
  5
196
  8
DETAIL
  6
CONTINUOUS
 62
     5
 39
50.0
 10
90.472288000000006
 20
-428.34314599999999
 30
0.0
 11
90.472288000000006
 21
-446.34314599999988
 31
0.0
  0
LINE
  5
197
  8
DETAIL
  6
CONTINUOUS
 62
     5
 39
50.0
 10
102.47228800000001
 20
-428.34314599999999
 30
0.0
 11
102.47228800000001
 21
-446.34314599999988
 31
0.0
  0
LINE
  5
198
  8
DETAIL
  6
CONTINUOUS
 62
     5
 39
50.0
 10
126.47228800000001
 20
-428.34314599999999
 30
0.0
 11
126.47228800000001
 21
-446.34314599999988
 31
0.0
  0
LINE
  5
199
  8
DETAIL
  6
CONTINUOUS
 62
     5
 39
50.0
 10
114.47228800000001
 20
-428.34314599999999
 30
0.0
 11
114.47228800000001
 21
-446.34314599999988
 31
0.0
  0
ARC
  5
19A
  8
DETAIL
  6
CONTINUOUS
 62
     5
 39
50.0
 10
120.47228800000001
 20
-446.34314599999988
 30
0.0
 40
6.0
 50
180.0
 51
0.0
  0
ARC
  5
19B
  8
DETAIL
  6
CONTINUOUS
 62
     5
 39
50.0
 10
120.47228800000001
 20
-428.34314599999999
 30
0.0
 40
6.0
 50
0.0
 51
180.0
  0
ARC
  5
19C
  8
DETAIL
  6
CONTINUOUS
 62
     5
 39
50.0
 10
120.47228800000001
 20
-395.34314599999999
 30
0.0
 40
6.0
 50
0.0
 51
180.0
  0
ARC
  5
19D
  8
DETAIL
  6
CONTINUOUS
 62
     5
 39
50.0
 10
120.47228800000001
 20
-413.34314599999988
 30
0.0
 40
6.0
 50
180.0
 51
0.0
  0
LINE
  5
19E
  8
DETAIL
  6
CONTINUOUS
 62
     5
 39
50.0
 10
114.47228800000001
 20
-395.34314599999999
 30
0.0
 11
114.47228800000001
 21
-413.34314599999988
 31
0.0
  0
LINE
  5
19F
  8
DETAIL
  6
CONTINUOUS
 62
     5
 39
50.0
 10
126.47228800000001
 20
-395.34314599999999
 30
0.0
 11
126.47228800000001
 21
-413.34314599999988
 31
0.0
  0
LINE
  5
1A0
  8
DETAIL
  6
CONTINUOUS
 62
     5
 39
50.0
 10
126.47228800000001
 20
-362.34314599999999
 30
0.0
 11
126.47228800000001
 21
-380.34314599999999
 31
0.0
  0
LINE
  5
1A1
  8
DETAIL
  6
CONTINUOUS
 62
     5
 39
50.0
 10
114.47228800000001
 20
-362.34314599999999
 30
0.0
 11
114.47228800000001
 21
-380.34314599999999
 31
0.0
  0
ARC
  5
1A2
  8
DETAIL
  6
CONTINUOUS
 62
     5
 39
50.0
 10
120.47228800000001
 20
-380.34314599999999
 30
0.0
 40
6.0
 50
180.0
 51
0.0
  0
ARC
  5
1A3
  8
DETAIL
  6
CONTINUOUS
 62
     5
 39
50.0
 10
120.47228800000001
 20
-362.34314599999999
 30
0.0
 40
6.0
 50
0.0
 51
180.0
  0
ARC
  5
1A4
  8
DETAIL
  6
CONTINUOUS
 62
     5
 39
50.0
 10
144.47228799999999
 20
-362.34314599999999
 30
0.0
 40
6.0
 50
0.0
 51
180.0
  0
ARC
  5
1A5
  8
DETAIL
  6
CONTINUOUS
 62
     5
 39
50.0
 10
144.47228799999999
 20
-380.34314599999999
 30
0.0
 40
6.0
 50
180.0
 51
0.0
  0
LINE
  5
1A6
  8
DETAIL
  6
CONTINUOUS
 62
     5
 39
50.0
 10
138.47228799999999
 20
-362.34314599999999
 30
0.0
 11
138.47228799999999
 21
-380.34314599999999
 31
0.0
  0
LINE
  5
1A7
  8
DETAIL
  6
CONTINUOUS
 62
     5
 39
50.0
 10
150.47228799999999
 20
-362.34314599999999
 30
0.0
 11
150.47228799999999
 21
-380.34314599999999
 31
0.0
  0
LINE
  5
1A8
  8
DETAIL
  6
CONTINUOUS
 62
     5
 39
50.0
 10
150.47228799999999
 20
-395.34314599999999
 30
0.0
 11
150.47228799999999
 21
-413.34314599999988
 31
0.0
  0
LINE
  5
1A9
  8
DETAIL
  6
CONTINUOUS
 62
     5
 39
50.0
 10
138.47228799999999
 20
-395.34314599999999
 30
0.0
 11
138.47228799999999
 21
-413.34314599999988
 31
0.0
  0
ARC
  5
1AA
  8
DETAIL
  6
CONTINUOUS
 62
     5
 39
50.0
 10
144.47228799999999
 20
-413.34314599999988
 30
0.0
 40
6.0
 50
180.0
 51
0.0
  0
ARC
  5
1AB
  8
DETAIL
  6
CONTINUOUS
 62
     5
 39
50.0
 10
144.47228799999999
 20
-395.34314599999999
 30
0.0
 40
6.0
 50
0.0
 51
180.0
  0
ARC
  5
1AC
  8
DETAIL
  6
CONTINUOUS
 62
     5
 39
50.0
 10
144.47228799999999
 20
-428.34314599999999
 30
0.0
 40
6.0
 50
0.0
 51
180.0
  0
ARC
  5
1AD
  8
DETAIL
  6
CONTINUOUS
 62
     5
 39
50.0
 10
144.47228799999999
 20
-446.34314599999988
 30
0.0
 40
6.0
 50
180.0
 51
0.0
  0
LINE
  5
1AE
  8
DETAIL
  6
CONTINUOUS
 62
     5
 39
50.0
 10
138.47228799999999
 20
-428.34314599999999
 30
0.0
 11
138.47228799999999
 21
-446.34314599999988
 31
0.0
  0
LINE
  5
1AF
  8
DETAIL
  6
CONTINUOUS
 62
     5
 39
50.0
 10
150.47228799999999
 20
-428.34314599999999
 30
0.0
 11
150.47228799999999
 21
-446.34314599999988
 31
0.0
  0
LINE
  5
1B0
  8
DETAIL
  6
CONTINUOUS
 62
     5
 39
50.0
 10
78.472288000000006
 20
-428.34314599999999
 30
0.0
 11
78.472288000000006
 21
-446.34314599999988
 31
0.0
  0
LINE
  5
1B1
  8
DETAIL
  6
CONTINUOUS
 62
     5
 39
50.0
 10
66.472288000000006
 20
-428.34314599999999
 30
0.0
 11
66.472288000000006
 21
-446.34314599999988
 31
0.0
  0
ARC
  5
1B2
  8
DETAIL
  6
CONTINUOUS
 62
     5
 39
50.0
 10
72.472288000000006
 20
-446.34314599999988
 30
0.0
 40
6.0
 50
180.0
 51
0.0
  0
ARC
  5
1B3
  8
DETAIL
  6
CONTINUOUS
 62
     5
 39
50.0
 10
72.472288000000006
 20
-428.34314599999999
 30
0.0
 40
6.0
 50
0.0
 51
180.0
  0
ARC
  5
1B4
  8
DETAIL
  6
CONTINUOUS
 62
     5
 39
50.0
 10
72.472288000000006
 20
-395.34314599999999
 30
0.0
 40
6.0
 50
0.0
 51
180.0
  0
ARC
  5
1B5
  8
DETAIL
  6
CONTINUOUS
 62
     5
 39
50.0
 10
72.472288000000006
 20
-413.34314599999988
 30
0.0
 40
6.0
 50
180.0
 51
0.0
  0
LINE
  5
1B6
  8
DETAIL
  6
CONTINUOUS
 62
     5
 39
50.0
 10
66.472288000000006
 20
-395.34314599999999
 30
0.0
 11
66.472288000000006
 21
-413.34314599999988
 31
0.0
  0
LINE
  5
1B7
  8
DETAIL
  6
CONTINUOUS
 62
     5
 39
50.0
 10
78.472288000000006
 20
-395.34314599999999
 30
0.0
 11
78.472288000000006
 21
-413.34314599999988
 31
0.0
  0
LINE
  5
1B8
  8
DETAIL
  6
CONTINUOUS
 62
     5
 39
50.0
 10
78.472288000000006
 20
-362.34314599999999
 30
0.0
 11
78.472288000000006
 21
-380.34314599999999
 31
0.0
  0
LINE
  5
1B9
  8
DETAIL
  6
CONTINUOUS
 62
     5
 39
50.0
 10
66.472288000000006
 20
-362.34314599999999
 30
0.0
 11
66.472288000000006
 21
-380.34314599999999
 31
0.0
  0
ARC
  5
1BA
  8
DETAIL
  6
CONTINUOUS
 62
     5
 39
50.0
 10
72.472288000000006
 20
-380.34314599999999
 30
0.0
 40
6.0
 50
180.0
 51
0.0
  0
ARC
  5
1BB
  8
DETAIL
  6
CONTINUOUS
 62
     5
 39
50.0
 10
72.472288000000006
 20
-362.34314599999999
 30
0.0
 40
6.0
 50
0.0
 51
180.0
  0
ARC
  5
1BC
  8
DETAIL
  6
CONTINUOUS
 62
     5
 39
50.0
 10
48.472287999999992
 20
-362.34314599999999
 30
0.0
 40
6.0
 50
0.0
 51
180.0
  0
ARC
  5
1BD
  8
DETAIL
  6
CONTINUOUS
 62
     5
 39
50.0
 10
48.472287999999992
 20
-380.34314599999999
 30
0.0
 40
6.0
 50
180.0
 51
0.0
  0
LINE
  5
1BE
  8
DETAIL
  6
CONTINUOUS
 62
     5
 39
50.0
 10
42.472287999999999
 20
-362.34314599999999
 30
0.0
 11
42.472287999999999
 21
-380.34314599999999
 31
0.0
  0
LINE
  5
1BF
  8
DETAIL
  6
CONTINUOUS
 62
     5
 39
50.0
 10
54.472287999999999
 20
-362.34314599999999
 30
0.0
 11
54.472287999999999
 21
-380.34314599999999
 31
0.0
  0
LINE
  5
1C0
  8
DETAIL
  6
CONTINUOUS
 62
     5
 39
50.0
 10
54.472287999999999
 20
-395.34314599999999
 30
0.0
 11
54.472287999999999
 21
-413.34314599999988
 31
0.0
  0
LINE
  5
1C1
  8
DETAIL
  6
CONTINUOUS
 62
     5
 39
50.0
 10
42.472287999999999
 20
-395.34314599999999
 30
0.0
 11
42.472287999999999
 21
-413.34314599999988
 31
0.0
  0
ARC
  5
1C2
  8
DETAIL
  6
CONTINUOUS
 62
     5
 39
50.0
 10
48.472287999999992
 20
-413.34314599999988
 30
0.0
 40
6.0
 50
180.0
 51
0.0
  0
ARC
  5
1C3
  8
DETAIL
  6
CONTINUOUS
 62
     5
 39
50.0
 10
48.472287999999992
 20
-395.34314599999999
 30
0.0
 40
6.0
 50
0.0
 51
180.0
  0
ARC
  5
1C4
  8
DETAIL
  6
CONTINUOUS
 62
     5
 39
50.0
 10
48.472287999999992
 20
-428.34314599999999
 30
0.0
 40
6.0
 50
0.0
 51
180.0
  0
ARC
  5
1C5
  8
DETAIL
  6
CONTINUOUS
 62
     5
 39
50.0
 10
48.472287999999992
 20
-446.34314599999988
 30
0.0
 40
6.0
 50
180.0
 51
0.0
  0
LINE
  5
1C6
  8
DETAIL
  6
CONTINUOUS
 62
     5
 39
50.0
 10
42.472287999999999
 20
-428.34314599999999
 30
0.0
 11
42.472287999999999
 21
-446.34314599999988
 31
0.0
  0
LINE
  5
1C7
  8
DETAIL
  6
CONTINUOUS
 62
     5
 39
50.0
 10
54.472287999999999
 20
-428.34314599999999
 30
0.0
 11
54.472287999999999
 21
-446.34314599999988
 31
0.0
  0
LINE
  5
1C8
  8
DETAIL
  6
CONTINUOUS
 62
     5
 39
50.0
 10
30.472287999999999
 20
-428.34314599999999
 30
0.0
 11
30.472287999999999
 21
-446.34314599999988
 31
0.0
  0
LINE
  5
1C9
  8
DETAIL
  6
CONTINUOUS
 62
     5
 39
50.0
 10
18.472287999999999
 20
-428.34314599999999
 30
0.0
 11
18.472287999999999
 21
-446.34314599999988
 31
0.0
  0
ARC
  5
1CA
  8
DETAIL
  6
CONTINUOUS
 62
     5
 39
50.0
 10
24.472287999999999
 20
-446.34314599999988
 30
0.0
 40
6.0
 50
180.0
 51
0.0
  0
ARC
  5
1CB
  8
DETAIL
  6
CONTINUOUS
 62
     5
 39
50.0
 10
24.472287999999999
 20
-428.34314599999999
 30
0.0
 40
6.0
 50
0.0
 51
180.0
  0
ARC
  5
1CC
  8
DETAIL
  6
CONTINUOUS
 62
     5
 39
50.0
 10
24.472287999999999
 20
-395.34314599999999
 30
0.0
 40
6.0
 50
0.0
 51
180.0
  0
ARC
  5
1CD
  8
DETAIL
  6
CONTINUOUS
 62
     5
 39
50.0
 10
24.472287999999999
 20
-413.34314599999988
 30
0.0
 40
6.0
 50
180.0
 51
0.0
  0
LINE
  5
1CE
  8
DETAIL
  6
CONTINUOUS
 62
     5
 39
50.0
 10
18.472287999999999
 20
-395.34314599999999
 30
0.0
 11
18.472287999999999
 21
-413.34314599999988
 31
0.0
  0
LINE
  5
1CF
  8
DETAIL
  6
CONTINUOUS
 62
     5
 39
50.0
 10
30.472287999999999
 20
-395.34314599999999
 30
0.0
 11
30.472287999999999
 21
-413.34314599999988
 31
0.0
  0
LINE
  5
1D0
  8
DETAIL
  6
CONTINUOUS
 62
     5
 39
50.0
 10
30.472287999999999
 20
-362.34314599999999
 30
0.0
 11
30.472287999999999
 21
-380.34314599999999
 31
0.0
  0
LINE
  5
1D1
  8
DETAIL
  6
CONTINUOUS
 62
     5
 39
50.0
 10
18.472287999999999
 20
-362.34314599999999
 30
0.0
 11
18.472287999999999
 21
-380.34314599999999
 31
0.0
  0
ARC
  5
1D2
  8
DETAIL
  6
CONTINUOUS
 62
     5
 39
50.0
 10
24.472287999999999
 20
-380.34314599999999
 30
0.0
 40
6.0
 50
180.0
 51
0.0
  0
ARC
  5
1D3
  8
DETAIL
  6
CONTINUOUS
 62
     5
 39
50.0
 10
24.472287999999999
 20
-362.34314599999999
 30
0.0
 40
6.0
 50
0.0
 51
180.0
  0
LINE
  5
1D4
  8
DETAIL
  6
CONTINUOUS
 62
     5
 10
320.10000000000002
 20
-286.0
 30
0.0
 11
-320.10000000000002
 21
-286.0
 31
0.0
  0
LINE
  5
1D5
  8
DETAIL
  6
CONTINUOUS
 62
     5
 39
50.0
 10
-350.10000000000002
 20
-148.0
 30
0.0
 11
-320.10000000000002
 21
-286.0
 31
0.0
  0
LINE
  5
1D6
  8
DETAIL
  6
CONTINUOUS
 62
     5
 39
50.0
 10
-320.10000000000002
 20
-286.0
 30
0.0
 11
-350.10000000000002
 21
-356.0
 31
0.0
  0
LINE
  5
1D7
  8
DETAIL
  6
CONTINUOUS
 62
     5
 39
50.0
 10
350.10000000000002
 20
-148.0
 30
0.0
 11
320.10000000000002
 21
-286.0
 31
0.0
  0
LINE
  5
1D8
  8
DETAIL
  6
CONTINUOUS
 62
     5
 39
50.0
 10
320.10000000000002
 20
-286.0
 30
0.0
 11
350.10000000000002
 21
-356.0
 31
0.0
  0
LINE
  5
1D9
  8
DETAIL
  6
CONTINUOUS
 62
     5
 39
50.0
 10
-100.5
 20
-501.0
 30
0.0
 11
-100.5
 21
-571.0
 31
0.0
  0
LINE
  5
1DA
  8
DETAIL
  6
CONTINUOUS
 62
     5
 10
-95.5
 20
-496.0
 30
0.0
 11
22.5
 21
-496.0
 31
0.0
  0
LINE
  5
1DB
  8
DETAIL
  6
CONTINUOUS
 62
     5
 10
-95.5
 20
-576.0
 30
0.0
 11
22.5
 21
-576.0
 31
0.0
  0
LINE
  5
1DC
  8
DETAIL
  6
CONTINUOUS
 62
     5
 39
50.0
 10
27.5
 20
-501.0
 30
0.0
 11
27.5
 21
-571.0
 31
0.0
  0
ARC
  5
1DD
  8
DETAIL
  6
CONTINUOUS
 62
     5
 39
50.0
 10
-95.5
 20
-501.0
 30
0.0
 40
5.0
 50
90.0
 51
180.0
  0
ARC
  5
1DE
  8
DETAIL
  6
CONTINUOUS
 62
     5
 10
-95.5
 20
-571.0
 30
0.0
 40
5.0
 50
180.0
 51
270.0
  0
ARC
  5
1DF
  8
DETAIL
  6
CONTINUOUS
 62
     5
 39
50.0
 10
22.5
 20
-571.0
 30
0.0
 40
5.0
 50
270.0
 51
0.0
  0
ARC
  5
1E0
  8
DETAIL
  6
CONTINUOUS
 62
     5
 39
50.0
 10
22.5
 20
-501.0
 30
0.0
 40
5.0
 50
0.0
 51
90.0
  0
CIRCLE
  5
1E1
  8
DETAIL
  6
CONTINUOUS
 62
     5
 39
50.0
 10
35.0
 20
-536.0
 30
0.0
 40
5.0
  0
LINE
  5
1E2
  8
SIZE
  6
CONTINUOUS
 62
    30
 10
395.0
 20
0.0
 30
0.0
 11
517.50665599999991
 21
0.0
 31
0.0
  0
LINE
  5
1E3
  8
SIZE
  6
CONTINUOUS
 62
    30
 10
284.0
 20
6.0
 30
0.0
 11
517.50665599999991
 21
6.0
 31
0.0
  0
LINE
  5
1E4
  8
SIZE
  6
CONTINUOUS
 62
    30
 10
497.50665600000002
 20
-12.0
 30
0.0
 11
497.50665600000002
 21
-24.0
 31
0.0
  0
LINE
  5
1E5
  8
SIZE
  6
CONTINUOUS
 62
    30
 10
497.50665600000002
 20
18.0
 30
0.0
 11
497.50665600000002
 21
30.0
 31
0.0
  0
LINE
  5
1E6
  8
SIZE
  6
CONTINUOUS
 62
    30
 10
497.50665600000002
 20
142.605492
 30
0.0
 11
497.50665600000002
 21
6.0
 31
0.0
  0
TEXT
  5
1E7
  8
SIZE
  6
CONTINUOUS
 62
    30
 10
472.50665600000002
 20
81.948349571428565
 30
0.0
 40
64.0
  1
6
 50
90.0
 41
0.9
 72
     1
 11
472.50665600000002
 21
99.776921000000002
 31
0.0
  0
LINE
  5
1E8
  8
SIZE
  6
CONTINUOUS
 62
    30
 10
497.50665600000002
 20
0.0
 30
0.0
 11
497.50665600000002
 21
6.0
 31
0.0
  0
LINE
  5
1E9
  8
SIZE
  6
CONTINUOUS
 62
    30
 10
497.50665600000002
 20
0.0
 30
0.0
 11
497.50665600000002
 21
6.0
 31
0.0
  0
CIRCLE
  5
1EA
  8
SIZE
  6
CONTINUOUS
 62
    30
 10
497.50665600000002
 20
0.0
 30
0.0
 40
6.0
  0
LINE
  5
1EB
  8
SIZE
  6
CONTINUOUS
 62
    30
 10
497.50665600000002
 20
0.0
 30
0.0
 11
497.50665600000002
 21
-12.0
 31
0.0
  0
CIRCLE
  5
1EC
  8
SIZE
  6
CONTINUOUS
 62
    30
 10
497.50665600000002
 20
6.0
 30
0.0
 40
6.0
  0
LINE
  5
1ED
  8
SIZE
  6
CONTINUOUS
 62
    30
 10
497.50665600000002
 20
6.0
 30
0.0
 11
497.50665600000002
 21
18.0
 31
0.0
  0
POINT
  5
1EE
  8
DEFPOINTS
  6
CONTINUOUS
 62
    30
 10
375.0
 20
0.0
 30
0.0
  0
POINT
  5
1EF
  8
DEFPOINTS
  6
CONTINUOUS
 62
    30
 10
264.0
 20
6.0
 30
0.0
  0
POINT
  5
1F0
  8
DEFPOINTS
  6
CONTINUOUS
 62
    30
 10
497.50665600000002
 20
6.0
 30
0.0
  0
LINE
  5
1F1
  8
SIZE
  6
CONTINUOUS
 62
    30
 10
375.0
 20
20.0
 30
0.0
 11
375.0
 21
488.07692400000002
 31
0.0
  0
LINE
  5
1F2
  8
SIZE
  6
CONTINUOUS
 62
    30
 10
-375.0
 20
20.0
 30
0.0
 11
-375.0
 21
488.07692400000002
 31
0.0
  0
LINE
  5
1F3
  8
SIZE
  6
CONTINUOUS
 62
    30
 10
363.0
 20
468.07692400000002
 30
0.0
 11
-363.0
 21
468.07692400000002
 31
0.0
  0
CIRCLE
  5
1F4
  8
SIZE
  6
CONTINUOUS
 62
    30
 10
375.0
 20
468.07692400000002
 30
0.0
 40
6.0
  0
LINE
  5
1F5
  8
SIZE
  6
CONTINUOUS
 62
    30
 10
375.0
 20
468.07692400000002
 30
0.0
 11
363.0
 21
468.07692400000002
 31
0.0
  0
CIRCLE
  5
1F6
  8
SIZE
  6
CONTINUOUS
 62
    30
 10
-375.0
 20
468.07692400000002
 30
0.0
 40
6.0
  0
LINE
  5
1F7
  8
SIZE
  6
CONTINUOUS
 62
    30
 10
-375.0
 20
468.07692400000002
 30
0.0
 11
-363.0
 21
468.07692400000002
 31
0.0
  0
TEXT
  5
1F8
  8
SIZE
  6
CONTINUOUS
 62
    30
 10
-74.057142857142864
 20
493.07692400000002
 30
0.0
 40
64.0
  1
750
 41
0.9
 72
     1
 11
0.0
 21
493.07692400000002
 31
0.0
  0
POINT
  5
1F9
  8
DEFPOINTS
  6
CONTINUOUS
 62
    30
 10
375.0
 20
0.0
 30
0.0
  0
POINT
  5
1FA
  8
DEFPOINTS
  6
CONTINUOUS
 62
    30
 10
-375.0
 20
0.0
 30
0.0
  0
POINT
  5
1FB
  8
DEFPOINTS
  6
CONTINUOUS
 62
    30
 10
-375.0
 20
468.07692400000002
 30
0.0
  0
TEXT
  5
204
  8
ETC
  6
CONTINUOUS
 62
    61
 10
743.91924248621967
 20
435.37168560339001
 30
0.0
 40
64.0
  1
換気扇
 41
0.9
  0
TEXT
  5
205
  8
ETC
  6
CONTINUOUS
 62
    61
 10
752.40846648621971
 20
539.10920160338992
 30
0.0
 40
64.0
  1
V-507RH2_6
 41
0.9
  0
TEXT
  5
238
  8
ETC
  6
CONTINUOUS
 62
    61
 10
821.49398482482945
 20
344.96841426706379
 30
0.0
 40
51.200000000000003
  1
V-507RH
 41
0.9
  0
TEXT
  5
239
  8
ETC
  6
CONTINUOUS
 62
    61
 10
821.49398482482945
 20
270.46845438288369
 30
0.0
 40
51.200000000000003
  1
V-507RH-S
 41
0.9
  0
TEXT
  5
23A
  8
ETC
  6
CONTINUOUS
 62
    61
 10
821.49398482482945
 20
191.25880869979301
 30
0.0
 40
51.200000000000003
  1
V-507RH2
 41
0.9
  0
TEXT
  5
23B
  8
ETC
  6
CONTINUOUS
 62
    61
 10
821.49398482482945
 20
116.75884881561289
 30
0.0
 40
51.200000000000003
  1
V-507RH2-S
 41
0.9
  0
ENDSEC
  0
EOF
