  0
SECTION
  2
HEADER
  9
$ACADVER
  1
AC1009
  9
$DWGCODEPAGE
  3
dos932
  9
$INSBASE
 10
0.0
 20
0.0
 30
0.0
  9
$EXTMIN
 10
-1994.471725756852
 20
-798.52293792474484
 30
-0.0015258207003583
  9
$EXTMAX
 10
1080.395519442849
 20
1416.641244334915
 30
0.0000000349246037
  9
$LIMMIN
 10
-2970.0
 20
-2100.0
  9
$LIMMAX
 10
2970.0
 20
2100.0
  9
$ORTHOMODE
 70
     1
  9
$REGENMODE
 70
     1
  9
$FILLMODE
 70
     1
  9
$QTEXTMODE
 70
     0
  9
$MIRRTEXT
 70
     0
  9
$LTSCALE
 40
20.0
  9
$ATTMODE
 70
     1
  9
$TEXTSIZE
 40
64.0
  9
$TRACEWID
 40
0.05
  9
$TEXTSTYLE
  7
STANDARD
  9
$CLAYER
  8
SIZE
  9
$CELTYPE
  6
CONTINUOUS
  9
$CECOLOR
 62
     7
  9
$DIMSCALE
 40
1.0
  9
$DIMASZ
 40
12.0
  9
$DIMEXO
 40
20.0
  9
$DIMDLI
 40
200.0
  9
$DIMRND
 40
0.0
  9
$DIMDLE
 40
0.0
  9
$DIMEXE
 40
20.0
  9
$DIMTP
 40
0.0
  9
$DIMTM
 40
0.0
  9
$DIMTXT
 40
64.0
  9
$DIMCEN
 40
0.09
  9
$DIMTSZ
 40
0.0
  9
$DIMTOL
 70
     0
  9
$DIMLIM
 70
     0
  9
$DIMTIH
 70
     0
  9
$DIMTOH
 70
     0
  9
$DIMSE1
 70
     0
  9
$DIMSE2
 70
     0
  9
$DIMTAD
 70
     1
  9
$DIMZIN
 70
     8
  9
$DIMBLK
  1

  9
$DIMASO
 70
     1
  9
$DIMSHO
 70
     0
  9
$DIMPOST
  1

  9
$DIMAPOST
  1

  9
$DIMALT
 70
     0
  9
$DIMALTD
 70
     2
  9
$DIMALTF
 40
25.399999999999999
  9
$DIMLFAC
 40
1.0
  9
$DIMTOFL
 70
     1
  9
$DIMTVP
 40
0.0
  9
$DIMTIX
 70
     1
  9
$DIMSOXD
 70
     0
  9
$DIMSAH
 70
     0
  9
$DIMBLK1
  1

  9
$DIMBLK2
  1

  9
$DIMSTYLE
  2
STANDARD
  9
$DIMCLRD
 70
     7
  9
$DIMCLRE
 70
     7
  9
$DIMCLRT
 70
     7
  9
$DIMTFAC
 40
1.0
  9
$DIMGAP
 40
25.0
  9
$LUNITS
 70
     2
  9
$LUPREC
 70
     4
  9
$SKETCHINC
 40
0.1
  9
$FILLETRAD
 40
3.0
  9
$AUNITS
 70
     1
  9
$AUPREC
 70
     3
  9
$MENU
  1
ACAD
  9
$ELEVATION
 40
0.0
  9
$PELEVATION
 40
0.0
  9
$THICKNESS
 40
0.0
  9
$LIMCHECK
 70
     0
  9
$CHAMFERA
 40
0.0
  9
$CHAMFERB
 40
0.0
  9
$SKPOLY
 70
     0
  9
$TDCREATE
 40
2453019.62301037
  9
$TDUPDATE
 40
2459025.58789868
  9
$TDINDWG
 40
1.7251085764
  9
$TDUSRTIMER
 40
1.7251085764
  9
$USRTIMER
 70
     1
  9
$ANGBASE
 50
0.0
  9
$ANGDIR
 70
     0
  9
$PDMODE
 70
     3
  9
$PDSIZE
 40
-2.0
  9
$PLINEWID
 40
0.0
  9
$SPLFRAME
 70
     0
  9
$SPLINETYPE
 70
     6
  9
$SPLINESEGS
 70
     8
  9
$SURFTAB1
 70
     6
  9
$SURFTAB2
 70
     6
  9
$SURFTYPE
 70
     6
  9
$SURFU
 70
     6
  9
$SURFV
 70
     6
  9
$UCSNAME
  2

  9
$UCSORG
 10
0.0
 20
0.0
 30
0.0
  9
$UCSXDIR
 10
1.0
 20
0.0
 30
0.0
  9
$UCSYDIR
 10
0.0
 20
1.0
 30
0.0
  9
$PUCSNAME
  2

  9
$PUCSORG
 10
0.0
 20
0.0
 30
0.0
  9
$PUCSXDIR
 10
1.0
 20
0.0
 30
0.0
  9
$PUCSYDIR
 10
0.0
 20
1.0
 30
0.0
  9
$USERI1
 70
     0
  9
$USERI2
 70
     0
  9
$USERI3
 70
     0
  9
$USERI4
 70
     0
  9
$USERI5
 70
     0
  9
$USERR1
 40
20.0
  9
$USERR2
 40
0.0
  9
$USERR3
 40
0.0
  9
$USERR4
 40
0.0
  9
$USERR5
 40
0.0
  9
$WORLDVIEW
 70
     1
  9
$SHADEDGE
 70
     3
  9
$SHADEDIF
 70
    70
  9
$TILEMODE
 70
     1
  9
$MAXACTVP
 70
    48
  9
$PINSBASE
 10
0.0
 20
0.0
 30
0.0
  9
$PLIMCHECK
 70
     0
  9
$PEXTMIN
 10
-100000000000000000000.0
 20
-100000000000000000000.0
 30
-100000000000000000000.0
  9
$PEXTMAX
 10
100000000000000000000.0
 20
100000000000000000000.0
 30
100000000000000000000.0
  9
$PLIMMIN
 10
0.0
 20
0.0
  9
$PLIMMAX
 10
12.0
 20
9.0
  9
$UNITMODE
 70
     0
  9
$VISRETAIN
 70
     0
  9
$PLINEGEN
 70
     0
  9
$PSLTSCALE
 70
     0
  9
$TREEDEPTH
 70
  3020
  9
$ATTDIA
 70
     0
  9
$ATTREQ
 70
     1
  9
$BLIPMODE
 70
     1
  9
$COORDS
 70
     1
  9
$DRAGMODE
 70
     2
  9
$OSMODE
 70
     0
  9
$HANDLING
 70
     0
  9
$HANDSEED
  5
100CA
  0
ENDSEC
  0
SECTION
  2
TABLES
  0
TABLE
  2
LTYPE
 70
     2
  0
LTYPE
  2
CONTINUOUS
 70
     0
  3
実線
 72
    65
 73
     0
 40
0.0
  0
LTYPE
  2
DASHDOT
 70
     0
  3
____ _ ____ _ ____ _ ____ _ ____ _ ____ _ ____
 72
    65
 73
     4
 40
5.5
 49
4.0
 49
-0.6
 49
0.3
 49
-0.6
  0
ENDTAB
  0
TABLE
  2
LAYER
 70
    12
  0
LAYER
  2
0
 70
     0
 62
     7
  6
CONTINUOUS
  0
LAYER
  2
BASIS
 70
     0
 62
     6
  6
DASHDOT
  0
LAYER
  2
OUTLINE
 70
     0
 62
     3
  6
CONTINUOUS
  0
LAYER
  2
DETAIL
 70
     0
 62
     5
  6
CONTINUOUS
  0
LAYER
  2
SIZE
 70
     0
 62
    30
  6
CONTINUOUS
  0
LAYER
  2
ARRANGE
 70
     0
 62
     1
  6
CONTINUOUS
  0
LAYER
  2
DEFPOINTS
 70
     0
 62
     7
  6
CONTINUOUS
  0
LAYER
  2
ETC
 70
     0
 62
    61
  6
CONTINUOUS
  0
LAYER
  2
FIX
 70
     0
 62
    11
  6
CONTINUOUS
  0
LAYER
  2
NOTE
 70
     0
 62
     4
  6
CONTINUOUS
  0
LAYER
  2
SERVICESPACE
 70
    64
 62
     2
  6
DASHDOT
  0
LAYER
  2
SYMBOLLINE
 70
    64
 62
    15
  6
CONTINUOUS
  0
ENDTAB
  0
TABLE
  2
STYLE
 70
     1
  0
STYLE
  2
STANDARD
 70
     0
 40
64.0
 41
0.9
 50
0.0
 71
     0
 42
64.0
  3
SIMPLEX.shx
  4
BIGFONT.shx
  0
ENDTAB
  0
TABLE
  2
APPID
 70
    19
  0
APPID
  2
ACAD
 70
     0
  0
APPID
  2
AUTOCAD_POSTSCRIPT_FIGURE
 70
     0
  0
APPID
  2
ACAD_EXEMPT_FROM_CAD_STANDARDS
 70
     0
  0
APPID
  2
ACAD_PSEXT
 70
     0
  0
APPID
  2
ACAUTHENVIRON
 70
     0
  0
APPID
  2
GENIUS_GENOENT_13
 70
     0
  0
APPID
  2
GENIUS_GENCFG_13
 70
     0
  0
APPID
  2
GENIUS_GENCFG0_13
 70
     0
  0
APPID
  2
GENIUS_GENCFG1_13
 70
     0
  0
APPID
  2
GENIUS_GENCFG2_13
 70
     0
  0
APPID
  2
GENIUS_GENCFG3_13
 70
     0
  0
APPID
  2
GENIUS_GENCFG4_13
 70
     0
  0
APPID
  2
GENIUS_GEVCFG0_13
 70
     0
  0
APPID
  2
CONTENTBLOCKICON
 70
     0
  0
APPID
  2
CONTENTBLOCKDESCRIPTION
 70
     0
  0
APPID
  2
ACAD_NAV_VCDISPLAY
 70
     0
  0
APPID
  2
ACAD_MLEADERVER
 70
     0
  0
APPID
  2
ACDBDYNAMICBLOCKTRUENAME
 70
     0
  0
APPID
  2
ACDBDYNAMICBLOCKGUID
 70
     0
  0
ENDTAB
  0
TABLE
  2
DIMSTYLE
 70
     1
  0
DIMSTYLE
  2
STANDARD
 70
     0
  3

  4

  5
_ORIGIN
  6

  7

 40
1.0
 41
12.0
 42
20.0
 43
200.0
 44
20.0
 45
0.0
 46
0.0
 47
0.0
 48
0.0
140
64.0
141
0.09
142
0.0
143
25.399999999999999
144
1.0
145
0.0
146
1.0
147
25.0
 71
     0
 72
     0
 73
     0
 74
     0
 75
     0
 76
     0
 77
     1
 78
     8
170
     0
171
     2
172
     1
173
     0
174
     1
175
     0
176
     7
177
     7
178
     7
  0
ENDTAB
  0
TABLE
  2
VIEW
 70
     1
  0
VIEW
  2
ALL
 70
     0
 40
4282.6198079999986
 10
0.0
 20
41.309904000000003
 41
5940.0
 11
0.0
 21
0.0
 31
1.0
 12
0.0
 22
0.0
 32
0.0
 42
50.0
 43
0.0
 44
0.0
 50
0.0
 71
     0
  0
ENDTAB
  0
TABLE
  2
UCS
 70
     0
  0
ENDTAB
  0
TABLE
  2
VPORT
 70
     1
  0
VPORT
  2
*ACTIVE
 70
     0
 10
0.0
 20
0.0
 11
1.0
 21
1.0
 12
-457.03810315700122
 22
309.05915320508478
 13
0.0
 23
0.0
 14
1.0
 24
1.0
 15
0.0
 25
0.0
 16
0.0
 26
0.0
 36
1.0
 17
0.0
 27
0.0
 37
0.0
 40
2229.8503536337571
 41
1.747787610619469
 42
50.0
 43
0.0
 44
0.0
 50
0.0
 51
0.0
 71
     0
 72
  1000
 73
     1
 74
     3
 75
     0
 76
     0
 77
     0
 78
     0
  0
ENDTAB
  0
ENDSEC
  0
SECTION
  2
BLOCKS
  0
BLOCK
  8
0
  2
_ORIGIN
 70
     0
 10
0.0
 20
0.0
 30
0.0
  3
_ORIGIN
  1
_ORIGIN
  0
CIRCLE
  8
0
  6
CONTINUOUS
 62
     7
 10
0.0
 20
0.0
 30
0.0
 40
0.5
  0
LINE
  8
0
  6
CONTINUOUS
 62
     7
 10
0.0
 20
0.0
 30
0.0
 11
-1.0
 21
0.0
 31
0.0
  0
ENDBLK
  8
0
  0
ENDSEC
  0
SECTION
  2
ENTITIES
  0
TEXT
  8
ETC
  6
CONTINUOUS
 62
    61
 10
509.55114099999992
 20
1352.395715330561
 30
0.0
 40
64.0
  1
V-509RH5_4
 41
0.9
  0
TEXT
  8
ETC
  6
CONTINUOUS
 62
    61
 10
505.36514700000038
 20
1234.4404053305609
 30
0.0
 40
64.0
  1
換気扇
 41
0.9
  0
TEXT
  8
ETC
  6
CONTINUOUS
 62
    61
 10
555.97264900000027
 20
1127.5194693305609
 30
0.0
 40
40.0
  1
V-509RH5
 41
0.9
  0
CIRCLE
  8
ARRANGE
  6
CONTINUOUS
 62
     1
 10
0.0
 20
0.0
 30
0.0
 40
40.0
  0
POINT
  8
ARRANGE
  6
CONTINUOUS
 62
     1
 10
0.0
 20
0.0
 30
0.0
  0
LINE
  8
NOTE
  6
CONTINUOUS
 62
     4
 10
280.09930300000002
 20
218.16346900000011
 30
0.0
 11
954.90710399999989
 21
218.16346900000011
 31
0.0
  0
TEXT
  8
NOTE
  6
CONTINUOUS
 62
     4
 10
309.02459199999981
 20
235.96458899999971
 30
0.0
 40
64.0
  1
4-φ10棚直付用穴
 41
0.9
  0
LINE
  8
NOTE
  6
CONTINUOUS
 62
     4
 10
-1424.7271040000001
 20
227.0049249999997
 30
0.0
 11
-669.0819190000002
 21
227.0049249999997
 31
0.0
  0
TEXT
  8
NOTE
  6
CONTINUOUS
 62
     4
 10
-1395.8018139999999
 20
244.8060439999999
 30
0.0
 40
64.0
  1
AH 2-φ13天吊用穴
 41
0.9
  0
LINE
  8
NOTE
  6
CONTINUOUS
 62
     4
 10
-1994.3105820000001
 20
-421.00262800000002
 30
0.0
 11
-988.37359900000001
 21
-421.00262800000002
 31
0.0
  0
TEXT
  8
NOTE
  6
CONTINUOUS
 62
     4
 10
-1965.385293
 20
-403.20150899999999
 30
0.0
 40
64.0
  1
2-M5給気チャンバー取付穴
 41
0.9
  0
LINE
  8
NOTE
  6
CONTINUOUS
 62
     4
 10
180.96528899999981
 20
-798.41694600000005
 30
0.0
 11
982.9442369999997
 21
-798.41694600000005
 31
0.0
  0
TEXT
  8
NOTE
  6
CONTINUOUS
 62
     4
 10
191.11691799999971
 20
-780.61582699999985
 30
0.0
 40
64.0
  1
4-φ6背板ネジ締付位置
 41
0.9
  0
LINE
  8
DETAIL
  6
CONTINUOUS
 62
     5
 10
-594.86680999999999
 20
-114.3314850000002
 30
0.0
 11
-599.26771599999984
 21
-78.489012000000002
 31
0.0
  0
ARC
  8
DETAIL
  6
CONTINUOUS
 62
     5
 10
-600.88139499999988
 20
-90.900944999999865
 30
0.0
 40
0.20062
 50
98.000000000013785
 51
134.79889599998199
  0
ARC
  8
DETAIL
  6
CONTINUOUS
 62
     5
 10
-601.44950100000005
 20
-91.465079999999944
 30
0.0
 40
0.20062
 50
134.79889599998199
 51
172.7773940000059
  0
LINE
  8
DETAIL
  6
CONTINUOUS
 62
     5
 10
-601.02275199999985
 20
-90.758585000000039
 30
0.0
 11
-601.59086799999977
 21
-91.322728999999981
 31
0.0
  0
LINE
  8
DETAIL
  6
CONTINUOUS
 62
     5
 10
-598.91764400000011
 20
-90.422366000000011
 30
0.0
 11
-600.90931099999989
 21
-90.702280999999857
 31
0.0
  0
ARC
  8
DETAIL
  6
CONTINUOUS
 62
     5
 10
-600.13998300000003
 20
-102.13028300000001
 30
0.0
 40
0.20062
 50
201.2226059999978
 51
239.2011040000113
  0
ARC
  8
DETAIL
  6
CONTINUOUS
 62
     5
 10
-579.75540999999976
 20
-94.214379000000008
 30
0.0
 40
22.068228000000001
 50
172.7773940000059
 51
201.2226059999978
  0
LINE
  8
DETAIL
  6
CONTINUOUS
 62
     5
 10
-599.55499400000008
 20
-102.7125529999998
 30
0.0
 11
-600.24270999999999
 21
-102.3026159999999
 31
0.0
  0
ARC
  8
DETAIL
  6
CONTINUOUS
 62
     5
 10
-599.45226700000012
 20
-102.54023000000009
 30
0.0
 40
0.20062
 50
239.2011040000113
 51
275.99999999998232
  0
LINE
  8
DETAIL
  6
CONTINUOUS
 62
     5
 10
-597.43106799999987
 20
-102.5295169999999
 30
0.0
 11
-599.43130199999996
 21
-102.73974700000009
 31
0.0
  0
LINE
  8
DETAIL
  6
CONTINUOUS
 62
     5
 10
-599.02130399999987
 20
-80.495846000000029
 30
0.0
 11
-594.6242299999999
 21
-116.307153
 31
0.0
  0
LINE
  8
DETAIL
  6
CONTINUOUS
 62
     5
 10
-599.98437199999989
 20
-81.734496000000036
 30
0.0
 11
-595.85834499999964
 21
-115.33828799999991
 31
0.0
  0
LINE
  8
DETAIL
  6
CONTINUOUS
 62
     5
 10
-599.92282100000011
 20
-81.512549999999919
 30
0.0
 11
-599.21655800000008
 21
-80.608574999999973
 31
0.0
  0
LINE
  8
DETAIL
  6
CONTINUOUS
 62
     5
 10
-595.74493500000017
 20
-115.5387470000001
 30
0.0
 11
-594.84096
 21
-116.24501100000001
 31
0.0
  0
ARC
  8
DETAIL
  6
CONTINUOUS
 62
     5
 10
-599.68568800000003
 20
-81.697822000000087
 30
0.0
 40
0.30093
 50
141.99999999999261
 51
186.9999999999927
  0
ARC
  8
DETAIL
  6
CONTINUOUS
 62
     5
 10
-595.55966200000012
 20
-115.301604
 30
0.0
 40
0.30093
 50
186.9999999999927
 51
231.99999999998749
  0
ARC
  8
DETAIL
  6
CONTINUOUS
 62
     5
 10
-594.6556870000004
 20
-116.00787799999991
 30
0.0
 40
0.30093
 50
231.99999999998749
 51
275.99999999998232
  0
ARC
  8
DETAIL
  6
CONTINUOUS
 62
     5
 10
-598.97942499999999
 20
-80.793848000000025
 30
0.0
 40
0.30093
 50
98.000000000013785
 51
141.99999999999261
  0
LINE
  8
DETAIL
  6
CONTINUOUS
 62
     5
 10
1.604961999999432
 20
-171.530315
 30
0.0
 11
1.604961999999432
 21
30.000035999999909
 31
0.0
  0
ARC
  8
DETAIL
  6
CONTINUOUS
 62
     5
 10
3.009304000000157
 20
26.990733000000091
 30
0.0
 40
3.0093040000000002
 50
0.0
 51
90.000000999994882
  0
ARC
  8
DETAIL
  6
CONTINUOUS
 62
     5
 10
3.009304000000157
 20
-168.52101099999999
 30
0.0
 40
3.0093040000000002
 50
269.99998199998782
 51
0.0
  0
LINE
  8
DETAIL
  6
CONTINUOUS
 62
     5
 10
0.0
 20
30.000035999999909
 30
0.0
 11
3.009304000000157
 21
30.000035999999909
 31
0.0
  0
LINE
  8
DETAIL
  6
CONTINUOUS
 62
     5
 10
6.018608000000313
 20
-168.52101099999999
 30
0.0
 11
6.018608000000313
 21
26.990733000000091
 31
0.0
  0
LINE
  8
NOTE
  6
CONTINUOUS
 62
     4
 10
-345.00001100000009
 20
5.692098999999871
 30
0.0
 11
-345.00001100000009
 21
-8.0762789999998859
 31
0.0
  0
LINE
  8
NOTE
  6
CONTINUOUS
 62
     4
 10
-14.99995800000033
 20
-7.6483539999999266
 30
0.0
 11
-14.99995800000033
 21
8.4723209999999654
 31
0.0
  0
LINE
  8
NOTE
  6
CONTINUOUS
 62
     4
 10
-300.32851599999998
 20
7.2679990000001453
 30
0.0
 11
-300.32851599999998
 21
-6.571627000000035
 31
0.0
  0
LINE
  8
NOTE
  6
CONTINUOUS
 62
     4
 10
-330.42155300000007
 20
6.4544129999999313
 30
0.0
 11
-330.42155300000007
 21
-8.1732790000000932
 31
0.0
  0
LINE
  8
DETAIL
  6
CONTINUOUS
 62
     5
 10
0.0
 20
-428.96609999999993
 30
0.0
 11
0.0
 21
30.000035999999909
 31
0.0
  0
ARC
  8
DETAIL
  6
CONTINUOUS
 62
     5
 10
-584.32424600000013
 20
-117.88423899999999
 30
0.0
 40
10.031013
 50
186.9999999999927
 51
256.83506600001238
  0
LINE
  8
DETAIL
  6
CONTINUOUS
 62
     5
 10
-593.31922499999973
 20
-121.99701399999999
 30
0.0
 11
-541.41847499999994
 21
-28.36559699999998
 31
0.0
  0
LINE
  8
DETAIL
  6
CONTINUOUS
 62
     5
 10
-585.52029399999992
 20
-48.266524000000118
 30
0.0
 11
-482.51624900000019
 21
-0.234956000000011
 31
0.0
  0
LINE
  8
DETAIL
  6
CONTINUOUS
 62
     5
 10
-11.94184099999984
 20
-439.92570500000011
 30
0.0
 11
-117.78514
 21
-430.82979500000022
 31
0.0
  0
LINE
  8
DETAIL
  6
CONTINUOUS
 62
     5
 10
0.0
 20
0.0
 30
0.0
 11
-481.45643300000029
 21
0.0
 31
0.0
  0
ARC
  8
DETAIL
  6
CONTINUOUS
 62
     5
 10
-481.45643300000029
 20
-2.507752999999866
 30
0.0
 40
2.5077529999999988
 50
90.0
 51
115.00000000000669
  0
ARC
  8
DETAIL
  6
CONTINUOUS
 62
     5
 10
-574.92206699999997
 20
-70.994490999999925
 30
0.0
 40
25.077531
 50
115.00000000000669
 51
186.9999999999927
  0
ARC
  8
DETAIL
  6
CONTINUOUS
 62
     5
 10
-109.18972500000019
 20
-330.88861200000002
 30
0.0
 40
100.310125
 50
231.83578399999669
 51
265.08821200000392
  0
LINE
  8
DETAIL
  6
CONTINUOUS
 62
     5
 10
-170.26867800000039
 20
-410.45922700000011
 30
0.0
 11
-449.62849099999988
 21
-193.47154
 31
0.0
  0
LINE
  8
DETAIL
  6
CONTINUOUS
 62
     5
 10
-594.28048699999999
 20
-119.106708
 30
0.0
 11
-599.81268099999988
 21
-74.050670000000082
 31
0.0
  0
ARC
  8
DETAIL
  6
CONTINUOUS
 62
     5
 10
-666.57032299999992
 20
-469.50999800000011
 30
0.0
 40
351.08543900000001
 50
51.835783999996757
 51
76.835066000012446
  0
LINE
  8
SIZE
  6
CONTINUOUS
 62
    30
 10
0.0
 20
50.000035999999909
 30
0.0
 11
0.0
 21
1205.718961658444
 31
0.0
  0
LINE
  8
SIZE
  6
CONTINUOUS
 62
    30
 10
-599.99959899999976
 20
-50.994490999999933
 30
0.0
 11
-599.99959899999976
 21
1205.718961658444
 31
0.0
  0
LINE
  8
SIZE
  6
CONTINUOUS
 62
    30
 10
-12.0
 20
1185.718961658443
 30
0.0
 11
-587.99959899999976
 21
1185.718961658443
 31
0.0
  0
CIRCLE
  8
SIZE
  6
CONTINUOUS
 62
    30
 10
0.0
 20
1185.718961658443
 30
0.0
 40
6.0
  0
LINE
  8
SIZE
  6
CONTINUOUS
 62
    30
 10
0.0
 20
1185.718961658443
 30
0.0
 11
-12.0
 21
1185.718961658443
 31
0.0
  0
CIRCLE
  8
SIZE
  6
CONTINUOUS
 62
    30
 10
-599.99959899999976
 20
1185.718961658443
 30
0.0
 40
6.0
  0
LINE
  8
SIZE
  6
CONTINUOUS
 62
    30
 10
-599.99959899999976
 20
1185.718961658443
 30
0.0
 11
-587.99959899999976
 21
1185.718961658443
 31
0.0
  0
TEXT
  8
SIZE
  6
CONTINUOUS
 62
    30
 10
-374.05694185714299
 20
1210.718961658443
 30
0.0
 40
64.0
  1
600
 41
0.9
 72
     1
 11
-299.99979900000022
 21
1210.718961658443
 31
0.0
  0
LINE
  8
SIZE
  6
CONTINUOUS
 62
    30
 10
0.0
 20
50.000035999999909
 30
0.0
 11
0.0
 21
1205.718961658444
 31
0.0
  0
LINE
  8
SIZE
  6
CONTINUOUS
 62
    30
 10
6.018608000000313
 20
46.990733000000091
 30
0.0
 11
6.018608000000313
 21
1205.718961658444
 31
0.0
  0
LINE
  8
SIZE
  6
CONTINUOUS
 62
    30
 10
-12.0
 20
1185.718961658443
 30
0.0
 11
-24.0
 21
1185.718961658443
 31
0.0
  0
LINE
  8
SIZE
  6
CONTINUOUS
 62
    30
 10
18.018608000000309
 20
1185.718961658443
 30
0.0
 11
115.67575000000031
 21
1185.718961658443
 31
0.0
  0
LINE
  8
SIZE
  6
CONTINUOUS
 62
    30
 10
0.0
 20
1185.718961658443
 30
0.0
 11
6.018608000000313
 21
1185.718961658443
 31
0.0
  0
CIRCLE
  8
SIZE
  6
CONTINUOUS
 62
    30
 10
0.0
 20
1185.718961658443
 30
0.0
 40
6.0
  0
LINE
  8
SIZE
  6
CONTINUOUS
 62
    30
 10
0.0
 20
1185.718961658443
 30
0.0
 11
-12.0
 21
1185.718961658443
 31
0.0
  0
CIRCLE
  8
SIZE
  6
CONTINUOUS
 62
    30
 10
6.018608000000313
 20
1185.718961658443
 30
0.0
 40
6.0
  0
LINE
  8
SIZE
  6
CONTINUOUS
 62
    30
 10
6.018608000000313
 20
1185.718961658443
 30
0.0
 11
18.018608000000309
 21
1185.718961658443
 31
0.0
  0
TEXT
  8
SIZE
  6
CONTINUOUS
 62
    30
 10
55.018607571428902
 20
1210.718961658443
 30
0.0
 40
64.0
  1
6
 41
0.9
 72
     1
 11
72.847179000000324
 21
1210.718961658443
 31
0.0
  0
LINE
  8
SIZE
  6
CONTINUOUS
 62
    30
 10
-8.4587540000002264
 20
0.0
 30
0.0
 11
933.20482322195039
 21
0.0
 31
0.0
  0
LINE
  8
SIZE
  6
CONTINUOUS
 62
    30
 10
9.7407949999997072
 20
-440.02889800000003
 30
0.0
 11
933.20482322195039
 21
-440.02889800000003
 31
0.0
  0
LINE
  8
SIZE
  6
CONTINUOUS
 62
    30
 10
913.20482322195039
 20
-12.0
 30
0.0
 11
913.20482322195039
 21
-428.02889800000003
 31
0.0
  0
CIRCLE
  8
SIZE
  6
CONTINUOUS
 62
    30
 10
913.20482322195039
 20
0.0
 30
0.0
 40
6.0
  0
LINE
  8
SIZE
  6
CONTINUOUS
 62
    30
 10
913.20482322195039
 20
0.0
 30
0.0
 11
913.20482322195039
 21
-12.0
 31
0.0
  0
CIRCLE
  8
SIZE
  6
CONTINUOUS
 62
    30
 10
913.20482322195039
 20
-440.02889800000003
 30
0.0
 40
6.0
  0
LINE
  8
SIZE
  6
CONTINUOUS
 62
    30
 10
913.20482322195039
 20
-440.02889800000003
 30
0.0
 11
913.20482322195039
 21
-428.02889800000003
 31
0.0
  0
TEXT
  8
SIZE
  6
CONTINUOUS
 62
    30
 10
888.20482322195039
 20
-294.07159185714278
 30
0.0
 40
64.0
  1
440
 50
90.0
 41
0.9
 72
     1
 11
888.20482322195039
 21
-220.01444900000001
 31
0.0
  0
LINE
  8
SIZE
  6
CONTINUOUS
 62
    30
 10
0.9594990000005055
 20
-438.67869599999989
 30
0.0
 11
0.9594990000005055
 21
-570.40526199999977
 31
0.0
  0
LINE
  8
SIZE
  6
CONTINUOUS
 62
    30
 10
-147.3092230000002
 20
-448.29256900000001
 30
0.0
 11
-147.3092230000002
 21
-570.40526199999977
 31
0.0
  0
LINE
  8
SIZE
  6
CONTINUOUS
 62
    30
 10
12.959499000000511
 20
-550.40526199999999
 30
0.0
 11
24.959499000000509
 21
-550.40526199999999
 31
0.0
  0
LINE
  8
SIZE
  6
CONTINUOUS
 62
    30
 10
-159.3092230000002
 20
-550.40526199999999
 30
0.0
 11
-171.3092230000002
 21
-550.40526199999999
 31
0.0
  0
LINE
  8
SIZE
  6
CONTINUOUS
 62
    30
 10
0.9594990000005055
 20
-550.40526199999999
 30
0.0
 11
-147.3092230000002
 21
-550.40526199999999
 31
0.0
  0
CIRCLE
  8
SIZE
  6
CONTINUOUS
 62
    30
 10
0.9594990000005055
 20
-550.40526199999999
 30
0.0
 40
6.0
  0
LINE
  8
SIZE
  6
CONTINUOUS
 62
    30
 10
0.9594990000005055
 20
-550.40526199999999
 30
0.0
 11
12.959499000000511
 21
-550.40526199999999
 31
0.0
  0
CIRCLE
  8
SIZE
  6
CONTINUOUS
 62
    30
 10
-147.3092230000002
 20
-550.40526199999999
 30
0.0
 40
6.0
  0
LINE
  8
SIZE
  6
CONTINUOUS
 62
    30
 10
-147.3092230000002
 20
-550.40526199999999
 30
0.0
 11
-159.3092230000002
 21
-550.40526199999999
 31
0.0
  0
TEXT
  8
SIZE
  6
CONTINUOUS
 62
    30
 10
-141.7462905714284
 20
-525.40526199999999
 30
0.0
 40
64.0
  1
148
 41
0.9
 72
     1
 11
-73.174861999999848
 21
-525.40526199999999
 31
0.0
  0
LINE
  8
SIZE
  6
CONTINUOUS
 62
    30
 10
-590.62330399999973
 20
-145.69084299999989
 30
0.0
 11
-590.62330399999973
 21
-654.32707400000004
 31
0.0
  0
LINE
  8
SIZE
  6
CONTINUOUS
 62
    30
 10
0.9722860000001674
 20
-446.74762299999998
 30
0.0
 11
0.9722860000001674
 21
-654.32707400000004
 31
0.0
  0
LINE
  8
SIZE
  6
CONTINUOUS
 62
    30
 10
-578.62330399999973
 20
-634.32707400000004
 30
0.0
 11
-11.027713999999831
 21
-634.32707400000004
 31
0.0
  0
CIRCLE
  8
SIZE
  6
CONTINUOUS
 62
    30
 10
-590.62330399999973
 20
-634.32707400000004
 30
0.0
 40
6.0
  0
LINE
  8
SIZE
  6
CONTINUOUS
 62
    30
 10
-590.62330399999973
 20
-634.32707400000004
 30
0.0
 11
-578.62330399999973
 21
-634.32707400000004
 31
0.0
  0
CIRCLE
  8
SIZE
  6
CONTINUOUS
 62
    30
 10
0.9722860000001674
 20
-634.32707400000004
 30
0.0
 40
6.0
  0
LINE
  8
SIZE
  6
CONTINUOUS
 62
    30
 10
0.9722860000001674
 20
-634.32707400000004
 30
0.0
 11
-11.027713999999831
 21
-634.32707400000004
 31
0.0
  0
TEXT
  8
SIZE
  6
CONTINUOUS
 62
    30
 10
-368.88265185714312
 20
-609.32707400000004
 30
0.0
 40
64.0
  1
592
 41
0.9
 72
     1
 11
-294.82550900000018
 21
-609.32707400000004
 31
0.0
  0
LINE
  8
SIZE
  6
CONTINUOUS
 62
    30
 10
-300.32851599999998
 20
24.086152999999971
 30
0.0
 11
-300.32851599999998
 21
805.29257865844374
 31
0.0
  0
LINE
  8
SIZE
  6
CONTINUOUS
 62
    30
 10
0.0
 20
50.000035999999909
 30
0.0
 11
0.0
 21
805.29257865844374
 31
0.0
  0
LINE
  8
SIZE
  6
CONTINUOUS
 62
    30
 10
-288.32851599999998
 20
785.29257865844374
 30
0.0
 11
-12.0
 21
785.29257865844374
 31
0.0
  0
CIRCLE
  8
SIZE
  6
CONTINUOUS
 62
    30
 10
-300.32851599999998
 20
785.29257865844374
 30
0.0
 40
6.0
  0
LINE
  8
SIZE
  6
CONTINUOUS
 62
    30
 10
-300.32851599999998
 20
785.29257865844374
 30
0.0
 11
-288.32851599999998
 21
785.29257865844374
 31
0.0
  0
CIRCLE
  8
SIZE
  6
CONTINUOUS
 62
    30
 10
0.0
 20
785.29257865844374
 30
0.0
 40
6.0
  0
LINE
  8
SIZE
  6
CONTINUOUS
 62
    30
 10
0.0
 20
785.29257865844374
 30
0.0
 11
-12.0
 21
785.29257865844374
 31
0.0
  0
TEXT
  8
SIZE
  6
CONTINUOUS
 62
    30
 10
-224.22140085714261
 20
810.29257865844374
 30
0.0
 40
64.0
  1
300
 41
0.9
 72
     1
 11
-150.16425799999979
 21
810.29257865844374
 31
0.0
  0
LINE
  8
SIZE
  6
CONTINUOUS
 62
    30
 10
0.0
 20
50.000035999999909
 30
0.0
 11
0.0
 21
929.86967565844361
 31
0.0
  0
LINE
  8
SIZE
  6
CONTINUOUS
 62
    30
 10
-14.99995800000033
 20
28.472320999999969
 30
0.0
 11
-14.99995800000033
 21
929.86967565844361
 31
0.0
  0
LINE
  8
SIZE
  6
CONTINUOUS
 62
    30
 10
-26.99995800000033
 20
909.86967565844361
 30
0.0
 11
-38.999958000000333
 21
909.86967565844361
 31
0.0
  0
LINE
  8
SIZE
  6
CONTINUOUS
 62
    30
 10
12.0
 20
909.86967565844361
 30
0.0
 11
156.28571399999959
 21
909.86967565844361
 31
0.0
  0
LINE
  8
SIZE
  6
CONTINUOUS
 62
    30
 10
-14.99995800000033
 20
909.86967565844361
 30
0.0
 11
0.0
 21
909.86967565844361
 31
0.0
  0
CIRCLE
  8
SIZE
  6
CONTINUOUS
 62
    30
 10
-14.99995800000033
 20
909.86967565844361
 30
0.0
 40
6.0
  0
LINE
  8
SIZE
  6
CONTINUOUS
 62
    30
 10
-14.99995800000033
 20
909.86967565844361
 30
0.0
 11
-26.99995800000033
 21
909.86967565844361
 31
0.0
  0
CIRCLE
  8
SIZE
  6
CONTINUOUS
 62
    30
 10
0.0
 20
909.86967565844361
 30
0.0
 40
6.0
  0
LINE
  8
SIZE
  6
CONTINUOUS
 62
    30
 10
0.0
 20
909.86967565844361
 30
0.0
 11
12.0
 21
909.86967565844361
 31
0.0
  0
TEXT
  8
SIZE
  6
CONTINUOUS
 62
    30
 10
48.99999985714269
 20
934.86967565844361
 30
0.0
 40
64.0
  1
15
 41
0.9
 72
     1
 11
90.142856999999822
 21
934.86967565844361
 31
0.0
  0
LINE
  8
SIZE
  6
CONTINUOUS
 62
    30
 10
-14.99995800000033
 20
28.472320999999969
 30
0.0
 11
-14.99995800000033
 21
929.86967565844361
 31
0.0
  0
LINE
  8
SIZE
  6
CONTINUOUS
 62
    30
 10
-330.42155300000007
 20
26.454412999999931
 30
0.0
 11
-330.42155300000007
 21
929.86967565844361
 31
0.0
  0
LINE
  8
SIZE
  6
CONTINUOUS
 62
    30
 10
-26.99995800000033
 20
909.86967565844361
 30
0.0
 11
-318.42155300000007
 21
909.86967565844361
 31
0.0
  0
CIRCLE
  8
SIZE
  6
CONTINUOUS
 62
    30
 10
-14.99995800000033
 20
909.86967565844361
 30
0.0
 40
6.0
  0
LINE
  8
SIZE
  6
CONTINUOUS
 62
    30
 10
-14.99995800000033
 20
909.86967565844361
 30
0.0
 11
-26.99995800000033
 21
909.86967565844361
 31
0.0
  0
CIRCLE
  8
SIZE
  6
CONTINUOUS
 62
    30
 10
-330.42155300000007
 20
909.86967565844361
 30
0.0
 40
6.0
  0
LINE
  8
SIZE
  6
CONTINUOUS
 62
    30
 10
-330.42155300000007
 20
909.86967565844361
 30
0.0
 11
-318.42155300000007
 21
909.86967565844361
 31
0.0
  0
TEXT
  8
SIZE
  6
CONTINUOUS
 62
    30
 10
-241.28218457142901
 20
934.86967565844361
 30
0.0
 40
64.0
  1
315
 41
0.9
 72
     1
 11
-172.7107560000004
 21
934.86967565844361
 31
0.0
  0
LINE
  8
SIZE
  6
CONTINUOUS
 62
    30
 10
0.0
 20
50.000035999999909
 30
0.0
 11
0.0
 21
1066.954952658444
 31
0.0
  0
LINE
  8
SIZE
  6
CONTINUOUS
 62
    30
 10
-345.00001100000009
 20
22.58150100000012
 30
0.0
 11
-345.00001100000009
 21
1066.954952658444
 31
0.0
  0
LINE
  8
SIZE
  6
CONTINUOUS
 62
    30
 10
-12.0
 20
1046.954952658444
 30
0.0
 11
-333.00001100000009
 21
1046.954952658444
 31
0.0
  0
CIRCLE
  8
SIZE
  6
CONTINUOUS
 62
    30
 10
0.0
 20
1046.954952658444
 30
0.0
 40
6.0
  0
LINE
  8
SIZE
  6
CONTINUOUS
 62
    30
 10
0.0
 20
1046.954952658444
 30
0.0
 11
-12.0
 21
1046.954952658444
 31
0.0
  0
CIRCLE
  8
SIZE
  6
CONTINUOUS
 62
    30
 10
-345.00001100000009
 20
1046.954952658444
 30
0.0
 40
6.0
  0
LINE
  8
SIZE
  6
CONTINUOUS
 62
    30
 10
-345.00001100000009
 20
1046.954952658444
 30
0.0
 11
-333.00001100000009
 21
1046.954952658444
 31
0.0
  0
TEXT
  8
SIZE
  6
CONTINUOUS
 62
    30
 10
-246.55714885714309
 20
1071.954952658444
 30
0.0
 40
64.0
  1
345
 41
0.9
 72
     1
 11
-172.50000600000021
 21
1071.954952658444
 31
0.0
  0
LINE
  8
NOTE
  6
CONTINUOUS
 62
     4
 10
-60.0
 20
-10.692304000000149
 30
0.0
 11
-60.0
 21
7.0263509999999769
 31
0.0
  0
CIRCLE
  8
FIX
  6
CONTINUOUS
 62
    11
 10
-14.99995800000033
 20
-0.601861000000099
 30
0.0
 40
2.5
  0
CIRCLE
  8
FIX
  6
CONTINUOUS
 62
    11
 10
-60.0
 20
0.0
 30
0.0
 40
2.5
  0
CIRCLE
  8
FIX
  6
CONTINUOUS
 62
    11
 10
-345.00001100000009
 20
0.0
 30
0.0
 40
2.5
  0
CIRCLE
  8
FIX
  6
CONTINUOUS
 62
    11
 10
-330.42155300000007
 20
0.0
 30
0.0
 40
2.5
  0
CIRCLE
  8
FIX
  6
CONTINUOUS
 62
    11
 10
-300.32851599999998
 20
0.0
 30
0.0
 40
2.5
  0
LINE
  8
NOTE
  6
CONTINUOUS
 62
     4
 10
280.09930300000002
 20
218.16346900000011
 30
0.0
 11
-12.80395899999985
 21
0.5929559999999583
 31
0.0
  0
LINE
  8
NOTE
  6
CONTINUOUS
 62
     4
 10
-2.310021000000233
 20
12.961663000000041
 30
0.0
 11
-12.80395899999985
 21
0.5929559999999583
 31
0.0
  0
LINE
  8
NOTE
  6
CONTINUOUS
 62
     4
 10
-12.80395899999985
 20
0.5929559999999583
 30
0.0
 11
-12.80395899999985
 21
0.5929559999999583
 31
0.0
  0
LINE
  8
NOTE
  6
CONTINUOUS
 62
     4
 10
-12.80395899999985
 20
0.5929559999999583
 30
0.0
 11
3.0248320000000599
 21
4.5673779999999624
 31
0.0
  0
LINE
  8
NOTE
  6
CONTINUOUS
 62
     4
 10
280.09930300000002
 20
349.27329000000009
 30
0.0
 11
431.79715000000027
 21
349.27329000000009
 31
0.0
  0
TEXT
  8
NOTE
  6
CONTINUOUS
 62
     4
 10
309.02459199999981
 20
367.07440900000029
 30
0.0
 40
64.0
  1
EL
 41
0.9
  0
LINE
  8
NOTE
  6
CONTINUOUS
 62
     4
 10
280.09930300000002
 20
349.27329000000009
 30
0.0
 11
-58.088689000000159
 21
1.6114870000001249
 31
0.0
  0
LINE
  8
NOTE
  6
CONTINUOUS
 62
     4
 10
-52.414426000000283
 20
12.28354899999999
 30
0.0
 11
-58.088689000000159
 21
1.6114870000001249
 31
0.0
  0
LINE
  8
NOTE
  6
CONTINUOUS
 62
     4
 10
-58.088689000000159
 20
1.6114870000001249
 30
0.0
 11
-44.838214999999757
 21
7.4462619999999333
 31
0.0
  0
LINE
  8
NOTE
  6
CONTINUOUS
 62
     4
 10
18.11630499999956
 20
-244.0
 30
0.0
 11
-15.781418999999911
 21
-244.0
 31
0.0
  0
LINE
  8
SIZE
  6
CONTINUOUS
 62
    30
 10
4.3516199999994569
 20
0.0
 30
0.0
 11
814.25317122195065
 21
0.0
 31
0.0
  0
LINE
  8
SIZE
  6
CONTINUOUS
 62
    30
 10
51.893374000000222
 20
-244.0
 30
0.0
 11
814.25317122195065
 21
-244.0
 31
0.0
  0
LINE
  8
SIZE
  6
CONTINUOUS
 62
    30
 10
794.25317122195065
 20
-12.0
 30
0.0
 11
794.25317122195065
 21
-232.0
 31
0.0
  0
CIRCLE
  8
SIZE
  6
CONTINUOUS
 62
    30
 10
794.25317122195065
 20
0.0
 30
0.0
 40
6.0
  0
LINE
  8
SIZE
  6
CONTINUOUS
 62
    30
 10
794.25317122195065
 20
0.0
 30
0.0
 11
794.25317122195065
 21
-12.0
 31
0.0
  0
CIRCLE
  8
SIZE
  6
CONTINUOUS
 62
    30
 10
794.25317122195065
 20
-244.0
 30
0.0
 40
6.0
  0
LINE
  8
SIZE
  6
CONTINUOUS
 62
    30
 10
794.25317122195065
 20
-244.0
 30
0.0
 11
794.25317122195065
 21
-232.0
 31
0.0
  0
TEXT
  8
SIZE
  6
CONTINUOUS
 62
    30
 10
769.25317122195065
 20
-197.42857142857139
 30
0.0
 40
64.0
  1
244
 50
90.0
 41
0.9
 72
     1
 11
769.25317122195065
 21
-122.0
 31
0.0
  0
LINE
  8
NOTE
  6
CONTINUOUS
 62
     4
 10
18.11630499999956
 20
-364.0
 30
0.0
 11
-17.718421999999919
 21
-364.0
 31
0.0
  0
LINE
  8
SIZE
  6
CONTINUOUS
 62
    30
 10
38.116304999999556
 20
-244.0
 30
0.0
 11
814.25317122195065
 21
-244.0
 31
0.0
  0
LINE
  8
SIZE
  6
CONTINUOUS
 62
    30
 10
38.116304999999556
 20
-364.0
 30
0.0
 11
814.25317122195065
 21
-364.0
 31
0.0
  0
LINE
  8
SIZE
  6
CONTINUOUS
 62
    30
 10
794.25317122195065
 20
-256.0
 30
0.0
 11
794.25317122195065
 21
-352.0
 31
0.0
  0
LINE
  8
SIZE
  6
CONTINUOUS
 62
    30
 10
794.25317122195065
 20
-364.0
 30
0.0
 11
794.25317122195065
 21
-622.8972779999998
 31
0.0
  0
CIRCLE
  8
SIZE
  6
CONTINUOUS
 62
    30
 10
794.25317122195065
 20
-244.0
 30
0.0
 40
6.0
  0
LINE
  8
SIZE
  6
CONTINUOUS
 62
    30
 10
794.25317122195065
 20
-244.0
 30
0.0
 11
794.25317122195065
 21
-256.0
 31
0.0
  0
CIRCLE
  8
SIZE
  6
CONTINUOUS
 62
    30
 10
794.25317122195065
 20
-364.0
 30
0.0
 40
6.0
  0
LINE
  8
SIZE
  6
CONTINUOUS
 62
    30
 10
794.25317122195065
 20
-364.0
 30
0.0
 11
794.25317122195065
 21
-352.0
 31
0.0
  0
TEXT
  8
SIZE
  6
CONTINUOUS
 62
    30
 10
769.25317122195065
 20
-597.8972785714285
 30
0.0
 40
64.0
  1
120
 50
90.0
 41
0.9
 72
     1
 11
769.25317122195065
 21
-529.32584999999995
 31
0.0
  0
CIRCLE
  8
FIX
  6
CONTINUOUS
 62
    11
 10
0.6826860000001034
 20
-244.0
 30
0.0
 40
2.5
  0
CIRCLE
  8
FIX
  6
CONTINUOUS
 62
    11
 10
0.9126240000005055
 20
-364.0
 30
0.0
 40
2.5
  0
LINE
  8
NOTE
  6
CONTINUOUS
 62
     4
 10
180.96528899999981
 20
-798.41694600000005
 30
0.0
 11
2.6700909999999571
 21
-365.778008
 31
0.0
  0
LINE
  8
NOTE
  6
CONTINUOUS
 62
     4
 10
11.194596000000271
 20
-374.07221699999991
 30
0.0
 11
2.6700909999999571
 21
-365.778008
 31
0.0
  0
LINE
  8
NOTE
  6
CONTINUOUS
 62
     4
 10
2.6700909999999571
 20
-365.778008
 30
0.0
 11
3.517531999999846
 21
-376.27713699999998
 31
0.0
  0
LINE
  8
NOTE
  6
CONTINUOUS
 62
     4
 10
-669.0819190000002
 20
227.0049249999997
 30
0.0
 11
-302.45745600000009
 21
1.310578000000078
 31
0.0
  0
LINE
  8
NOTE
  6
CONTINUOUS
 62
     4
 10
-312.36353000000008
 20
12.880513000000059
 30
0.0
 11
-302.45745600000009
 21
1.310578000000078
 31
0.0
  0
LINE
  8
NOTE
  6
CONTINUOUS
 62
     4
 10
-302.45745600000009
 20
1.310578000000078
 30
0.0
 11
-318.45790699999998
 21
5.8790619999999763
 31
0.0
  0
LINE
  8
NOTE
  6
CONTINUOUS
 62
     4
 10
-1779.2943359999999
 20
-302.94062500000001
 30
0.0
 11
-1004.910074
 21
-302.94062500000001
 31
0.0
  0
TEXT
  8
NOTE
  6
CONTINUOUS
 62
     4
 10
-1750.369046
 20
-285.1395050000001
 30
0.0
 40
64.0
  1
2-φ6幕板用取付用穴
 41
0.9
  0
LINE
  8
NOTE
  6
CONTINUOUS
 62
     4
 10
-1004.910074
 20
-302.94062500000001
 30
0.0
 11
-347.07303400000001
 21
-1.604961999999887
 31
0.0
  0
LINE
  8
NOTE
  6
CONTINUOUS
 62
     4
 10
-360.03227900000002
 20
-4.4698240000000169
 30
0.0
 11
-347.07303400000001
 21
-1.604961999999887
 31
0.0
  0
LINE
  8
NOTE
  6
CONTINUOUS
 62
     4
 10
-347.07303400000001
 20
-1.604961999999887
 30
0.0
 11
-356.48547100000002
 21
-10.905925000000019
 31
0.0
  0
LINE
  8
NOTE
  6
CONTINUOUS
 62
     4
 10
-988.37359900000001
 20
-421.00262800000002
 30
0.0
 11
-347.92869999999988
 21
-2.545014000000037
 31
0.0
  0
ARC
  8
OUTLINE
  6
CONTINUOUS
 62
     3
 10
-600.88139499999988
 20
-90.900944999999865
 30
0.0
 40
0.20062
 50
98.000000000013785
 51
134.79889599998199
  0
ARC
  8
OUTLINE
  6
CONTINUOUS
 62
     3
 10
-601.44950100000005
 20
-91.465079999999944
 30
0.0
 40
0.20062
 50
134.79889599998199
 51
172.7773940000059
  0
LINE
  8
OUTLINE
  6
CONTINUOUS
 62
     3
 10
-601.02275199999985
 20
-90.758585000000039
 30
0.0
 11
-601.59086799999977
 21
-91.322728999999981
 31
0.0
  0
LINE
  8
OUTLINE
  6
CONTINUOUS
 62
     3
 10
-598.91764400000011
 20
-90.422366000000011
 30
0.0
 11
-600.90931099999989
 21
-90.702280999999857
 31
0.0
  0
ARC
  8
OUTLINE
  6
CONTINUOUS
 62
     3
 10
-600.13998300000003
 20
-102.13028300000001
 30
0.0
 40
0.20062
 50
201.2226059999978
 51
239.2011040000113
  0
ARC
  8
OUTLINE
  6
CONTINUOUS
 62
     3
 10
-579.75540999999976
 20
-94.214379000000008
 30
0.0
 40
22.068228000000001
 50
172.7773940000059
 51
201.2226059999978
  0
LINE
  8
OUTLINE
  6
CONTINUOUS
 62
     3
 10
-599.55499400000008
 20
-102.7125529999998
 30
0.0
 11
-600.24270999999999
 21
-102.3026159999999
 31
0.0
  0
ARC
  8
OUTLINE
  6
CONTINUOUS
 62
     3
 10
-599.45226700000012
 20
-102.54023000000009
 30
0.0
 40
0.20062
 50
239.2011040000113
 51
275.99999999998232
  0
LINE
  8
OUTLINE
  6
CONTINUOUS
 62
     3
 10
-597.43106799999987
 20
-102.5295169999999
 30
0.0
 11
-599.43130199999996
 21
-102.73974700000009
 31
0.0
  0
LINE
  8
OUTLINE
  6
CONTINUOUS
 62
     3
 10
-599.98437199999989
 20
-81.734496000000036
 30
0.0
 11
-598.91763600000013
 21
-90.4223649999999
 31
0.0
  0
LINE
  8
OUTLINE
  6
CONTINUOUS
 62
     3
 10
-599.92282100000011
 20
-81.512549999999919
 30
0.0
 11
-599.21655800000008
 21
-80.608574999999973
 31
0.0
  0
LINE
  8
OUTLINE
  6
CONTINUOUS
 62
     3
 10
-595.74493500000017
 20
-115.5387470000001
 30
0.0
 11
-594.84096
 21
-116.24501100000001
 31
0.0
  0
ARC
  8
OUTLINE
  6
CONTINUOUS
 62
     3
 10
-599.68568800000003
 20
-81.697822000000087
 30
0.0
 40
0.30093
 50
141.99999999999261
 51
186.9999999999927
  0
ARC
  8
OUTLINE
  6
CONTINUOUS
 62
     3
 10
-595.55966200000012
 20
-115.301604
 30
0.0
 40
0.30093
 50
186.9999999999927
 51
231.99999999998749
  0
ARC
  8
OUTLINE
  6
CONTINUOUS
 62
     3
 10
-594.6556870000004
 20
-116.00787799999991
 30
0.0
 40
0.30093
 50
231.99999999998749
 51
275.99999999998232
  0
ARC
  8
OUTLINE
  6
CONTINUOUS
 62
     3
 10
-598.97942499999999
 20
-80.793848000000025
 30
0.0
 40
0.30093
 50
98.000000000013785
 51
141.99999999999261
  0
ARC
  8
OUTLINE
  6
CONTINUOUS
 62
     3
 10
-584.32424600000013
 20
-117.88423899999999
 30
0.0
 40
10.031013
 50
186.9999999999927
 51
256.83506600001238
  0
LINE
  8
OUTLINE
  6
CONTINUOUS
 62
     3
 10
-585.52029399999992
 20
-48.266524000000118
 30
0.0
 11
-482.51624900000019
 21
-0.234956000000011
 31
0.0
  0
LINE
  8
OUTLINE
  6
CONTINUOUS
 62
     3
 10
-11.221139000000219
 20
-439.98764000000011
 30
0.0
 11
-117.78514
 21
-430.82979500000022
 31
0.0
  0
LINE
  8
OUTLINE
  6
CONTINUOUS
 62
     3
 10
0.0
 20
0.0
 30
0.0
 11
-25.0
 21
0.0
 31
0.0
  0
LINE
  8
OUTLINE
  6
CONTINUOUS
 62
     3
 10
-225.0
 20
0.0
 30
0.0
 11
-481.45643300000029
 21
0.0
 31
0.0
  0
ARC
  8
OUTLINE
  6
CONTINUOUS
 62
     3
 10
-481.45643300000029
 20
-2.507752999999866
 30
0.0
 40
2.5077529999999988
 50
90.0
 51
115.00000000000669
  0
ARC
  8
OUTLINE
  6
CONTINUOUS
 62
     3
 10
-574.92206699999997
 20
-70.994490999999925
 30
0.0
 40
25.077531
 50
115.00000000000669
 51
186.9999999999927
  0
ARC
  8
OUTLINE
  6
CONTINUOUS
 62
     3
 10
-109.18972500000019
 20
-330.88861200000002
 30
0.0
 40
100.310125
 50
231.83578399999669
 51
265.08821200000392
  0
LINE
  8
OUTLINE
  6
CONTINUOUS
 62
     3
 10
-170.26867800000039
 20
-410.45922700000011
 30
0.0
 11
-449.62849099999988
 21
-193.47154
 31
0.0
  0
LINE
  8
OUTLINE
  6
CONTINUOUS
 62
     3
 10
-594.28048699999999
 20
-119.106708
 30
0.0
 11
-594.62423099999978
 21
-116.3071600000001
 31
0.0
  0
ARC
  8
OUTLINE
  6
CONTINUOUS
 62
     3
 10
-666.57032299999992
 20
-469.50999800000011
 30
0.0
 40
351.08543900000001
 50
51.835783999996757
 51
76.835066000012446
  0
LINE
  8
OUTLINE
  6
CONTINUOUS
 62
     3
 10
-599.19125600000007
 20
-79.111765000000105
 30
0.0
 11
-599.81268099999988
 21
-74.050670000000082
 31
0.0
  0
LINE
  8
OUTLINE
  6
CONTINUOUS
 62
     3
 10
-599.02130799999986
 20
-80.495846000000029
 30
0.0
 11
-599.26771599999984
 21
-78.489012000000002
 31
0.0
  0
LINE
  8
OUTLINE
  6
CONTINUOUS
 62
     3
 10
-597.43106399999988
 20
-102.5295169999999
 30
0.0
 11
-595.85834499999964
 21
-115.33828799999991
 31
0.0
  0
LINE
  8
SIZE
  6
CONTINUOUS
 62
    30
 10
0.0
 20
50.000035999999909
 30
0.0
 11
0.0
 21
261.77072800000002
 31
0.0
  0
LINE
  8
SIZE
  6
CONTINUOUS
 62
    30
 10
-60.0
 20
27.02635099999998
 30
0.0
 11
-60.0
 21
261.77072800000002
 31
0.0
  0
LINE
  8
SIZE
  6
CONTINUOUS
 62
    30
 10
-72.0
 20
241.77072799999999
 30
0.0
 11
-84.0
 21
241.77072799999999
 31
0.0
  0
LINE
  8
SIZE
  6
CONTINUOUS
 62
    30
 10
12.0
 20
241.77072799999999
 30
0.0
 11
167.25714299999979
 21
241.77072799999999
 31
0.0
  0
LINE
  8
SIZE
  6
CONTINUOUS
 62
    30
 10
-60.0
 20
241.77072799999999
 30
0.0
 11
0.0
 21
241.77072799999999
 31
0.0
  0
CIRCLE
  8
SIZE
  6
CONTINUOUS
 62
    30
 10
-60.0
 20
241.77072799999999
 30
0.0
 40
6.0
  0
LINE
  8
SIZE
  6
CONTINUOUS
 62
    30
 10
-60.0
 20
241.77072799999999
 30
0.0
 11
-72.0
 21
241.77072799999999
 31
0.0
  0
CIRCLE
  8
SIZE
  6
CONTINUOUS
 62
    30
 10
0.0
 20
241.77072799999999
 30
0.0
 40
6.0
  0
LINE
  8
SIZE
  6
CONTINUOUS
 62
    30
 10
0.0
 20
241.77072799999999
 30
0.0
 11
12.0
 21
241.77072799999999
 31
0.0
  0
TEXT
  8
SIZE
  6
CONTINUOUS
 62
    30
 10
48.999999571428773
 20
266.77072800000002
 30
0.0
 40
64.0
  1
60
 41
0.9
 72
     1
 11
95.628571000000193
 21
266.77072800000002
 31
0.0
  0
LINE
  8
DETAIL
  6
CONTINUOUS
 62
     5
 10
1.604961999999432
 20
-171.530315
 30
0.0
 11
1.604961999999432
 21
-171.530315
 31
0.0
  0
LINE
  8
DETAIL
  6
CONTINUOUS
 62
     5
 10
3.009302999999818
 20
-171.530315
 30
0.0
 11
0.0
 21
-171.530315
 31
0.0
  0
ARC
  8
DETAIL
  6
CONTINUOUS
 62
     5
 10
-11.0
 20
-428.96609999999993
 30
0.0
 40
11.0
 50
265.08821100001057
 51
0.0
  0
LINE
  8
NOTE
  6
CONTINUOUS
 62
     4
 10
12.62536700000055
 20
16.0
 30
0.0
 11
-9.6944579999999405
 21
16.0
 31
0.0
  0
LINE
  8
NOTE
  6
CONTINUOUS
 62
     4
 10
12.42616100000032
 20
23.0
 30
0.0
 11
-9.6944579999999405
 21
23.0
 31
0.0
  0
CIRCLE
  8
FIX
  6
CONTINUOUS
 62
    11
 10
0.0
 20
16.0
 30
0.0
 40
2.5
  0
LINE
  8
SIZE
  6
CONTINUOUS
 62
    30
 10
20.0
 20
0.0
 30
0.0
 11
581.91276324661249
 21
0.0
 31
0.0
  0
LINE
  8
SIZE
  6
CONTINUOUS
 62
    30
 10
32.625367000000551
 20
16.0
 30
0.0
 11
581.91276324661249
 21
16.0
 31
0.0
  0
LINE
  8
SIZE
  6
CONTINUOUS
 62
    30
 10
561.91276324661249
 20
-12.0
 30
0.0
 11
561.91276324661249
 21
-24.0
 31
0.0
  0
LINE
  8
SIZE
  6
CONTINUOUS
 62
    30
 10
561.91276324661249
 20
28.0
 30
0.0
 11
561.91276324661249
 21
169.54285699999991
 31
0.0
  0
LINE
  8
SIZE
  6
CONTINUOUS
 62
    30
 10
561.91276324661249
 20
0.0
 30
0.0
 11
561.91276324661249
 21
16.0
 31
0.0
  0
CIRCLE
  8
SIZE
  6
CONTINUOUS
 62
    30
 10
561.91276324661249
 20
0.0
 30
0.0
 40
6.0
  0
LINE
  8
SIZE
  6
CONTINUOUS
 62
    30
 10
561.91276324661249
 20
0.0
 30
0.0
 11
561.91276324661249
 21
-12.0
 31
0.0
  0
CIRCLE
  8
SIZE
  6
CONTINUOUS
 62
    30
 10
561.91276324661249
 20
16.0
 30
0.0
 40
6.0
  0
LINE
  8
SIZE
  6
CONTINUOUS
 62
    30
 10
561.91276324661249
 20
16.0
 30
0.0
 11
561.91276324661249
 21
28.0
 31
0.0
  0
TEXT
  8
SIZE
  6
CONTINUOUS
 62
    30
 10
536.91276324661249
 20
65.00000042857134
 30
0.0
 40
64.0
  1
16
 50
90.0
 41
0.9
 72
     1
 11
536.91276324661249
 21
104.7714289999999
 31
0.0
  0
LINE
  8
SIZE
  6
CONTINUOUS
 62
    30
 10
32.625367000000551
 20
16.0
 30
0.0
 11
469.32062324661268
 21
16.0
 31
0.0
  0
LINE
  8
SIZE
  6
CONTINUOUS
 62
    30
 10
32.42616100000032
 20
23.0
 30
0.0
 11
469.32062324661268
 21
23.0
 31
0.0
  0
LINE
  8
SIZE
  6
CONTINUOUS
 62
    30
 10
449.32062324661268
 20
4.0
 30
0.0
 11
449.32062324661268
 21
-8.0
 31
0.0
  0
LINE
  8
SIZE
  6
CONTINUOUS
 62
    30
 10
449.32062324661268
 20
35.0
 30
0.0
 11
449.32062324661268
 21
142.400036
 31
0.0
  0
LINE
  8
SIZE
  6
CONTINUOUS
 62
    30
 10
449.32062324661268
 20
16.0
 30
0.0
 11
449.32062324661268
 21
23.0
 31
0.0
  0
CIRCLE
  8
SIZE
  6
CONTINUOUS
 62
    30
 10
449.32062324661268
 20
16.0
 30
0.0
 40
6.0
  0
LINE
  8
SIZE
  6
CONTINUOUS
 62
    30
 10
449.32062324661268
 20
16.0
 30
0.0
 11
449.32062324661268
 21
4.0
 31
0.0
  0
CIRCLE
  8
SIZE
  6
CONTINUOUS
 62
    30
 10
449.32062324661268
 20
23.0
 30
0.0
 40
6.0
  0
LINE
  8
SIZE
  6
CONTINUOUS
 62
    30
 10
449.32062324661268
 20
23.0
 30
0.0
 11
449.32062324661268
 21
35.0
 31
0.0
  0
TEXT
  8
SIZE
  6
CONTINUOUS
 62
    30
 10
424.32062324661268
 20
79.000035999999952
 30
0.0
 40
64.0
  1
7
 50
90.0
 41
0.9
 72
     1
 11
424.32062324661268
 21
98.200035999999955
 31
0.0
  0
LINE
  8
SIZE
  6
CONTINUOUS
 62
    30
 10
20.0
 20
0.0
 30
0.0
 11
698.70273824661308
 21
0.0
 31
0.0
  0
LINE
  8
SIZE
  6
CONTINUOUS
 62
    30
 10
23.00930400000016
 20
30.000035999999909
 30
0.0
 11
698.70273824661308
 21
30.000035999999909
 31
0.0
  0
LINE
  8
SIZE
  6
CONTINUOUS
 62
    30
 10
678.70273824661308
 20
-12.0
 30
0.0
 11
678.70273824661308
 21
-24.0
 31
0.0
  0
LINE
  8
SIZE
  6
CONTINUOUS
 62
    30
 10
678.70273824661308
 20
42.000035999999909
 30
0.0
 11
678.70273824661308
 21
197.25717900000001
 31
0.0
  0
LINE
  8
SIZE
  6
CONTINUOUS
 62
    30
 10
678.70273824661308
 20
0.0
 30
0.0
 11
678.70273824661308
 21
30.000035999999909
 31
0.0
  0
CIRCLE
  8
SIZE
  6
CONTINUOUS
 62
    30
 10
678.70273824661308
 20
0.0
 30
0.0
 40
6.0
  0
LINE
  8
SIZE
  6
CONTINUOUS
 62
    30
 10
678.70273824661308
 20
0.0
 30
0.0
 11
678.70273824661308
 21
-12.0
 31
0.0
  0
CIRCLE
  8
SIZE
  6
CONTINUOUS
 62
    30
 10
678.70273824661308
 20
30.000035999999909
 30
0.0
 40
6.0
  0
LINE
  8
SIZE
  6
CONTINUOUS
 62
    30
 10
678.70273824661308
 20
30.000035999999909
 30
0.0
 11
678.70273824661308
 21
42.000035999999909
 31
0.0
  0
TEXT
  8
SIZE
  6
CONTINUOUS
 62
    30
 10
653.70273824661308
 20
79.000036571428566
 30
0.0
 40
64.0
  1
30
 50
90.0
 41
0.9
 72
     1
 11
653.70273824661308
 21
125.628608
 31
0.0
  0
LINE
  8
OUTLINE
  6
CONTINUOUS
 62
     3
 10
0.0
 20
-428.96609999999993
 30
0.0
 11
0.0
 21
-171.530315
 31
0.0
  0
LINE
  8
OUTLINE
  6
CONTINUOUS
 62
     3
 10
0.0
 20
0.0
 30
0.0
 11
0.0
 21
30.000035999999909
 31
0.0
  0
ARC
  8
OUTLINE
  6
CONTINUOUS
 62
     3
 10
-11.0
 20
-428.96609999999993
 30
0.0
 40
11.0
 50
265.08821100001057
 51
0.0
  0
LINE
  8
SIZE
  6
CONTINUOUS
 62
    30
 10
0.0
 20
50.000035999999909
 30
0.0
 11
0.0
 21
380.79274099999981
 31
0.0
  0
LINE
  8
SIZE
  6
CONTINUOUS
 62
    30
 10
-125.0
 20
106.0143416758424
 30
0.0
 11
-125.0
 21
380.79274099999981
 31
0.0
  0
LINE
  8
SIZE
  6
CONTINUOUS
 62
    30
 10
-113.0
 20
360.79274099999981
 30
0.0
 11
-12.0
 21
360.79274099999981
 31
0.0
  0
LINE
  8
SIZE
  6
CONTINUOUS
 62
    30
 10
0.0
 20
360.79274099999981
 30
0.0
 11
199.14285699999979
 21
360.79274099999981
 31
0.0
  0
CIRCLE
  8
SIZE
  6
CONTINUOUS
 62
    30
 10
-125.0
 20
360.79274099999981
 30
0.0
 40
6.0
  0
LINE
  8
SIZE
  6
CONTINUOUS
 62
    30
 10
-125.0
 20
360.79274099999981
 30
0.0
 11
-113.0
 21
360.79274099999981
 31
0.0
  0
CIRCLE
  8
SIZE
  6
CONTINUOUS
 62
    30
 10
0.0
 20
360.79274099999981
 30
0.0
 40
6.0
  0
LINE
  8
SIZE
  6
CONTINUOUS
 62
    30
 10
0.0
 20
360.79274099999981
 30
0.0
 11
-12.0
 21
360.79274099999981
 31
0.0
  0
TEXT
  8
SIZE
  6
CONTINUOUS
 62
    30
 10
37.000000428571063
 20
385.79274099999981
 30
0.0
 40
64.0
  1
125
 41
0.9
 72
     1
 11
105.5714289999996
 21
385.79274099999981
 31
0.0
  0
TEXT
  8
NOTE
  6
CONTINUOUS
 62
     4
 10
-168.9068048616991
 20
75.2933711845576
 30
0.0
 40
64.0
  1
EA
 41
0.9
  0
ARC
  8
OUTLINE
  6
CONTINUOUS
 62
     3
 10
3.009304000000157
 20
26.990733000000091
 30
0.0
 40
3.0093040000000002
 50
0.0
 51
90.000000999994882
  0
ARC
  8
OUTLINE
  6
CONTINUOUS
 62
     3
 10
3.009304000000157
 20
-168.52101099999999
 30
0.0
 40
3.0093040000000002
 50
269.99998199998782
 51
0.0
  0
LINE
  8
OUTLINE
  6
CONTINUOUS
 62
     3
 10
0.0
 20
30.000035999999909
 30
0.0
 11
3.009304000000157
 21
30.000035999999909
 31
0.0
  0
LINE
  8
OUTLINE
  6
CONTINUOUS
 62
     3
 10
6.018608000000313
 20
-168.52101099999999
 30
0.0
 11
6.018608000000313
 21
26.990733000000091
 31
0.0
  0
LINE
  8
OUTLINE
  6
CONTINUOUS
 62
     3
 10
1.604961999999432
 20
-171.530315
 30
0.0
 11
1.604961999999432
 21
-171.530315
 31
0.0
  0
LINE
  8
OUTLINE
  6
CONTINUOUS
 62
     3
 10
3.009302999999818
 20
-171.530315
 30
0.0
 11
0.0
 21
-171.530315
 31
0.0
  0
LINE
  8
BASIS
  6
DASHDOT
 62
     6
 10
-125.0
 20
-46.765750000000033
 30
0.0
 11
-125.0
 21
74.765750000000025
 31
0.0
  0
LINE
  8
DETAIL
  6
CONTINUOUS
 62
     5
 10
-48.0
 20
14.0
 30
0.0
 11
-48.0
 21
4.0
 31
0.0
  0
LINE
  8
DETAIL
  6
CONTINUOUS
 62
     5
 10
-202.0
 20
14.0
 30
0.0
 11
-202.0
 21
4.0
 31
0.0
  0
LINE
  8
DETAIL
  6
CONTINUOUS
 62
     5
 10
-225.0
 20
4.0
 30
0.0
 11
-225.0
 21
0.0
 31
0.0
  0
LINE
  8
DETAIL
  6
CONTINUOUS
 62
     5
 10
-202.0
 20
14.0
 30
0.0
 11
-48.0
 21
14.0
 31
0.0
  0
LINE
  8
DETAIL
  6
CONTINUOUS
 62
     5
 10
-51.0
 20
54.0
 30
0.0
 11
-51.0
 21
14.0
 31
0.0
  0
LINE
  8
DETAIL
  6
CONTINUOUS
 62
     5
 10
-199.0
 20
14.0
 30
0.0
 11
-199.0
 21
54.0
 31
0.0
  0
LINE
  8
DETAIL
  6
CONTINUOUS
 62
     5
 10
-199.0
 20
54.0
 30
0.0
 11
-51.0
 21
54.0
 31
0.0
  0
LINE
  8
DETAIL
  6
CONTINUOUS
 62
     5
 10
-225.0
 20
4.0
 30
0.0
 11
-25.0
 21
4.0
 31
0.0
  0
LINE
  8
DETAIL
  6
CONTINUOUS
 62
     5
 10
-25.0
 20
4.0
 30
0.0
 11
-25.0
 21
0.0
 31
0.0
  0
LINE
  8
OUTLINE
  6
CONTINUOUS
 62
     3
 10
-48.0
 20
14.0
 30
0.0
 11
-48.0
 21
4.0
 31
0.0
  0
LINE
  8
OUTLINE
  6
CONTINUOUS
 62
     3
 10
-202.0
 20
14.0
 30
0.0
 11
-202.0
 21
4.0
 31
0.0
  0
LINE
  8
OUTLINE
  6
CONTINUOUS
 62
     3
 10
-225.0
 20
4.0
 30
0.0
 11
-225.0
 21
0.0
 31
0.0
  0
LINE
  8
OUTLINE
  6
CONTINUOUS
 62
     3
 10
-202.0
 20
14.0
 30
0.0
 11
-199.0
 21
14.0
 31
0.0
  0
LINE
  8
OUTLINE
  6
CONTINUOUS
 62
     3
 10
-51.0
 20
14.0
 30
0.0
 11
-48.0
 21
14.0
 31
0.0
  0
LINE
  8
OUTLINE
  6
CONTINUOUS
 62
     3
 10
-51.0
 20
54.0
 30
0.0
 11
-51.0
 21
14.0
 31
0.0
  0
LINE
  8
OUTLINE
  6
CONTINUOUS
 62
     3
 10
-199.0
 20
14.0
 30
0.0
 11
-199.0
 21
54.0
 31
0.0
  0
LINE
  8
OUTLINE
  6
CONTINUOUS
 62
     3
 10
-199.0
 20
54.0
 30
0.0
 11
-51.0
 21
54.0
 31
0.0
  0
LINE
  8
OUTLINE
  6
CONTINUOUS
 62
     3
 10
-225.0
 20
4.0
 30
0.0
 11
-202.0
 21
4.0
 31
0.0
  0
LINE
  8
OUTLINE
  6
CONTINUOUS
 62
     3
 10
-48.0
 20
4.0
 30
0.0
 11
-25.0
 21
4.0
 31
0.0
  0
LINE
  8
OUTLINE
  6
CONTINUOUS
 62
     3
 10
-25.0
 20
4.0
 30
0.0
 11
-25.0
 21
0.0
 31
0.0
  0
LINE
  8
SIZE
  6
CONTINUOUS
 62
    30
 10
-199.0
 20
74.0
 30
0.0
 11
-199.0
 21
515.01432799385748
 31
0.0
  0
LINE
  8
SIZE
  6
CONTINUOUS
 62
    30
 10
-51.0
 20
74.0
 30
0.0
 11
-51.0
 21
515.01432799385748
 31
0.0
  0
LINE
  8
SIZE
  6
CONTINUOUS
 62
    30
 10
-187.0
 20
495.01432799385748
 30
0.0
 11
-63.0
 21
495.01432799385748
 31
0.0
  0
LINE
  8
SIZE
  6
CONTINUOUS
 62
    30
 10
-51.0
 20
495.01432799385748
 30
0.0
 11
242.99096957741489
 21
495.01432799385748
 31
0.0
  0
CIRCLE
  8
SIZE
  6
CONTINUOUS
 62
    30
 10
-199.0
 20
495.01432799385748
 30
0.0
 40
6.0
  0
LINE
  8
SIZE
  6
CONTINUOUS
 62
    30
 10
-199.0
 20
495.01432799385748
 30
0.0
 11
-187.0
 21
495.01432799385748
 31
0.0
  0
CIRCLE
  8
SIZE
  6
CONTINUOUS
 62
    30
 10
-51.0
 20
495.01432799385748
 30
0.0
 40
6.0
  0
LINE
  8
SIZE
  6
CONTINUOUS
 62
    30
 10
-51.0
 20
495.01432799385748
 30
0.0
 11
-63.0
 21
495.01432799385748
 31
0.0
  0
TEXT
  8
SIZE
  6
CONTINUOUS
 62
    30
 10
10.356683863129129
 20
530.68099466052399
 30
0.0
 40
64.0
  1
φ148
 41
0.9
 72
     1
 11
119.2481124345577
 21
530.68099466052399
 31
0.0
  0
POINT
  8
DEFPOINTS
  6
CONTINUOUS
 62
    30
 10
-199.0
 20
54.0
 30
0.0
  0
POINT
  8
DEFPOINTS
  6
CONTINUOUS
 62
    30
 10
-51.0
 20
495.01432799385748
 30
0.0
  0
LINE
  8
SIZE
  6
CONTINUOUS
 62
    30
 10
-202.0
 20
34.0
 30
0.0
 11
-202.0
 21
649.77666992712329
 31
0.0
  0
LINE
  8
SIZE
  6
CONTINUOUS
 62
    30
 10
-48.0
 20
34.0
 30
0.0
 11
-48.0
 21
649.77666992712329
 31
0.0
  0
LINE
  8
SIZE
  6
CONTINUOUS
 62
    30
 10
-190.0
 20
629.77666992712329
 30
0.0
 11
-60.0
 21
629.77666992712329
 31
0.0
  0
LINE
  8
SIZE
  6
CONTINUOUS
 62
    30
 10
-48.0
 20
629.77666992712329
 30
0.0
 11
240.64889191698421
 21
629.77666992712329
 31
0.0
  0
CIRCLE
  8
SIZE
  6
CONTINUOUS
 62
    30
 10
-202.0
 20
629.77666992712329
 30
0.0
 40
6.0
  0
LINE
  8
SIZE
  6
CONTINUOUS
 62
    30
 10
-202.0
 20
629.77666992712329
 30
0.0
 11
-190.0
 21
629.77666992712329
 31
0.0
  0
CIRCLE
  8
SIZE
  6
CONTINUOUS
 62
    30
 10
-48.0
 20
629.77666992712329
 30
0.0
 40
6.0
  0
LINE
  8
SIZE
  6
CONTINUOUS
 62
    30
 10
-48.0
 20
629.77666992712329
 30
0.0
 11
-60.0
 21
629.77666992712329
 31
0.0
  0
TEXT
  8
SIZE
  6
CONTINUOUS
 62
    30
 10
5.2717490598411976
 20
665.44333659378981
 30
0.0
 40
64.0
  1
φ154
 41
0.9
 72
     1
 11
115.5346062026983
 21
665.44333659378981
 31
0.0
  0
POINT
  8
DEFPOINTS
  6
CONTINUOUS
 62
    30
 10
-202.0
 20
14.0
 30
0.0
  0
POINT
  8
DEFPOINTS
  6
CONTINUOUS
 62
    30
 10
-48.0
 20
629.77666992712329
 30
0.0
  0
LINE
  8
SIZE
  6
CONTINUOUS
 62
    30
 10
-31.0
 20
54.0
 30
0.0
 11
316.64806605730791
 21
53.999999999999893
 31
0.0
  0
LINE
  8
SIZE
  6
CONTINUOUS
 62
    30
 10
20.000001999999771
 20
0.0
 30
0.0
 11
316.64806605730791
 21
-0.0000000000001137
 31
0.0
  0
LINE
  8
SIZE
  6
CONTINUOUS
 62
    30
 10
296.64806605730791
 20
65.999999999999886
 30
0.0
 11
296.64806605730791
 21
77.999999999999886
 31
0.0
  0
LINE
  8
SIZE
  6
CONTINUOUS
 62
    30
 10
296.64806605730791
 20
-12.00000000000011
 30
0.0
 11
296.64806605730791
 21
-170.00000000000011
 31
0.0
  0
LINE
  8
SIZE
  6
CONTINUOUS
 62
    30
 10
296.64806605730791
 20
53.999999999999893
 30
0.0
 11
296.64806605730791
 21
-0.0000000000001137
 31
0.0
  0
CIRCLE
  8
SIZE
  6
CONTINUOUS
 62
    30
 10
296.64806605730791
 20
53.999999999999893
 30
0.0
 40
6.0
  0
LINE
  8
SIZE
  6
CONTINUOUS
 62
    30
 10
296.64806605730791
 20
53.999999999999893
 30
0.0
 11
296.64806605730791
 21
65.999999999999886
 31
0.0
  0
CIRCLE
  8
SIZE
  6
CONTINUOUS
 62
    30
 10
296.64806605730791
 20
-0.0000000000001137
 30
0.0
 40
6.0
  0
LINE
  8
SIZE
  6
CONTINUOUS
 62
    30
 10
296.64806605730791
 20
-0.0000000000001137
 30
0.0
 11
296.64806605730791
 21
-12.00000000000011
 31
0.0
  0
TEXT
  8
SIZE
  6
CONTINUOUS
 62
    30
 10
271.64806605730791
 20
-145.0
 30
0.0
 40
64.0
  1
54
 50
90.0
 41
0.9
 72
     1
 11
271.64806605730791
 21
-97.0
 31
0.0
  0
POINT
  8
DEFPOINTS
  6
CONTINUOUS
 62
    30
 10
0.0000019999997676
 20
0.0
 30
0.0
  0
POINT
  8
DEFPOINTS
  6
CONTINUOUS
 62
    30
 10
296.64806605730791
 20
-0.0000000000001137
 30
0.0
  0
LINE
  8
SIZE
  6
CONTINUOUS
 62
    30
 10
-31.0
 20
54.0
 30
0.0
 11
202.41219580767569
 21
53.999999999999893
 31
0.0
  0
LINE
  8
SIZE
  6
CONTINUOUS
 62
    30
 10
-28.0
 20
14.0
 30
0.0
 11
202.41219580767569
 21
13.99999999999989
 31
0.0
  0
LINE
  8
SIZE
  6
CONTINUOUS
 62
    30
 10
182.41219580767569
 20
65.999999999999886
 30
0.0
 11
182.41219580767569
 21
77.999999999999886
 31
0.0
  0
LINE
  8
SIZE
  6
CONTINUOUS
 62
    30
 10
182.41219580767569
 20
1.9999999999998861
 30
0.0
 11
182.41219580767569
 21
-153.2571428571429
 31
0.0
  0
LINE
  8
SIZE
  6
CONTINUOUS
 62
    30
 10
182.41219580767569
 20
53.999999999999893
 30
0.0
 11
182.41219580767569
 21
13.99999999999989
 31
0.0
  0
CIRCLE
  8
SIZE
  6
CONTINUOUS
 62
    30
 10
182.41219580767569
 20
53.999999999999893
 30
0.0
 40
6.0
  0
LINE
  8
SIZE
  6
CONTINUOUS
 62
    30
 10
182.41219580767569
 20
53.999999999999893
 30
0.0
 11
182.41219580767569
 21
65.999999999999886
 31
0.0
  0
CIRCLE
  8
SIZE
  6
CONTINUOUS
 62
    30
 10
182.41219580767569
 20
13.99999999999989
 30
0.0
 40
6.0
  0
LINE
  8
SIZE
  6
CONTINUOUS
 62
    30
 10
182.41219580767569
 20
13.99999999999989
 30
0.0
 11
182.41219580767569
 21
1.9999999999998861
 31
0.0
  0
TEXT
  8
SIZE
  6
CONTINUOUS
 62
    30
 10
157.41219580767569
 20
-128.2571428571429
 30
0.0
 40
64.0
  1
40
 50
90.0
 41
0.9
 72
     1
 11
157.41219580767569
 21
-81.62857142857149
 31
0.0
  0
POINT
  8
DEFPOINTS
  6
CONTINUOUS
 62
    30
 10
-51.0
 20
54.0
 30
0.0
  0
POINT
  8
DEFPOINTS
  6
CONTINUOUS
 62
    30
 10
-48.0
 20
14.0
 30
0.0
  0
POINT
  8
DEFPOINTS
  6
CONTINUOUS
 62
    30
 10
182.41219580767569
 20
13.99999999999989
 30
0.0
  0
ENDSEC
  0
EOF
