  0
SECTION
  2
HEADER
  9
$ACADVER
  1
AC1009
  9
$DWGCODEPAGE
  3
dos932
  9
$INSBASE
 10
0.0
 20
0.0
 30
0.0
  9
$EXTMIN
 10
-982.9604941105481
 20
-798.52293792474484
 30
-0.0015258207003583
  9
$EXTMAX
 10
1994.471753417132
 20
1355.438241333977
 30
0.0000000349246037
  9
$LIMMIN
 10
-2970.0
 20
-2100.0
  9
$LIMMAX
 10
2970.0
 20
2100.0
  9
$ORTHOMODE
 70
     1
  9
$REGENMODE
 70
     1
  9
$FILLMODE
 70
     1
  9
$QTEXTMODE
 70
     0
  9
$MIRRTEXT
 70
     0
  9
$LTSCALE
 40
20.0
  9
$ATTMODE
 70
     1
  9
$TEXTSIZE
 40
64.0
  9
$TRACEWID
 40
0.05
  9
$TEXTSTYLE
  7
STANDARD
  9
$CLAYER
  8
SIZE
  9
$CELTYPE
  6
CONTINUOUS
  9
$CECOLOR
 62
     7
  9
$DIMSCALE
 40
1.0
  9
$DIMASZ
 40
12.0
  9
$DIMEXO
 40
20.0
  9
$DIMDLI
 40
200.0
  9
$DIMRND
 40
0.0
  9
$DIMDLE
 40
0.0
  9
$DIMEXE
 40
20.0
  9
$DIMTP
 40
0.0
  9
$DIMTM
 40
0.0
  9
$DIMTXT
 40
64.0
  9
$DIMCEN
 40
0.09
  9
$DIMTSZ
 40
0.0
  9
$DIMTOL
 70
     0
  9
$DIMLIM
 70
     0
  9
$DIMTIH
 70
     0
  9
$DIMTOH
 70
     0
  9
$DIMSE1
 70
     0
  9
$DIMSE2
 70
     0
  9
$DIMTAD
 70
     1
  9
$DIMZIN
 70
     8
  9
$DIMBLK
  1

  9
$DIMASO
 70
     1
  9
$DIMSHO
 70
     0
  9
$DIMPOST
  1

  9
$DIMAPOST
  1

  9
$DIMALT
 70
     0
  9
$DIMALTD
 70
     2
  9
$DIMALTF
 40
25.399999999999999
  9
$DIMLFAC
 40
1.0
  9
$DIMTOFL
 70
     1
  9
$DIMTVP
 40
0.0
  9
$DIMTIX
 70
     1
  9
$DIMSOXD
 70
     0
  9
$DIMSAH
 70
     0
  9
$DIMBLK1
  1

  9
$DIMBLK2
  1

  9
$DIMSTYLE
  2
STANDARD
  9
$DIMCLRD
 70
     7
  9
$DIMCLRE
 70
     7
  9
$DIMCLRT
 70
     7
  9
$DIMTFAC
 40
1.0
  9
$DIMGAP
 40
25.0
  9
$LUNITS
 70
     2
  9
$LUPREC
 70
     4
  9
$SKETCHINC
 40
0.1
  9
$FILLETRAD
 40
3.0
  9
$AUNITS
 70
     1
  9
$AUPREC
 70
     3
  9
$MENU
  1
ACAD
  9
$ELEVATION
 40
0.0
  9
$PELEVATION
 40
0.0
  9
$THICKNESS
 40
0.0
  9
$LIMCHECK
 70
     0
  9
$CHAMFERA
 40
0.0
  9
$CHAMFERB
 40
0.0
  9
$SKPOLY
 70
     0
  9
$TDCREATE
 40
2453019.62301037
  9
$TDUPDATE
 40
2459025.585923738
  9
$TDINDWG
 40
1.7147150579
  9
$TDUSRTIMER
 40
1.7147150579
  9
$USRTIMER
 70
     1
  9
$ANGBASE
 50
0.0
  9
$ANGDIR
 70
     0
  9
$PDMODE
 70
     3
  9
$PDSIZE
 40
-2.0
  9
$PLINEWID
 40
0.0
  9
$SPLFRAME
 70
     0
  9
$SPLINETYPE
 70
     6
  9
$SPLINESEGS
 70
     8
  9
$SURFTAB1
 70
     6
  9
$SURFTAB2
 70
     6
  9
$SURFTYPE
 70
     6
  9
$SURFU
 70
     6
  9
$SURFV
 70
     6
  9
$UCSNAME
  2

  9
$UCSORG
 10
0.0
 20
0.0
 30
0.0
  9
$UCSXDIR
 10
1.0
 20
0.0
 30
0.0
  9
$UCSYDIR
 10
0.0
 20
1.0
 30
0.0
  9
$PUCSNAME
  2

  9
$PUCSORG
 10
0.0
 20
0.0
 30
0.0
  9
$PUCSXDIR
 10
1.0
 20
0.0
 30
0.0
  9
$PUCSYDIR
 10
0.0
 20
1.0
 30
0.0
  9
$USERI1
 70
     0
  9
$USERI2
 70
     0
  9
$USERI3
 70
     0
  9
$USERI4
 70
     0
  9
$USERI5
 70
     0
  9
$USERR1
 40
20.0
  9
$USERR2
 40
0.0
  9
$USERR3
 40
0.0
  9
$USERR4
 40
0.0
  9
$USERR5
 40
0.0
  9
$WORLDVIEW
 70
     1
  9
$SHADEDGE
 70
     3
  9
$SHADEDIF
 70
    70
  9
$TILEMODE
 70
     1
  9
$MAXACTVP
 70
    48
  9
$PINSBASE
 10
0.0
 20
0.0
 30
0.0
  9
$PLIMCHECK
 70
     0
  9
$PEXTMIN
 10
-100000000000000000000.0
 20
-100000000000000000000.0
 30
-100000000000000000000.0
  9
$PEXTMAX
 10
100000000000000000000.0
 20
100000000000000000000.0
 30
100000000000000000000.0
  9
$PLIMMIN
 10
0.0
 20
0.0
  9
$PLIMMAX
 10
12.0
 20
9.0
  9
$UNITMODE
 70
     0
  9
$VISRETAIN
 70
     0
  9
$PLINEGEN
 70
     0
  9
$PSLTSCALE
 70
     0
  9
$TREEDEPTH
 70
  3020
  9
$ATTDIA
 70
     0
  9
$ATTREQ
 70
     1
  9
$BLIPMODE
 70
     1
  9
$COORDS
 70
     1
  9
$DRAGMODE
 70
     2
  9
$OSMODE
 70
     0
  9
$HANDLING
 70
     0
  9
$HANDSEED
  5
106D4
  0
ENDSEC
  0
SECTION
  2
TABLES
  0
TABLE
  2
LTYPE
 70
     2
  0
LTYPE
  2
CONTINUOUS
 70
     0
  3
実線
 72
    65
 73
     0
 40
0.0
  0
LTYPE
  2
DASHDOT
 70
     0
  3
____ _ ____ _ ____ _ ____ _ ____ _ ____ _ ____
 72
    65
 73
     4
 40
5.5
 49
4.0
 49
-0.6
 49
0.3
 49
-0.6
  0
ENDTAB
  0
TABLE
  2
LAYER
 70
    12
  0
LAYER
  2
0
 70
     0
 62
     7
  6
CONTINUOUS
  0
LAYER
  2
BASIS
 70
     0
 62
     6
  6
DASHDOT
  0
LAYER
  2
OUTLINE
 70
     0
 62
     3
  6
CONTINUOUS
  0
LAYER
  2
DETAIL
 70
     0
 62
     5
  6
CONTINUOUS
  0
LAYER
  2
SIZE
 70
     0
 62
    30
  6
CONTINUOUS
  0
LAYER
  2
ARRANGE
 70
     0
 62
     1
  6
CONTINUOUS
  0
LAYER
  2
DEFPOINTS
 70
     0
 62
     7
  6
CONTINUOUS
  0
LAYER
  2
ETC
 70
     0
 62
    61
  6
CONTINUOUS
  0
LAYER
  2
FIX
 70
     0
 62
    11
  6
CONTINUOUS
  0
LAYER
  2
NOTE
 70
     0
 62
     4
  6
CONTINUOUS
  0
LAYER
  2
SERVICESPACE
 70
    64
 62
     2
  6
DASHDOT
  0
LAYER
  2
SYMBOLLINE
 70
    64
 62
    15
  6
CONTINUOUS
  0
ENDTAB
  0
TABLE
  2
STYLE
 70
     1
  0
STYLE
  2
STANDARD
 70
     0
 40
64.0
 41
0.9
 50
0.0
 71
     0
 42
64.0
  3
SIMPLEX.shx
  4
BIGFONT.shx
  0
ENDTAB
  0
TABLE
  2
APPID
 70
    19
  0
APPID
  2
ACAD
 70
     0
  0
APPID
  2
AUTOCAD_POSTSCRIPT_FIGURE
 70
     0
  0
APPID
  2
ACAD_EXEMPT_FROM_CAD_STANDARDS
 70
     0
  0
APPID
  2
ACAD_PSEXT
 70
     0
  0
APPID
  2
ACAUTHENVIRON
 70
     0
  0
APPID
  2
GENIUS_GENOENT_13
 70
     0
  0
APPID
  2
GENIUS_GENCFG_13
 70
     0
  0
APPID
  2
GENIUS_GENCFG0_13
 70
     0
  0
APPID
  2
GENIUS_GENCFG1_13
 70
     0
  0
APPID
  2
GENIUS_GENCFG2_13
 70
     0
  0
APPID
  2
GENIUS_GENCFG3_13
 70
     0
  0
APPID
  2
GENIUS_GENCFG4_13
 70
     0
  0
APPID
  2
GENIUS_GEVCFG0_13
 70
     0
  0
APPID
  2
CONTENTBLOCKICON
 70
     0
  0
APPID
  2
CONTENTBLOCKDESCRIPTION
 70
     0
  0
APPID
  2
ACAD_NAV_VCDISPLAY
 70
     0
  0
APPID
  2
ACAD_MLEADERVER
 70
     0
  0
APPID
  2
ACDBDYNAMICBLOCKTRUENAME
 70
     0
  0
APPID
  2
ACDBDYNAMICBLOCKGUID
 70
     0
  0
ENDTAB
  0
TABLE
  2
DIMSTYLE
 70
     1
  0
DIMSTYLE
  2
STANDARD
 70
     0
  3

  4

  5
_ORIGIN
  6

  7

 40
1.0
 41
12.0
 42
20.0
 43
200.0
 44
20.0
 45
0.0
 46
0.0
 47
0.0
 48
0.0
140
64.0
141
0.09
142
0.0
143
25.399999999999999
144
1.0
145
0.0
146
1.0
147
25.0
 71
     0
 72
     0
 73
     0
 74
     0
 75
     0
 76
     0
 77
     1
 78
     8
170
     0
171
     2
172
     1
173
     0
174
     1
175
     0
176
     7
177
     7
178
     7
  0
ENDTAB
  0
TABLE
  2
VIEW
 70
     1
  0
VIEW
  2
ALL
 70
     0
 40
4282.6198079999986
 10
0.0
 20
41.309904000000003
 41
5940.0
 11
0.0
 21
0.0
 31
1.0
 12
0.0
 22
0.0
 32
0.0
 42
50.0
 43
0.0
 44
0.0
 50
0.0
 71
     0
  0
ENDTAB
  0
TABLE
  2
UCS
 70
     0
  0
ENDTAB
  0
TABLE
  2
VPORT
 70
     1
  0
VPORT
  2
*ACTIVE
 70
     0
 10
0.0
 20
0.0
 11
1.0
 21
1.0
 12
505.75562965329209
 22
278.45765170461618
 13
0.0
 23
0.0
 14
1.0
 24
1.0
 15
0.0
 25
0.0
 16
0.0
 26
0.0
 36
1.0
 17
0.0
 27
0.0
 37
0.0
 40
2168.2415848670671
 41
1.747787610619469
 42
50.0
 43
0.0
 44
0.0
 50
0.0
 51
0.0
 71
     0
 72
  1000
 73
     1
 74
     3
 75
     0
 76
     0
 77
     0
 78
     0
  0
ENDTAB
  0
ENDSEC
  0
SECTION
  2
BLOCKS
  0
BLOCK
  8
0
  2
_ORIGIN
 70
     0
 10
0.0
 20
0.0
 30
0.0
  3
_ORIGIN
  1
_ORIGIN
  0
CIRCLE
  8
0
  6
CONTINUOUS
 62
     7
 10
0.0
 20
0.0
 30
0.0
 40
0.5
  0
LINE
  8
0
  6
CONTINUOUS
 62
     7
 10
0.0
 20
0.0
 30
0.0
 11
-1.0
 21
0.0
 31
0.0
  0
ENDBLK
  8
0
  0
ENDSEC
  0
SECTION
  2
ENTITIES
  0
TEXT
  8
ETC
  6
CONTINUOUS
 62
    61
 10
794.38699499999984
 20
1291.3820838095669
 30
0.0
 40
64.0
  1
V-50RH5_5
 41
0.9
  0
TEXT
  8
ETC
  6
CONTINUOUS
 62
    61
 10
790.20100099999991
 20
1173.4267738095671
 30
0.0
 40
64.0
  1
換気扇
 41
0.9
  0
TEXT
  8
ETC
  6
CONTINUOUS
 62
    61
 10
840.80850299999975
 20
1066.5058378095659
 30
0.0
 40
40.0
  1
V-50RH5
 41
0.9
  0
CIRCLE
  8
ARRANGE
  6
CONTINUOUS
 62
     1
 10
0.0
 20
0.0
 30
0.0
 40
40.0
  0
POINT
  8
ARRANGE
  6
CONTINUOUS
 62
     1
 10
0.0
 20
0.0
 30
0.0
  0
LINE
  8
NOTE
  6
CONTINUOUS
 62
     4
 10
-280.09930300000002
 20
218.16346900000011
 30
0.0
 11
-954.90710399999989
 21
218.16346900000011
 31
0.0
  0
TEXT
  8
NOTE
  6
CONTINUOUS
 62
     4
 10
-924.52173499999981
 20
235.9645889999999
 30
0.0
 40
64.0
  1
4-φ10棚直付用穴
 41
0.9
  0
LINE
  8
NOTE
  6
CONTINUOUS
 62
     4
 10
1424.7271040000001
 20
227.00492499999999
 30
0.0
 11
669.08191899999997
 21
227.00492499999999
 31
0.0
  0
TEXT
  8
NOTE
  6
CONTINUOUS
 62
     4
 10
694.17895700000008
 20
244.8060439999999
 30
0.0
 40
64.0
  1
AH 2-φ13天吊用穴
 41
0.9
  0
LINE
  8
NOTE
  6
CONTINUOUS
 62
     4
 10
1994.3105820000001
 20
-421.00262800000002
 30
0.0
 11
988.37359900000001
 21
-421.00262800000002
 31
0.0
  0
TEXT
  8
NOTE
  6
CONTINUOUS
 62
     4
 10
1042.68815
 20
-403.20150899999987
 30
0.0
 40
64.0
  1
2-M5給気チャンバー取付穴
 41
0.9
  0
LINE
  8
NOTE
  6
CONTINUOUS
 62
     4
 10
-180.96528900000001
 20
-798.41694600000005
 30
0.0
 11
-982.9442369999997
 21
-798.41694600000005
 31
0.0
  0
TEXT
  8
NOTE
  6
CONTINUOUS
 62
     4
 10
-970.088346
 20
-780.61582699999985
 30
0.0
 40
64.0
  1
4-φ6背板ネジ締付位置
 41
0.9
  0
LINE
  8
DETAIL
  6
CONTINUOUS
 62
     5
 10
594.86680999999999
 20
-114.331485
 30
0.0
 11
599.26771599999984
 21
-78.489012000000002
 31
0.0
  0
ARC
  8
DETAIL
  6
CONTINUOUS
 62
     5
 10
600.88139499999988
 20
-90.900944999999979
 30
0.0
 40
0.20062
 50
45.201103999983467
 51
81.999999999986215
  0
ARC
  8
DETAIL
  6
CONTINUOUS
 62
     5
 10
601.44950100000005
 20
-91.465079999999944
 30
0.0
 40
0.20062
 50
7.2226060000005701
 51
45.201103999983467
  0
LINE
  8
DETAIL
  6
CONTINUOUS
 62
     5
 10
601.02275199999985
 20
-90.758585000000039
 30
0.0
 11
601.59086799999977
 21
-91.322728999999981
 31
0.0
  0
LINE
  8
DETAIL
  6
CONTINUOUS
 62
     5
 10
598.91764400000011
 20
-90.422366000000011
 30
0.0
 11
600.90931099999989
 21
-90.702280999999971
 31
0.0
  0
ARC
  8
DETAIL
  6
CONTINUOUS
 62
     5
 10
600.13998300000003
 20
-102.13028300000001
 30
0.0
 40
0.20062
 50
300.7988959999887
 51
338.77739400000218
  0
ARC
  8
DETAIL
  6
CONTINUOUS
 62
     5
 10
579.75540999999998
 20
-94.214379000000008
 30
0.0
 40
22.068228000000001
 50
338.77739400000218
 51
7.2226060000005701
  0
LINE
  8
DETAIL
  6
CONTINUOUS
 62
     5
 10
599.55499400000008
 20
-102.7125530000001
 30
0.0
 11
600.24270999999999
 21
-102.3026159999999
 31
0.0
  0
ARC
  8
DETAIL
  6
CONTINUOUS
 62
     5
 10
599.45226700000012
 20
-102.54023000000009
 30
0.0
 40
0.20062
 50
263.99999999999181
 51
300.7988959999887
  0
LINE
  8
DETAIL
  6
CONTINUOUS
 62
     5
 10
597.43106799999987
 20
-102.5295169999999
 30
0.0
 11
599.43130199999996
 21
-102.73974699999999
 31
0.0
  0
LINE
  8
DETAIL
  6
CONTINUOUS
 62
     5
 10
599.02130399999987
 20
-80.495846000000029
 30
0.0
 11
594.6242299999999
 21
-116.307153
 31
0.0
  0
LINE
  8
DETAIL
  6
CONTINUOUS
 62
     5
 10
599.98437199999989
 20
-81.734496000000036
 30
0.0
 11
595.85834499999987
 21
-115.33828800000001
 31
0.0
  0
LINE
  8
DETAIL
  6
CONTINUOUS
 62
     5
 10
599.92282100000011
 20
-81.512550000000033
 30
0.0
 11
599.21655799999985
 21
-80.608574999999973
 31
0.0
  0
LINE
  8
DETAIL
  6
CONTINUOUS
 62
     5
 10
595.74493500000017
 20
-115.5387470000001
 30
0.0
 11
594.84096
 21
-116.24501100000001
 31
0.0
  0
ARC
  8
DETAIL
  6
CONTINUOUS
 62
     5
 10
599.68568800000003
 20
-81.697821999999974
 30
0.0
 40
0.30093
 50
353.0000000000008
 51
38.000000000007397
  0
ARC
  8
DETAIL
  6
CONTINUOUS
 62
     5
 10
595.55966200000012
 20
-115.301604
 30
0.0
 40
0.30093
 50
308.00000000001262
 51
353.0000000000008
  0
ARC
  8
DETAIL
  6
CONTINUOUS
 62
     5
 10
594.65568700000017
 20
-116.00787800000001
 30
0.0
 40
0.30093
 50
263.99999999999181
 51
308.00000000001262
  0
ARC
  8
DETAIL
  6
CONTINUOUS
 62
     5
 10
598.97942499999999
 20
-80.793848000000025
 30
0.0
 40
0.30093
 50
38.000000000007397
 51
81.999999999986215
  0
LINE
  8
DETAIL
  6
CONTINUOUS
 62
     5
 10
-1.604961999999887
 20
-171.530315
 30
0.0
 11
-1.604961999999887
 21
30.000036000000019
 31
0.0
  0
ARC
  8
DETAIL
  6
CONTINUOUS
 62
     5
 10
-3.0093039999999291
 20
26.990732999999981
 30
0.0
 40
3.0093040000000002
 50
89.999999000005118
 51
180.0
  0
ARC
  8
DETAIL
  6
CONTINUOUS
 62
     5
 10
-3.0093039999999291
 20
-168.52101099999999
 30
0.0
 40
3.0093040000000002
 50
180.0
 51
270.0000179999862
  0
LINE
  8
DETAIL
  6
CONTINUOUS
 62
     5
 10
0.0
 20
30.000036000000019
 30
0.0
 11
-3.0093039999999291
 21
30.000036000000019
 31
0.0
  0
LINE
  8
DETAIL
  6
CONTINUOUS
 62
     5
 10
-6.0186080000000857
 20
-168.52101099999999
 30
0.0
 11
-6.0186080000000857
 21
26.990732999999981
 31
0.0
  0
LINE
  8
NOTE
  6
CONTINUOUS
 62
     4
 10
345.00001100000009
 20
5.6920989999999847
 30
0.0
 11
345.00001100000009
 21
-8.0762789999999995
 31
0.0
  0
LINE
  8
NOTE
  6
CONTINUOUS
 62
     4
 10
14.99995800000011
 20
-7.6483539999999266
 30
0.0
 11
14.99995800000011
 21
8.4723209999999654
 31
0.0
  0
LINE
  8
NOTE
  6
CONTINUOUS
 62
     4
 10
300.32851599999998
 20
7.2679989999999179
 30
0.0
 11
300.32851599999998
 21
-6.571627000000035
 31
0.0
  0
LINE
  8
NOTE
  6
CONTINUOUS
 62
     4
 10
330.42155300000007
 20
6.4544129999999313
 30
0.0
 11
330.42155300000007
 21
-8.1732789999999795
 31
0.0
  0
LINE
  8
DETAIL
  6
CONTINUOUS
 62
     5
 10
0.0
 20
-428.96609999999993
 30
0.0
 11
0.0
 21
30.000036000000019
 31
0.0
  0
ARC
  8
DETAIL
  6
CONTINUOUS
 62
     5
 10
584.3242459999999
 20
-117.88423899999999
 30
0.0
 40
10.031013
 50
283.16493399998831
 51
353.0000000000008
  0
LINE
  8
DETAIL
  6
CONTINUOUS
 62
     5
 10
593.31922499999973
 20
-121.99701399999999
 30
0.0
 11
541.41847499999994
 21
-28.36559699999998
 31
0.0
  0
LINE
  8
DETAIL
  6
CONTINUOUS
 62
     5
 10
585.52029399999992
 20
-48.266523999999997
 30
0.0
 11
482.51624900000002
 21
-0.234956000000011
 31
0.0
  0
LINE
  8
DETAIL
  6
CONTINUOUS
 62
     5
 10
11.941841000000069
 20
-439.92570499999999
 30
0.0
 11
117.78514
 21
-430.82979499999999
 31
0.0
  0
LINE
  8
DETAIL
  6
CONTINUOUS
 62
     5
 10
0.0
 20
0.0
 30
0.0
 11
481.45643300000012
 21
0.0
 31
0.0
  0
ARC
  8
DETAIL
  6
CONTINUOUS
 62
     5
 10
481.45643300000012
 20
-2.5077529999999801
 30
0.0
 40
2.5077529999999988
 50
64.999999999991999
 51
90.0
  0
ARC
  8
DETAIL
  6
CONTINUOUS
 62
     5
 10
574.92206699999997
 20
-70.994490999999925
 30
0.0
 40
25.077531
 50
353.0000000000008
 51
64.999999999991999
  0
ARC
  8
DETAIL
  6
CONTINUOUS
 62
     5
 10
109.189725
 20
-330.88861200000002
 30
0.0
 40
100.310125
 50
274.91178799999579
 51
308.1642160000012
  0
LINE
  8
DETAIL
  6
CONTINUOUS
 62
     5
 10
170.26867799999991
 20
-410.459227
 30
0.0
 11
449.62849099999988
 21
-193.47154
 31
0.0
  0
LINE
  8
DETAIL
  6
CONTINUOUS
 62
     5
 10
594.28048699999999
 20
-119.106708
 30
0.0
 11
599.81268099999988
 21
-74.050669999999968
 31
0.0
  0
ARC
  8
DETAIL
  6
CONTINUOUS
 62
     5
 10
666.57032299999992
 20
-469.50999800000011
 30
0.0
 40
351.08543900000001
 50
103.16493399998831
 51
128.1642160000012
  0
LINE
  8
SIZE
  6
CONTINUOUS
 62
    30
 10
0.0
 20
50.000036000000023
 30
0.0
 11
0.0
 21
1209.730060357796
 31
0.0
  0
LINE
  8
SIZE
  6
CONTINUOUS
 62
    30
 10
599.99959899999999
 20
-50.994490999999933
 30
0.0
 11
599.99959899999999
 21
1209.730060357796
 31
0.0
  0
LINE
  8
SIZE
  6
CONTINUOUS
 62
    30
 10
12.0
 20
1189.730060357796
 30
0.0
 11
587.99959899999999
 21
1189.730060357796
 31
0.0
  0
CIRCLE
  8
SIZE
  6
CONTINUOUS
 62
    30
 10
0.0
 20
1189.730060357796
 30
0.0
 40
6.0
  0
LINE
  8
SIZE
  6
CONTINUOUS
 62
    30
 10
0.0
 20
1189.730060357796
 30
0.0
 11
12.0
 21
1189.730060357796
 31
0.0
  0
CIRCLE
  8
SIZE
  6
CONTINUOUS
 62
    30
 10
599.99959899999999
 20
1189.730060357796
 30
0.0
 40
6.0
  0
LINE
  8
SIZE
  6
CONTINUOUS
 62
    30
 10
599.99959899999999
 20
1189.730060357796
 30
0.0
 11
587.99959899999999
 21
1189.730060357796
 31
0.0
  0
TEXT
  8
SIZE
  6
CONTINUOUS
 62
    30
 10
225.94265614285709
 20
1214.730060357796
 30
0.0
 40
64.0
  1
600
 41
0.9
 72
     1
 11
299.99979899999988
 21
1214.730060357796
 31
0.0
  0
LINE
  8
SIZE
  6
CONTINUOUS
 62
    30
 10
0.0
 20
50.000036000000023
 30
0.0
 11
0.0
 21
1209.730060357796
 31
0.0
  0
LINE
  8
SIZE
  6
CONTINUOUS
 62
    30
 10
-6.0186080000000857
 20
46.990732999999977
 30
0.0
 11
-6.0186080000000857
 21
1209.730060357796
 31
0.0
  0
LINE
  8
SIZE
  6
CONTINUOUS
 62
    30
 10
12.0
 20
1189.730060357796
 30
0.0
 11
24.0
 21
1189.730060357796
 31
0.0
  0
LINE
  8
SIZE
  6
CONTINUOUS
 62
    30
 10
-18.018608000000089
 20
1189.730060357796
 30
0.0
 11
-115.67574999999989
 21
1189.730060357796
 31
0.0
  0
LINE
  8
SIZE
  6
CONTINUOUS
 62
    30
 10
0.0
 20
1189.730060357796
 30
0.0
 11
-6.0186080000000857
 21
1189.730060357796
 31
0.0
  0
CIRCLE
  8
SIZE
  6
CONTINUOUS
 62
    30
 10
0.0
 20
1189.730060357796
 30
0.0
 40
6.0
  0
LINE
  8
SIZE
  6
CONTINUOUS
 62
    30
 10
0.0
 20
1189.730060357796
 30
0.0
 11
12.0
 21
1189.730060357796
 31
0.0
  0
CIRCLE
  8
SIZE
  6
CONTINUOUS
 62
    30
 10
-6.0186080000000857
 20
1189.730060357796
 30
0.0
 40
6.0
  0
LINE
  8
SIZE
  6
CONTINUOUS
 62
    30
 10
-6.0186080000000857
 20
1189.730060357796
 30
0.0
 11
-18.018608000000089
 21
1189.730060357796
 31
0.0
  0
TEXT
  8
SIZE
  6
CONTINUOUS
 62
    30
 10
-90.675750428571291
 20
1214.730060357796
 30
0.0
 40
64.0
  1
6
 41
0.9
 72
     1
 11
-72.847178999999869
 21
1214.730060357796
 31
0.0
  0
LINE
  8
SIZE
  6
CONTINUOUS
 62
    30
 10
8.458753999999999
 20
0.0
 30
0.0
 11
-866.89649499999996
 21
0.0
 31
0.0
  0
LINE
  8
SIZE
  6
CONTINUOUS
 62
    30
 10
-9.7407949999999346
 20
-440.02889800000003
 30
0.0
 11
-866.89649499999996
 21
-440.02889800000003
 31
0.0
  0
LINE
  8
SIZE
  6
CONTINUOUS
 62
    30
 10
-846.89649499999996
 20
-12.0
 30
0.0
 11
-846.89649499999996
 21
-428.02889800000003
 31
0.0
  0
CIRCLE
  8
SIZE
  6
CONTINUOUS
 62
    30
 10
-846.89649499999996
 20
0.0
 30
0.0
 40
6.0
  0
LINE
  8
SIZE
  6
CONTINUOUS
 62
    30
 10
-846.89649499999996
 20
0.0
 30
0.0
 11
-846.89649499999996
 21
-12.0
 31
0.0
  0
CIRCLE
  8
SIZE
  6
CONTINUOUS
 62
    30
 10
-846.89649499999996
 20
-440.02889800000003
 30
0.0
 40
6.0
  0
LINE
  8
SIZE
  6
CONTINUOUS
 62
    30
 10
-846.89649499999996
 20
-440.02889800000003
 30
0.0
 11
-846.89649499999996
 21
-428.02889800000003
 31
0.0
  0
TEXT
  8
SIZE
  6
CONTINUOUS
 62
    30
 10
-871.89649499999996
 20
-294.07159185714278
 30
0.0
 40
64.0
  1
440
 50
90.0
 41
0.9
 72
     1
 11
-871.89649499999996
 21
-220.01444900000001
 31
0.0
  0
LINE
  8
SIZE
  6
CONTINUOUS
 62
    30
 10
-0.9594990000000507
 20
-438.678696
 30
0.0
 11
-0.9594990000000507
 21
-570.40526199999988
 31
0.0
  0
LINE
  8
SIZE
  6
CONTINUOUS
 62
    30
 10
147.309223
 20
-448.29256900000001
 30
0.0
 11
147.309223
 21
-570.40526199999988
 31
0.0
  0
LINE
  8
SIZE
  6
CONTINUOUS
 62
    30
 10
-12.959499000000051
 20
-550.40526199999999
 30
0.0
 11
-24.959499000000051
 21
-550.40526199999999
 31
0.0
  0
LINE
  8
SIZE
  6
CONTINUOUS
 62
    30
 10
159.309223
 20
-550.40526199999999
 30
0.0
 11
171.309223
 21
-550.40526199999999
 31
0.0
  0
LINE
  8
SIZE
  6
CONTINUOUS
 62
    30
 10
-0.9594990000000507
 20
-550.40526199999999
 30
0.0
 11
147.309223
 21
-550.40526199999999
 31
0.0
  0
CIRCLE
  8
SIZE
  6
CONTINUOUS
 62
    30
 10
-0.9594990000000507
 20
-550.40526199999999
 30
0.0
 40
6.0
  0
LINE
  8
SIZE
  6
CONTINUOUS
 62
    30
 10
-0.9594990000000507
 20
-550.40526199999999
 30
0.0
 11
-12.959499000000051
 21
-550.40526199999999
 31
0.0
  0
CIRCLE
  8
SIZE
  6
CONTINUOUS
 62
    30
 10
147.309223
 20
-550.40526199999999
 30
0.0
 40
6.0
  0
LINE
  8
SIZE
  6
CONTINUOUS
 62
    30
 10
147.309223
 20
-550.40526199999999
 30
0.0
 11
159.309223
 21
-550.40526199999999
 31
0.0
  0
TEXT
  8
SIZE
  6
CONTINUOUS
 62
    30
 10
4.6034334285715062
 20
-525.40526199999999
 30
0.0
 40
64.0
  1
148
 41
0.9
 72
     1
 11
73.174862000000076
 21
-525.40526199999999
 31
0.0
  0
LINE
  8
SIZE
  6
CONTINUOUS
 62
    30
 10
590.62330399999996
 20
-145.690843
 30
0.0
 11
590.62330399999996
 21
-654.32707400000004
 31
0.0
  0
LINE
  8
SIZE
  6
CONTINUOUS
 62
    30
 10
-0.97228599999994
 20
-446.74762299999998
 30
0.0
 11
-0.97228599999994
 21
-654.32707400000004
 31
0.0
  0
LINE
  8
SIZE
  6
CONTINUOUS
 62
    30
 10
578.62330399999973
 20
-634.32707400000004
 30
0.0
 11
11.02771400000006
 21
-634.32707400000004
 31
0.0
  0
CIRCLE
  8
SIZE
  6
CONTINUOUS
 62
    30
 10
590.62330399999996
 20
-634.32707400000004
 30
0.0
 40
6.0
  0
LINE
  8
SIZE
  6
CONTINUOUS
 62
    30
 10
590.62330399999996
 20
-634.32707400000004
 30
0.0
 11
578.62330399999973
 21
-634.32707400000004
 31
0.0
  0
CIRCLE
  8
SIZE
  6
CONTINUOUS
 62
    30
 10
-0.97228599999994
 20
-634.32707400000004
 30
0.0
 40
6.0
  0
LINE
  8
SIZE
  6
CONTINUOUS
 62
    30
 10
-0.97228599999994
 20
-634.32707400000004
 30
0.0
 11
11.02771400000006
 21
-634.32707400000004
 31
0.0
  0
TEXT
  8
SIZE
  6
CONTINUOUS
 62
    30
 10
220.76836614285719
 20
-609.32707400000004
 30
0.0
 40
64.0
  1
592
 41
0.9
 72
     1
 11
294.82550900000001
 21
-609.32707400000004
 31
0.0
  0
LINE
  8
SIZE
  6
CONTINUOUS
 62
    30
 10
300.32851599999998
 20
24.086152999999971
 30
0.0
 11
300.32851599999998
 21
821.95668335779601
 31
0.0
  0
LINE
  8
SIZE
  6
CONTINUOUS
 62
    30
 10
0.0
 20
50.000036000000023
 30
0.0
 11
0.0
 21
821.95668335779601
 31
0.0
  0
LINE
  8
SIZE
  6
CONTINUOUS
 62
    30
 10
288.32851599999998
 20
801.95668335779601
 30
0.0
 11
12.0
 21
801.95668335779601
 31
0.0
  0
CIRCLE
  8
SIZE
  6
CONTINUOUS
 62
    30
 10
300.32851599999998
 20
801.95668335779601
 30
0.0
 40
6.0
  0
LINE
  8
SIZE
  6
CONTINUOUS
 62
    30
 10
300.32851599999998
 20
801.95668335779601
 30
0.0
 11
288.32851599999998
 21
801.95668335779601
 31
0.0
  0
CIRCLE
  8
SIZE
  6
CONTINUOUS
 62
    30
 10
0.0
 20
801.95668335779601
 30
0.0
 40
6.0
  0
LINE
  8
SIZE
  6
CONTINUOUS
 62
    30
 10
0.0
 20
801.95668335779601
 30
0.0
 11
12.0
 21
801.95668335779601
 31
0.0
  0
TEXT
  8
SIZE
  6
CONTINUOUS
 62
    30
 10
76.107115142857168
 20
826.95668335779601
 30
0.0
 40
64.0
  1
300
 41
0.9
 72
     1
 11
150.16425799999999
 21
826.95668335779601
 31
0.0
  0
LINE
  8
SIZE
  6
CONTINUOUS
 62
    30
 10
0.0
 20
50.000036000000023
 30
0.0
 11
0.0
 21
953.67280535779605
 31
0.0
  0
LINE
  8
SIZE
  6
CONTINUOUS
 62
    30
 10
14.99995800000011
 20
28.472320999999969
 30
0.0
 11
14.99995800000011
 21
953.67280535779605
 31
0.0
  0
LINE
  8
SIZE
  6
CONTINUOUS
 62
    30
 10
26.99995800000011
 20
933.67280535779605
 30
0.0
 11
38.999958000000113
 21
933.67280535779605
 31
0.0
  0
LINE
  8
SIZE
  6
CONTINUOUS
 62
    30
 10
-12.0
 20
933.67280535779605
 30
0.0
 11
-156.2857140000001
 21
933.67280535779605
 31
0.0
  0
LINE
  8
SIZE
  6
CONTINUOUS
 62
    30
 10
14.99995800000011
 20
933.67280535779605
 30
0.0
 11
0.0
 21
933.67280535779605
 31
0.0
  0
CIRCLE
  8
SIZE
  6
CONTINUOUS
 62
    30
 10
14.99995800000011
 20
933.67280535779605
 30
0.0
 40
6.0
  0
LINE
  8
SIZE
  6
CONTINUOUS
 62
    30
 10
14.99995800000011
 20
933.67280535779605
 30
0.0
 11
26.99995800000011
 21
933.67280535779605
 31
0.0
  0
CIRCLE
  8
SIZE
  6
CONTINUOUS
 62
    30
 10
0.0
 20
933.67280535779605
 30
0.0
 40
6.0
  0
LINE
  8
SIZE
  6
CONTINUOUS
 62
    30
 10
0.0
 20
933.67280535779605
 30
0.0
 11
-12.0
 21
933.67280535779605
 31
0.0
  0
TEXT
  8
SIZE
  6
CONTINUOUS
 62
    30
 10
-131.28571414285719
 20
958.67280535779605
 30
0.0
 40
64.0
  1
15
 41
0.9
 72
     1
 11
-90.142857000000049
 21
958.67280535779605
 31
0.0
  0
LINE
  8
SIZE
  6
CONTINUOUS
 62
    30
 10
14.99995800000011
 20
28.472320999999969
 30
0.0
 11
14.99995800000011
 21
953.67280535779605
 31
0.0
  0
LINE
  8
SIZE
  6
CONTINUOUS
 62
    30
 10
330.42155300000007
 20
26.454412999999931
 30
0.0
 11
330.42155300000007
 21
953.67280535779605
 31
0.0
  0
LINE
  8
SIZE
  6
CONTINUOUS
 62
    30
 10
26.99995800000011
 20
933.67280535779605
 30
0.0
 11
318.4215529999999
 21
933.67280535779605
 31
0.0
  0
CIRCLE
  8
SIZE
  6
CONTINUOUS
 62
    30
 10
14.99995800000011
 20
933.67280535779605
 30
0.0
 40
6.0
  0
LINE
  8
SIZE
  6
CONTINUOUS
 62
    30
 10
14.99995800000011
 20
933.67280535779605
 30
0.0
 11
26.99995800000011
 21
933.67280535779605
 31
0.0
  0
CIRCLE
  8
SIZE
  6
CONTINUOUS
 62
    30
 10
330.42155300000007
 20
933.67280535779605
 30
0.0
 40
6.0
  0
LINE
  8
SIZE
  6
CONTINUOUS
 62
    30
 10
330.42155300000007
 20
933.67280535779605
 30
0.0
 11
318.4215529999999
 21
933.67280535779605
 31
0.0
  0
TEXT
  8
SIZE
  6
CONTINUOUS
 62
    30
 10
104.13932742857141
 20
958.67280535779605
 30
0.0
 40
64.0
  1
315
 41
0.9
 72
     1
 11
172.71075599999989
 21
958.67280535779605
 31
0.0
  0
LINE
  8
SIZE
  6
CONTINUOUS
 62
    30
 10
0.0
 20
50.000036000000023
 30
0.0
 11
0.0
 21
1085.569386357796
 31
0.0
  0
LINE
  8
SIZE
  6
CONTINUOUS
 62
    30
 10
345.00001100000009
 20
22.581500999999999
 30
0.0
 11
345.00001100000009
 21
1085.569386357796
 31
0.0
  0
LINE
  8
SIZE
  6
CONTINUOUS
 62
    30
 10
12.0
 20
1065.569386357796
 30
0.0
 11
333.00001100000009
 21
1065.569386357796
 31
0.0
  0
CIRCLE
  8
SIZE
  6
CONTINUOUS
 62
    30
 10
0.0
 20
1065.569386357796
 30
0.0
 40
6.0
  0
LINE
  8
SIZE
  6
CONTINUOUS
 62
    30
 10
0.0
 20
1065.569386357796
 30
0.0
 11
12.0
 21
1065.569386357796
 31
0.0
  0
CIRCLE
  8
SIZE
  6
CONTINUOUS
 62
    30
 10
345.00001100000009
 20
1065.569386357796
 30
0.0
 40
6.0
  0
LINE
  8
SIZE
  6
CONTINUOUS
 62
    30
 10
345.00001100000009
 20
1065.569386357796
 30
0.0
 11
333.00001100000009
 21
1065.569386357796
 31
0.0
  0
TEXT
  8
SIZE
  6
CONTINUOUS
 62
    30
 10
98.442863142857135
 20
1090.569386357796
 30
0.0
 40
64.0
  1
345
 41
0.9
 72
     1
 11
172.50000600000001
 21
1090.569386357796
 31
0.0
  0
LINE
  8
NOTE
  6
CONTINUOUS
 62
     4
 10
60.0
 20
-10.69230399999992
 30
0.0
 11
60.0
 21
7.0263509999999769
 31
0.0
  0
CIRCLE
  8
FIX
  6
CONTINUOUS
 62
    11
 10
14.99995800000011
 20
-0.6018609999999853
 30
0.0
 40
2.5
  0
CIRCLE
  8
FIX
  6
CONTINUOUS
 62
    11
 10
60.0
 20
0.0
 30
0.0
 40
2.5
  0
CIRCLE
  8
FIX
  6
CONTINUOUS
 62
    11
 10
345.00001100000009
 20
0.0
 30
0.0
 40
2.5
  0
CIRCLE
  8
FIX
  6
CONTINUOUS
 62
    11
 10
330.42155300000007
 20
0.0
 30
0.0
 40
2.5
  0
CIRCLE
  8
FIX
  6
CONTINUOUS
 62
    11
 10
300.32851599999998
 20
0.0
 30
0.0
 40
2.5
  0
LINE
  8
NOTE
  6
CONTINUOUS
 62
     4
 10
-280.09930300000002
 20
218.16346900000011
 30
0.0
 11
12.803959000000081
 21
0.5929559999999583
 31
0.0
  0
LINE
  8
NOTE
  6
CONTINUOUS
 62
     4
 10
2.3100210000000061
 20
12.961663000000041
 30
0.0
 11
12.803959000000081
 21
0.5929559999999583
 31
0.0
  0
LINE
  8
NOTE
  6
CONTINUOUS
 62
     4
 10
12.803959000000081
 20
0.5929559999999583
 30
0.0
 11
12.803959000000081
 21
0.5929559999999583
 31
0.0
  0
LINE
  8
NOTE
  6
CONTINUOUS
 62
     4
 10
12.803959000000081
 20
0.5929559999999583
 30
0.0
 11
-3.0248320000000599
 21
4.5673779999999624
 31
0.0
  0
LINE
  8
NOTE
  6
CONTINUOUS
 62
     4
 10
-280.09930300000002
 20
349.27329000000009
 30
0.0
 11
-431.79714999999987
 21
349.27329000000009
 31
0.0
  0
TEXT
  8
NOTE
  6
CONTINUOUS
 62
     4
 10
-394.05316400000021
 20
367.07440900000012
 30
0.0
 40
64.0
  1
EL
 41
0.9
  0
LINE
  8
NOTE
  6
CONTINUOUS
 62
     4
 10
-280.09930300000002
 20
349.27329000000009
 30
0.0
 11
58.088688999999931
 21
1.611487000000011
 31
0.0
  0
LINE
  8
NOTE
  6
CONTINUOUS
 62
     4
 10
52.414426000000049
 20
12.28354899999999
 30
0.0
 11
58.088688999999931
 21
1.611487000000011
 31
0.0
  0
LINE
  8
NOTE
  6
CONTINUOUS
 62
     4
 10
58.088688999999931
 20
1.611487000000011
 30
0.0
 11
44.838214999999991
 21
7.4462619999999333
 31
0.0
  0
LINE
  8
NOTE
  6
CONTINUOUS
 62
     4
 10
-18.116305000000011
 20
-244.0
 30
0.0
 11
15.781418999999911
 21
-244.0
 31
0.0
  0
LINE
  8
SIZE
  6
CONTINUOUS
 62
    30
 10
-4.3516199999999117
 20
0.0
 30
0.0
 11
-747.94484299999976
 21
0.0
 31
0.0
  0
LINE
  8
SIZE
  6
CONTINUOUS
 62
    30
 10
-51.893373999999987
 20
-244.0
 30
0.0
 11
-747.94484299999976
 21
-244.0
 31
0.0
  0
LINE
  8
SIZE
  6
CONTINUOUS
 62
    30
 10
-727.94484299999976
 20
-12.0
 30
0.0
 11
-727.94484299999976
 21
-232.0
 31
0.0
  0
CIRCLE
  8
SIZE
  6
CONTINUOUS
 62
    30
 10
-727.94484299999976
 20
0.0
 30
0.0
 40
6.0
  0
LINE
  8
SIZE
  6
CONTINUOUS
 62
    30
 10
-727.94484299999976
 20
0.0
 30
0.0
 11
-727.94484299999976
 21
-12.0
 31
0.0
  0
CIRCLE
  8
SIZE
  6
CONTINUOUS
 62
    30
 10
-727.94484299999976
 20
-244.0
 30
0.0
 40
6.0
  0
LINE
  8
SIZE
  6
CONTINUOUS
 62
    30
 10
-727.94484299999976
 20
-244.0
 30
0.0
 11
-727.94484299999976
 21
-232.0
 31
0.0
  0
TEXT
  8
SIZE
  6
CONTINUOUS
 62
    30
 10
-752.94484299999976
 20
-197.42857142857139
 30
0.0
 40
64.0
  1
244
 50
90.0
 41
0.9
 72
     1
 11
-752.94484299999976
 21
-122.0
 31
0.0
  0
LINE
  8
NOTE
  6
CONTINUOUS
 62
     4
 10
-18.116305000000011
 20
-364.0
 30
0.0
 11
17.718421999999919
 21
-364.0
 31
0.0
  0
LINE
  8
SIZE
  6
CONTINUOUS
 62
    30
 10
-38.116305000000011
 20
-244.0
 30
0.0
 11
-747.94484299999976
 21
-244.0
 31
0.0
  0
LINE
  8
SIZE
  6
CONTINUOUS
 62
    30
 10
-38.116305000000011
 20
-364.0
 30
0.0
 11
-747.94484299999976
 21
-364.0
 31
0.0
  0
LINE
  8
SIZE
  6
CONTINUOUS
 62
    30
 10
-727.94484299999976
 20
-256.0
 30
0.0
 11
-727.94484299999976
 21
-352.0
 31
0.0
  0
LINE
  8
SIZE
  6
CONTINUOUS
 62
    30
 10
-727.94484299999976
 20
-364.0
 30
0.0
 11
-727.94484299999976
 21
-622.89727800000003
 31
0.0
  0
CIRCLE
  8
SIZE
  6
CONTINUOUS
 62
    30
 10
-727.94484299999976
 20
-244.0
 30
0.0
 40
6.0
  0
LINE
  8
SIZE
  6
CONTINUOUS
 62
    30
 10
-727.94484299999976
 20
-244.0
 30
0.0
 11
-727.94484299999976
 21
-256.0
 31
0.0
  0
CIRCLE
  8
SIZE
  6
CONTINUOUS
 62
    30
 10
-727.94484299999976
 20
-364.0
 30
0.0
 40
6.0
  0
LINE
  8
SIZE
  6
CONTINUOUS
 62
    30
 10
-727.94484299999976
 20
-364.0
 30
0.0
 11
-727.94484299999976
 21
-352.0
 31
0.0
  0
TEXT
  8
SIZE
  6
CONTINUOUS
 62
    30
 10
-752.94484299999976
 20
-597.8972785714285
 30
0.0
 40
64.0
  1
120
 50
90.0
 41
0.9
 72
     1
 11
-752.94484299999976
 21
-529.32584999999995
 31
0.0
  0
CIRCLE
  8
FIX
  6
CONTINUOUS
 62
    11
 10
-0.6826860000001034
 20
-244.0
 30
0.0
 40
2.5
  0
CIRCLE
  8
FIX
  6
CONTINUOUS
 62
    11
 10
-0.9126240000000507
 20
-364.0
 30
0.0
 40
2.5
  0
LINE
  8
NOTE
  6
CONTINUOUS
 62
     4
 10
-180.96528900000001
 20
-798.41694600000005
 30
0.0
 11
-2.6700909999999571
 21
-365.778008
 31
0.0
  0
LINE
  8
NOTE
  6
CONTINUOUS
 62
     4
 10
-11.19459600000005
 20
-374.07221700000002
 30
0.0
 11
-2.6700909999999571
 21
-365.778008
 31
0.0
  0
LINE
  8
NOTE
  6
CONTINUOUS
 62
     4
 10
-2.6700909999999571
 20
-365.778008
 30
0.0
 11
-3.5175320000000738
 21
-376.27713699999998
 31
0.0
  0
LINE
  8
NOTE
  6
CONTINUOUS
 62
     4
 10
669.08191899999997
 20
227.00492499999999
 30
0.0
 11
302.45745600000009
 21
1.310578000000078
 31
0.0
  0
LINE
  8
NOTE
  6
CONTINUOUS
 62
     4
 10
312.36353000000008
 20
12.880513000000059
 30
0.0
 11
302.45745600000009
 21
1.310578000000078
 31
0.0
  0
LINE
  8
NOTE
  6
CONTINUOUS
 62
     4
 10
302.45745600000009
 20
1.310578000000078
 30
0.0
 11
318.45790699999998
 21
5.8790619999999763
 31
0.0
  0
LINE
  8
NOTE
  6
CONTINUOUS
 62
     4
 10
1779.2943359999999
 20
-302.94062500000001
 30
0.0
 11
1004.910074
 21
-302.94062500000001
 31
0.0
  0
TEXT
  8
NOTE
  6
CONTINUOUS
 62
     4
 10
1040.5176179999989
 20
-285.13950499999999
 30
0.0
 40
64.0
  1
2-φ6幕板用取付用穴
 41
0.9
  0
LINE
  8
NOTE
  6
CONTINUOUS
 62
     4
 10
1004.910074
 20
-302.94062500000001
 30
0.0
 11
347.07303400000001
 21
-1.604962
 31
0.0
  0
LINE
  8
NOTE
  6
CONTINUOUS
 62
     4
 10
360.03227900000002
 20
-4.4698240000000169
 30
0.0
 11
347.07303400000001
 21
-1.604962
 31
0.0
  0
LINE
  8
NOTE
  6
CONTINUOUS
 62
     4
 10
347.07303400000001
 20
-1.604962
 30
0.0
 11
356.48547100000002
 21
-10.905925000000019
 31
0.0
  0
LINE
  8
NOTE
  6
CONTINUOUS
 62
     4
 10
988.37359900000001
 20
-421.00262800000002
 30
0.0
 11
347.92869999999988
 21
-2.545014000000037
 31
0.0
  0
ARC
  8
OUTLINE
  6
CONTINUOUS
 62
     3
 10
600.88139499999988
 20
-90.900944999999979
 30
0.0
 40
0.20062
 50
45.201103999983467
 51
81.999999999986215
  0
ARC
  8
OUTLINE
  6
CONTINUOUS
 62
     3
 10
601.44950100000005
 20
-91.465079999999944
 30
0.0
 40
0.20062
 50
7.2226060000005701
 51
45.201103999983467
  0
LINE
  8
OUTLINE
  6
CONTINUOUS
 62
     3
 10
601.02275199999985
 20
-90.758585000000039
 30
0.0
 11
601.59086799999977
 21
-91.322728999999981
 31
0.0
  0
LINE
  8
OUTLINE
  6
CONTINUOUS
 62
     3
 10
598.91764400000011
 20
-90.422366000000011
 30
0.0
 11
600.90931099999989
 21
-90.702280999999971
 31
0.0
  0
ARC
  8
OUTLINE
  6
CONTINUOUS
 62
     3
 10
600.13998300000003
 20
-102.13028300000001
 30
0.0
 40
0.20062
 50
300.7988959999887
 51
338.77739400000218
  0
ARC
  8
OUTLINE
  6
CONTINUOUS
 62
     3
 10
579.75540999999998
 20
-94.214379000000008
 30
0.0
 40
22.068228000000001
 50
338.77739400000218
 51
7.2226060000005701
  0
LINE
  8
OUTLINE
  6
CONTINUOUS
 62
     3
 10
599.55499400000008
 20
-102.7125530000001
 30
0.0
 11
600.24270999999999
 21
-102.3026159999999
 31
0.0
  0
ARC
  8
OUTLINE
  6
CONTINUOUS
 62
     3
 10
599.45226700000012
 20
-102.54023000000009
 30
0.0
 40
0.20062
 50
263.99999999999181
 51
300.7988959999887
  0
LINE
  8
OUTLINE
  6
CONTINUOUS
 62
     3
 10
597.43106799999987
 20
-102.5295169999999
 30
0.0
 11
599.43130199999996
 21
-102.73974699999999
 31
0.0
  0
LINE
  8
OUTLINE
  6
CONTINUOUS
 62
     3
 10
599.98437199999989
 20
-81.734496000000036
 30
0.0
 11
598.91763600000013
 21
-90.422365000000013
 31
0.0
  0
LINE
  8
OUTLINE
  6
CONTINUOUS
 62
     3
 10
599.92282100000011
 20
-81.512550000000033
 30
0.0
 11
599.21655799999985
 21
-80.608574999999973
 31
0.0
  0
LINE
  8
OUTLINE
  6
CONTINUOUS
 62
     3
 10
595.74493500000017
 20
-115.5387470000001
 30
0.0
 11
594.84096
 21
-116.24501100000001
 31
0.0
  0
ARC
  8
OUTLINE
  6
CONTINUOUS
 62
     3
 10
599.68568800000003
 20
-81.697821999999974
 30
0.0
 40
0.30093
 50
353.0000000000008
 51
38.000000000007397
  0
ARC
  8
OUTLINE
  6
CONTINUOUS
 62
     3
 10
595.55966200000012
 20
-115.301604
 30
0.0
 40
0.30093
 50
308.00000000001262
 51
353.0000000000008
  0
ARC
  8
OUTLINE
  6
CONTINUOUS
 62
     3
 10
594.65568700000017
 20
-116.00787800000001
 30
0.0
 40
0.30093
 50
263.99999999999181
 51
308.00000000001262
  0
ARC
  8
OUTLINE
  6
CONTINUOUS
 62
     3
 10
598.97942499999999
 20
-80.793848000000025
 30
0.0
 40
0.30093
 50
38.000000000007397
 51
81.999999999986215
  0
ARC
  8
OUTLINE
  6
CONTINUOUS
 62
     3
 10
584.3242459999999
 20
-117.88423899999999
 30
0.0
 40
10.031013
 50
283.16493399998831
 51
353.0000000000008
  0
LINE
  8
OUTLINE
  6
CONTINUOUS
 62
     3
 10
585.52029399999992
 20
-48.266523999999997
 30
0.0
 11
482.51624900000002
 21
-0.234956000000011
 31
0.0
  0
LINE
  8
OUTLINE
  6
CONTINUOUS
 62
     3
 10
11.22113899999999
 20
-439.98764000000011
 30
0.0
 11
117.78514
 21
-430.82979499999999
 31
0.0
  0
LINE
  8
OUTLINE
  6
CONTINUOUS
 62
     3
 10
0.0
 20
0.0
 30
0.0
 11
25.000001999999771
 21
0.0
 31
0.0
  0
LINE
  8
OUTLINE
  6
CONTINUOUS
 62
     3
 10
225.00000199999999
 20
0.0
 30
0.0
 11
481.45643300000012
 21
0.0
 31
0.0
  0
ARC
  8
OUTLINE
  6
CONTINUOUS
 62
     3
 10
481.45643300000012
 20
-2.5077529999999801
 30
0.0
 40
2.5077529999999988
 50
64.999999999991999
 51
90.0
  0
ARC
  8
OUTLINE
  6
CONTINUOUS
 62
     3
 10
574.92206699999997
 20
-70.994490999999925
 30
0.0
 40
25.077531
 50
353.0000000000008
 51
64.999999999991999
  0
ARC
  8
OUTLINE
  6
CONTINUOUS
 62
     3
 10
109.189725
 20
-330.88861200000002
 30
0.0
 40
100.310125
 50
274.91178799999579
 51
308.1642160000012
  0
LINE
  8
OUTLINE
  6
CONTINUOUS
 62
     3
 10
170.26867799999991
 20
-410.459227
 30
0.0
 11
449.62849099999988
 21
-193.47154
 31
0.0
  0
LINE
  8
OUTLINE
  6
CONTINUOUS
 62
     3
 10
594.28048699999999
 20
-119.106708
 30
0.0
 11
594.62423100000001
 21
-116.3071600000001
 31
0.0
  0
ARC
  8
OUTLINE
  6
CONTINUOUS
 62
     3
 10
666.57032299999992
 20
-469.50999800000011
 30
0.0
 40
351.08543900000001
 50
103.16493399998831
 51
128.1642160000012
  0
LINE
  8
OUTLINE
  6
CONTINUOUS
 62
     3
 10
599.19125600000007
 20
-79.111764999999991
 30
0.0
 11
599.81268099999988
 21
-74.050669999999968
 31
0.0
  0
LINE
  8
OUTLINE
  6
CONTINUOUS
 62
     3
 10
599.02130799999986
 20
-80.495846000000029
 30
0.0
 11
599.26771599999984
 21
-78.489012000000002
 31
0.0
  0
LINE
  8
OUTLINE
  6
CONTINUOUS
 62
     3
 10
597.43106399999988
 20
-102.5295169999999
 30
0.0
 11
595.85834499999987
 21
-115.33828800000001
 31
0.0
  0
LINE
  8
SIZE
  6
CONTINUOUS
 62
    30
 10
0.0
 20
50.000036000000023
 30
0.0
 11
0.0
 21
588.14379235779597
 31
0.0
  0
LINE
  8
SIZE
  6
CONTINUOUS
 62
    30
 10
60.0
 20
27.02635099999998
 30
0.0
 11
60.0
 21
588.14379235779597
 31
0.0
  0
LINE
  8
SIZE
  6
CONTINUOUS
 62
    30
 10
72.0
 20
568.14379235779597
 30
0.0
 11
84.0
 21
568.14379235779597
 31
0.0
  0
LINE
  8
SIZE
  6
CONTINUOUS
 62
    30
 10
-12.0
 20
568.14379235779597
 30
0.0
 11
-167.25714300000001
 21
568.14379235779597
 31
0.0
  0
LINE
  8
SIZE
  6
CONTINUOUS
 62
    30
 10
60.0
 20
568.14379235779597
 30
0.0
 11
0.0
 21
568.14379235779597
 31
0.0
  0
CIRCLE
  8
SIZE
  6
CONTINUOUS
 62
    30
 10
60.0
 20
568.14379235779597
 30
0.0
 40
6.0
  0
LINE
  8
SIZE
  6
CONTINUOUS
 62
    30
 10
60.0
 20
568.14379235779597
 30
0.0
 11
72.0
 21
568.14379235779597
 31
0.0
  0
CIRCLE
  8
SIZE
  6
CONTINUOUS
 62
    30
 10
0.0
 20
568.14379235779597
 30
0.0
 40
6.0
  0
LINE
  8
SIZE
  6
CONTINUOUS
 62
    30
 10
0.0
 20
568.14379235779597
 30
0.0
 11
-12.0
 21
568.14379235779597
 31
0.0
  0
TEXT
  8
SIZE
  6
CONTINUOUS
 62
    30
 10
-142.2571424285714
 20
593.14379235779597
 30
0.0
 40
64.0
  1
60
 41
0.9
 72
     1
 11
-95.628570999999965
 21
593.14379235779597
 31
0.0
  0
LINE
  8
DETAIL
  6
CONTINUOUS
 62
     5
 10
-1.604961999999887
 20
-171.530315
 30
0.0
 11
-1.604961999999887
 21
-171.530315
 31
0.0
  0
LINE
  8
DETAIL
  6
CONTINUOUS
 62
     5
 10
-3.0093030000000449
 20
-171.530315
 30
0.0
 11
0.0
 21
-171.530315
 31
0.0
  0
ARC
  8
DETAIL
  6
CONTINUOUS
 62
     5
 10
11.0
 20
-428.96609999999993
 30
0.0
 40
11.0
 50
180.0
 51
274.91178899998943
  0
LINE
  8
NOTE
  6
CONTINUOUS
 62
     4
 10
-12.6253670000001
 20
16.0
 30
0.0
 11
9.6944579999999405
 21
16.0
 31
0.0
  0
LINE
  8
NOTE
  6
CONTINUOUS
 62
     4
 10
-12.426161000000089
 20
23.0
 30
0.0
 11
9.6944579999999405
 21
23.0
 31
0.0
  0
CIRCLE
  8
FIX
  6
CONTINUOUS
 62
    11
 10
0.0
 20
16.0
 30
0.0
 40
2.5
  0
LINE
  8
SIZE
  6
CONTINUOUS
 62
    30
 10
-20.0
 20
0.0
 30
0.0
 11
-508.23684299999991
 21
0.0
 31
0.0
  0
LINE
  8
SIZE
  6
CONTINUOUS
 62
    30
 10
-32.625367000000097
 20
16.0
 30
0.0
 11
-508.23684299999991
 21
16.0
 31
0.0
  0
LINE
  8
SIZE
  6
CONTINUOUS
 62
    30
 10
-488.23684299999991
 20
-12.0
 30
0.0
 11
-488.23684299999991
 21
-24.0
 31
0.0
  0
LINE
  8
SIZE
  6
CONTINUOUS
 62
    30
 10
-488.23684299999991
 20
28.0
 30
0.0
 11
-488.23684299999991
 21
169.542857
 31
0.0
  0
LINE
  8
SIZE
  6
CONTINUOUS
 62
    30
 10
-488.23684299999991
 20
0.0
 30
0.0
 11
-488.23684299999991
 21
16.0
 31
0.0
  0
CIRCLE
  8
SIZE
  6
CONTINUOUS
 62
    30
 10
-488.23684299999991
 20
0.0
 30
0.0
 40
6.0
  0
LINE
  8
SIZE
  6
CONTINUOUS
 62
    30
 10
-488.23684299999991
 20
0.0
 30
0.0
 11
-488.23684299999991
 21
-12.0
 31
0.0
  0
CIRCLE
  8
SIZE
  6
CONTINUOUS
 62
    30
 10
-488.23684299999991
 20
16.0
 30
0.0
 40
6.0
  0
LINE
  8
SIZE
  6
CONTINUOUS
 62
    30
 10
-488.23684299999991
 20
16.0
 30
0.0
 11
-488.23684299999991
 21
28.0
 31
0.0
  0
TEXT
  8
SIZE
  6
CONTINUOUS
 62
    30
 10
-513.23684300000014
 20
65.000000428571454
 30
0.0
 40
64.0
  1
16
 50
90.0
 41
0.9
 72
     1
 11
-513.23684300000014
 21
104.771429
 31
0.0
  0
LINE
  8
SIZE
  6
CONTINUOUS
 62
    30
 10
-32.625367000000097
 20
16.0
 30
0.0
 11
-395.64470299999988
 21
16.0
 31
0.0
  0
LINE
  8
SIZE
  6
CONTINUOUS
 62
    30
 10
-32.426161000000093
 20
23.0
 30
0.0
 11
-395.64470299999988
 21
23.0
 31
0.0
  0
LINE
  8
SIZE
  6
CONTINUOUS
 62
    30
 10
-375.64470299999988
 20
4.0
 30
0.0
 11
-375.64470299999988
 21
-8.0
 31
0.0
  0
LINE
  8
SIZE
  6
CONTINUOUS
 62
    30
 10
-375.64470299999988
 20
35.0
 30
0.0
 11
-375.64470299999988
 21
142.400036
 31
0.0
  0
LINE
  8
SIZE
  6
CONTINUOUS
 62
    30
 10
-375.64470299999988
 20
16.0
 30
0.0
 11
-375.64470299999988
 21
23.0
 31
0.0
  0
CIRCLE
  8
SIZE
  6
CONTINUOUS
 62
    30
 10
-375.64470299999988
 20
16.0
 30
0.0
 40
6.0
  0
LINE
  8
SIZE
  6
CONTINUOUS
 62
    30
 10
-375.64470299999988
 20
16.0
 30
0.0
 11
-375.64470299999988
 21
4.0
 31
0.0
  0
CIRCLE
  8
SIZE
  6
CONTINUOUS
 62
    30
 10
-375.64470299999988
 20
23.0
 30
0.0
 40
6.0
  0
LINE
  8
SIZE
  6
CONTINUOUS
 62
    30
 10
-375.64470299999988
 20
23.0
 30
0.0
 11
-375.64470299999988
 21
35.0
 31
0.0
  0
TEXT
  8
SIZE
  6
CONTINUOUS
 62
    30
 10
-400.64470299999988
 20
79.000035999999952
 30
0.0
 40
64.0
  1
7
 50
90.0
 41
0.9
 72
     1
 11
-400.64470299999988
 21
98.200035999999955
 31
0.0
  0
LINE
  8
SIZE
  6
CONTINUOUS
 62
    30
 10
-20.0
 20
0.0
 30
0.0
 11
-625.02681799999982
 21
0.0
 31
0.0
  0
LINE
  8
SIZE
  6
CONTINUOUS
 62
    30
 10
-23.009303999999929
 20
30.000036000000019
 30
0.0
 11
-625.02681799999982
 21
30.000036000000019
 31
0.0
  0
LINE
  8
SIZE
  6
CONTINUOUS
 62
    30
 10
-605.02681799999982
 20
-12.0
 30
0.0
 11
-605.02681799999982
 21
-24.0
 31
0.0
  0
LINE
  8
SIZE
  6
CONTINUOUS
 62
    30
 10
-605.02681799999982
 20
42.000036000000023
 30
0.0
 11
-605.02681799999982
 21
197.25717900000001
 31
0.0
  0
LINE
  8
SIZE
  6
CONTINUOUS
 62
    30
 10
-605.02681799999982
 20
0.0
 30
0.0
 11
-605.02681799999982
 21
30.000036000000019
 31
0.0
  0
CIRCLE
  8
SIZE
  6
CONTINUOUS
 62
    30
 10
-605.02681799999982
 20
0.0
 30
0.0
 40
6.0
  0
LINE
  8
SIZE
  6
CONTINUOUS
 62
    30
 10
-605.02681799999982
 20
0.0
 30
0.0
 11
-605.02681799999982
 21
-12.0
 31
0.0
  0
CIRCLE
  8
SIZE
  6
CONTINUOUS
 62
    30
 10
-605.02681799999982
 20
30.000036000000019
 30
0.0
 40
6.0
  0
LINE
  8
SIZE
  6
CONTINUOUS
 62
    30
 10
-605.02681799999982
 20
30.000036000000019
 30
0.0
 11
-605.02681799999982
 21
42.000036000000023
 31
0.0
  0
TEXT
  8
SIZE
  6
CONTINUOUS
 62
    30
 10
-630.02681799999982
 20
79.000036571428566
 30
0.0
 40
64.0
  1
30
 50
90.0
 41
0.9
 72
     1
 11
-630.02681799999982
 21
125.628608
 31
0.0
  0
LINE
  8
OUTLINE
  6
CONTINUOUS
 62
     3
 10
0.0
 20
-428.96609999999993
 30
0.0
 11
0.0
 21
-171.530315
 31
0.0
  0
ARC
  8
OUTLINE
  6
CONTINUOUS
 62
     3
 10
11.0
 20
-428.96609999999993
 30
0.0
 40
11.0
 50
180.0
 51
274.91178899998943
  0
TEXT
  8
NOTE
  6
CONTINUOUS
 62
     4
 10
102.68906199999989
 20
67.138901000000033
 30
0.0
 40
64.0
  1
EA
 41
0.9
  0
LINE
  8
SIZE
  6
CONTINUOUS
 62
    30
 10
0.0
 20
50.000036000000023
 30
0.0
 11
0.0
 21
703.846590357796
 31
0.0
  0
LINE
  8
SIZE
  6
CONTINUOUS
 62
    30
 10
125.00000199999999
 20
80.765750000000025
 30
0.0
 11
125.00000199999999
 21
703.846590357796
 31
0.0
  0
LINE
  8
SIZE
  6
CONTINUOUS
 62
    30
 10
113.00000199999999
 20
683.846590357796
 30
0.0
 11
12.0
 21
683.846590357796
 31
0.0
  0
LINE
  8
SIZE
  6
CONTINUOUS
 62
    30
 10
0.0
 20
683.846590357796
 30
0.0
 11
-203.6598140000001
 21
683.846590357796
 31
0.0
  0
CIRCLE
  8
SIZE
  6
CONTINUOUS
 62
    30
 10
125.00000199999999
 20
683.846590357796
 30
0.0
 40
6.0
  0
LINE
  8
SIZE
  6
CONTINUOUS
 62
    30
 10
125.00000199999999
 20
683.846590357796
 30
0.0
 11
113.00000199999999
 21
683.846590357796
 31
0.0
  0
CIRCLE
  8
SIZE
  6
CONTINUOUS
 62
    30
 10
0.0
 20
683.846590357796
 30
0.0
 40
6.0
  0
LINE
  8
SIZE
  6
CONTINUOUS
 62
    30
 10
0.0
 20
683.846590357796
 30
0.0
 11
12.0
 21
683.846590357796
 31
0.0
  0
TEXT
  8
SIZE
  6
CONTINUOUS
 62
    30
 10
-178.6598135714286
 20
708.846590357796
 30
0.0
 40
64.0
  1
125
 41
0.9
 72
     1
 11
-110.088385
 21
708.846590357796
 31
0.0
  0
ARC
  8
OUTLINE
  6
CONTINUOUS
 62
     3
 10
-3.009304000000157
 20
26.990732999999981
 30
0.0
 40
3.0093040000000002
 50
89.999999000005118
 51
180.0
  0
ARC
  8
OUTLINE
  6
CONTINUOUS
 62
     3
 10
-3.009304000000157
 20
-168.52101099999999
 30
0.0
 40
3.0093040000000002
 50
180.0
 51
270.00001800001218
  0
LINE
  8
OUTLINE
  6
CONTINUOUS
 62
     3
 10
0.0
 20
30.000036000000019
 30
0.0
 11
-3.009304000000157
 21
30.000036000000019
 31
0.0
  0
LINE
  8
OUTLINE
  6
CONTINUOUS
 62
     3
 10
-6.0186079999998583
 20
-168.52101099999999
 30
0.0
 11
-6.0186079999998583
 21
26.990732999999981
 31
0.0
  0
LINE
  8
OUTLINE
  6
CONTINUOUS
 62
     3
 10
-1.604961999999887
 20
-171.530315
 30
0.0
 11
-1.604961999999887
 21
-171.530315
 31
0.0
  0
LINE
  8
OUTLINE
  6
CONTINUOUS
 62
     3
 10
-3.009302999999818
 20
-171.530315
 30
0.0
 11
0.0
 21
-171.530315
 31
0.0
  0
LINE
  8
OUTLINE
  6
CONTINUOUS
 62
     3
 10
48.000001999999768
 20
14.0
 30
0.0
 11
48.000001999999768
 21
4.0
 31
0.0
  0
LINE
  8
OUTLINE
  6
CONTINUOUS
 62
     3
 10
202.00000199999999
 20
14.0
 30
0.0
 11
202.00000199999999
 21
4.0
 31
0.0
  0
LINE
  8
OUTLINE
  6
CONTINUOUS
 62
     3
 10
225.00000199999999
 20
4.0
 30
0.0
 11
225.00000199999999
 21
0.0
 31
0.0
  0
LINE
  8
OUTLINE
  6
CONTINUOUS
 62
     3
 10
202.00000199999999
 20
14.0
 30
0.0
 11
199.00000199999999
 21
14.0
 31
0.0
  0
LINE
  8
OUTLINE
  6
CONTINUOUS
 62
     3
 10
51.000001999999768
 20
14.0
 30
0.0
 11
48.000001999999768
 21
14.0
 31
0.0
  0
LINE
  8
OUTLINE
  6
CONTINUOUS
 62
     3
 10
51.000001999999768
 20
54.0
 30
0.0
 11
51.000001999999768
 21
14.0
 31
0.0
  0
LINE
  8
OUTLINE
  6
CONTINUOUS
 62
     3
 10
199.00000199999999
 20
14.0
 30
0.0
 11
199.00000199999999
 21
54.0
 31
0.0
  0
LINE
  8
OUTLINE
  6
CONTINUOUS
 62
     3
 10
199.00000199999999
 20
54.0
 30
0.0
 11
51.000001999999768
 21
54.0
 31
0.0
  0
LINE
  8
OUTLINE
  6
CONTINUOUS
 62
     3
 10
225.00000199999999
 20
4.0
 30
0.0
 11
202.00000199999999
 21
4.0
 31
0.0
  0
LINE
  8
OUTLINE
  6
CONTINUOUS
 62
     3
 10
48.000001999999768
 20
4.0
 30
0.0
 11
25.000001999999771
 21
4.0
 31
0.0
  0
LINE
  8
OUTLINE
  6
CONTINUOUS
 62
     3
 10
25.000001999999771
 20
4.0
 30
0.0
 11
25.000001999999771
 21
0.0
 31
0.0
  0
LINE
  8
OUTLINE
  6
CONTINUOUS
 62
     3
 10
0.0
 20
0.0
 30
0.0
 11
0.0
 21
30.000036000000019
 31
0.0
  0
LINE
  8
BASIS
  6
DASHDOT
 62
     6
 10
125.00000199999999
 20
89.843055999999933
 30
0.0
 11
125.00000199999999
 21
-36.216534000000017
 31
0.0
  0
LINE
  8
DETAIL
  6
CONTINUOUS
 62
     5
 10
202.00000199999999
 20
14.0
 30
0.0
 11
202.00000199999999
 21
4.0
 31
0.0
  0
LINE
  8
DETAIL
  6
CONTINUOUS
 62
     5
 10
48.000001999999988
 20
14.0
 30
0.0
 11
48.000001999999988
 21
4.0
 31
0.0
  0
LINE
  8
DETAIL
  6
CONTINUOUS
 62
     5
 10
25.000001999999991
 20
4.0
 30
0.0
 11
25.000001999999991
 21
0.0
 31
0.0
  0
LINE
  8
DETAIL
  6
CONTINUOUS
 62
     5
 10
48.000001999999988
 20
14.0
 30
0.0
 11
202.00000199999999
 21
14.0
 31
0.0
  0
LINE
  8
DETAIL
  6
CONTINUOUS
 62
     5
 10
199.00000199999999
 20
54.0
 30
0.0
 11
199.00000199999999
 21
14.0
 31
0.0
  0
LINE
  8
DETAIL
  6
CONTINUOUS
 62
     5
 10
51.000001999999988
 20
14.0
 30
0.0
 11
51.000001999999988
 21
54.0
 31
0.0
  0
LINE
  8
DETAIL
  6
CONTINUOUS
 62
     5
 10
51.000001999999988
 20
54.0
 30
0.0
 11
199.00000199999999
 21
54.0
 31
0.0
  0
LINE
  8
DETAIL
  6
CONTINUOUS
 62
     5
 10
25.000001999999991
 20
4.0
 30
0.0
 11
225.00000199999999
 21
4.0
 31
0.0
  0
LINE
  8
DETAIL
  6
CONTINUOUS
 62
     5
 10
225.00000199999999
 20
4.0
 30
0.0
 11
225.00000199999999
 21
0.0
 31
0.0
  0
LINE
  8
SIZE
  6
CONTINUOUS
 62
    30
 10
199.00000199999999
 20
74.0
 30
0.0
 11
199.00000199999999
 21
311.2935663893586
 31
0.0
  0
LINE
  8
SIZE
  6
CONTINUOUS
 62
    30
 10
51.000001999999988
 20
74.0
 30
0.0
 11
51.000001999999988
 21
311.2935663893586
 31
0.0
  0
LINE
  8
SIZE
  6
CONTINUOUS
 62
    30
 10
187.00000199999999
 20
291.2935663893586
 30
0.0
 11
63.000001999999988
 21
291.2935663893586
 31
0.0
  0
LINE
  8
SIZE
  6
CONTINUOUS
 62
    30
 10
51.000001999999988
 20
291.2935663893586
 30
0.0
 11
-241.1714112083605
 21
291.2935663893586
 31
0.0
  0
CIRCLE
  8
SIZE
  6
CONTINUOUS
 62
    30
 10
199.00000199999999
 20
291.2935663893586
 30
0.0
 40
6.0
  0
LINE
  8
SIZE
  6
CONTINUOUS
 62
    30
 10
199.00000199999999
 20
291.2935663893586
 30
0.0
 11
187.00000199999999
 21
291.2935663893586
 31
0.0
  0
CIRCLE
  8
SIZE
  6
CONTINUOUS
 62
    30
 10
51.000001999999988
 20
291.2935663893586
 30
0.0
 40
6.0
  0
LINE
  8
SIZE
  6
CONTINUOUS
 62
    30
 10
51.000001999999988
 20
291.2935663893586
 30
0.0
 11
63.000001999999988
 21
291.2935663893586
 31
0.0
  0
TEXT
  8
SIZE
  6
CONTINUOUS
 62
    30
 10
-226.3199826369318
 20
326.96023305602512
 30
0.0
 40
64.0
  1
φ148
 41
0.9
 72
     1
 11
-117.42855406550321
 21
326.96023305602512
 31
0.0
  0
POINT
  8
DEFPOINTS
  6
CONTINUOUS
 62
    30
 10
199.00000199999999
 20
54.0
 30
0.0
  0
POINT
  8
DEFPOINTS
  6
CONTINUOUS
 62
    30
 10
51.000001999999988
 20
54.0
 30
0.0
  0
POINT
  8
DEFPOINTS
  6
CONTINUOUS
 62
    30
 10
51.000001999999988
 20
291.2935663893586
 30
0.0
  0
LINE
  8
SIZE
  6
CONTINUOUS
 62
    30
 10
202.00000199999999
 20
34.0
 30
0.0
 11
202.00000199999999
 21
451.87239525297127
 31
0.0
  0
LINE
  8
SIZE
  6
CONTINUOUS
 62
    30
 10
48.000001999999988
 20
34.0
 30
0.0
 11
48.000001999999988
 21
451.87239525297127
 31
0.0
  0
LINE
  8
SIZE
  6
CONTINUOUS
 62
    30
 10
190.00000199999999
 20
431.87239525297127
 30
0.0
 11
60.000001999999988
 21
431.87239525297127
 31
0.0
  0
LINE
  8
SIZE
  6
CONTINUOUS
 62
    30
 10
48.000001999999988
 20
431.87239525297127
 30
0.0
 11
-242.54283977978889
 21
431.87239525297127
 31
0.0
  0
CIRCLE
  8
SIZE
  6
CONTINUOUS
 62
    30
 10
202.00000199999999
 20
431.87239525297127
 30
0.0
 40
6.0
  0
LINE
  8
SIZE
  6
CONTINUOUS
 62
    30
 10
202.00000199999999
 20
431.87239525297127
 30
0.0
 11
190.00000199999999
 21
431.87239525297127
 31
0.0
  0
CIRCLE
  8
SIZE
  6
CONTINUOUS
 62
    30
 10
48.000001999999988
 20
431.87239525297127
 30
0.0
 40
6.0
  0
LINE
  8
SIZE
  6
CONTINUOUS
 62
    30
 10
48.000001999999988
 20
431.87239525297127
 30
0.0
 11
60.000001999999988
 21
431.87239525297127
 31
0.0
  0
TEXT
  8
SIZE
  6
CONTINUOUS
 62
    30
 10
-227.69141120836039
 20
467.53906191963779
 30
0.0
 40
64.0
  1
φ154
 41
0.9
 72
     1
 11
-117.42855406550321
 21
467.53906191963779
 31
0.0
  0
POINT
  8
DEFPOINTS
  6
CONTINUOUS
 62
    30
 10
202.00000199999999
 20
14.0
 30
0.0
  0
POINT
  8
DEFPOINTS
  6
CONTINUOUS
 62
    30
 10
48.000001999999988
 20
14.0
 30
0.0
  0
POINT
  8
DEFPOINTS
  6
CONTINUOUS
 62
    30
 10
48.000001999999988
 20
431.87239525297127
 30
0.0
  0
LINE
  8
SIZE
  6
CONTINUOUS
 62
    30
 10
31.000001999999991
 20
54.0
 30
0.0
 11
-266.59336304741493
 21
54.000000000000107
 31
0.0
  0
LINE
  8
SIZE
  6
CONTINUOUS
 62
    30
 10
-20.0
 20
0.0
 30
0.0
 11
-266.59336304741493
 21
0.0000000000001137
 31
0.0
  0
LINE
  8
SIZE
  6
CONTINUOUS
 62
    30
 10
-246.5933630474149
 20
66.000000000000114
 30
0.0
 11
-246.5933630474149
 21
78.000000000000114
 31
0.0
  0
LINE
  8
SIZE
  6
CONTINUOUS
 62
    30
 10
-246.5933630474149
 20
-11.99999999999989
 30
0.0
 11
-246.5933630474149
 21
-170.0000000000002
 31
0.0
  0
LINE
  8
SIZE
  6
CONTINUOUS
 62
    30
 10
-246.5933630474149
 20
54.000000000000107
 30
0.0
 11
-246.5933630474149
 21
0.0000000000001137
 31
0.0
  0
CIRCLE
  8
SIZE
  6
CONTINUOUS
 62
    30
 10
-246.5933630474149
 20
54.000000000000107
 30
0.0
 40
6.0
  0
LINE
  8
SIZE
  6
CONTINUOUS
 62
    30
 10
-246.5933630474149
 20
54.000000000000107
 30
0.0
 11
-246.5933630474149
 21
66.000000000000114
 31
0.0
  0
CIRCLE
  8
SIZE
  6
CONTINUOUS
 62
    30
 10
-246.5933630474149
 20
0.0000000000001137
 30
0.0
 40
6.0
  0
LINE
  8
SIZE
  6
CONTINUOUS
 62
    30
 10
-246.5933630474149
 20
0.0000000000001137
 30
0.0
 11
-246.5933630474149
 21
-11.99999999999989
 31
0.0
  0
TEXT
  8
SIZE
  6
CONTINUOUS
 62
    30
 10
-271.59336304741493
 20
-145.0000000000002
 30
0.0
 40
64.0
  1
54
 50
90.0
 41
0.9
 72
     1
 11
-271.59336304741493
 21
-97.000000000000227
 31
0.0
  0
POINT
  8
DEFPOINTS
  6
CONTINUOUS
 62
    30
 10
51.000001999999988
 20
54.0
 30
0.0
  0
POINT
  8
DEFPOINTS
  6
CONTINUOUS
 62
    30
 10
0.0
 20
0.0
 30
0.0
  0
POINT
  8
DEFPOINTS
  6
CONTINUOUS
 62
    30
 10
-246.5933630474149
 20
0.0000000000001137
 30
0.0
  0
LINE
  8
SIZE
  6
CONTINUOUS
 62
    30
 10
31.000001999999991
 20
54.0
 30
0.0
 11
-142.70824752413731
 21
54.000000000000107
 31
0.0
  0
LINE
  8
SIZE
  6
CONTINUOUS
 62
    30
 10
28.000001999999991
 20
14.0
 30
0.0
 11
-142.70824752413731
 21
14.00000000000011
 31
0.0
  0
LINE
  8
SIZE
  6
CONTINUOUS
 62
    30
 10
-122.70824752413731
 20
66.000000000000114
 30
0.0
 11
-122.70824752413731
 21
78.0
 31
0.0
  0
LINE
  8
SIZE
  6
CONTINUOUS
 62
    30
 10
-122.70824752413731
 20
2.0
 30
0.0
 11
-122.70824752413731
 21
-153.25714285714301
 31
0.0
  0
LINE
  8
SIZE
  6
CONTINUOUS
 62
    30
 10
-122.70824752413731
 20
54.0
 30
0.0
 11
-122.70824752413731
 21
14.0
 31
0.0
  0
CIRCLE
  8
SIZE
  6
CONTINUOUS
 62
    30
 10
-122.70824752413731
 20
54.0
 30
0.0
 40
6.0
  0
LINE
  8
SIZE
  6
CONTINUOUS
 62
    30
 10
-122.70824752413731
 20
54.0
 30
0.0
 11
-122.70824752413731
 21
66.000000000000114
 31
0.0
  0
CIRCLE
  8
SIZE
  6
CONTINUOUS
 62
    30
 10
-122.70824752413731
 20
14.0
 30
0.0
 40
6.0
  0
LINE
  8
SIZE
  6
CONTINUOUS
 62
    30
 10
-122.70824752413731
 20
14.0
 30
0.0
 11
-122.70824752413731
 21
2.0
 31
0.0
  0
TEXT
  8
SIZE
  6
CONTINUOUS
 62
    30
 10
-147.70824752413731
 20
-128.25714285714301
 30
0.0
 40
64.0
  1
40
 50
90.0
 41
0.9
 72
     1
 11
-147.70824752413731
 21
-81.628571428571604
 31
0.0
  0
POINT
  8
DEFPOINTS
  6
CONTINUOUS
 62
    30
 10
51.000001999999988
 20
54.0
 30
0.0
  0
POINT
  8
DEFPOINTS
  6
CONTINUOUS
 62
    30
 10
48.000001999999988
 20
14.0
 30
0.0
  0
POINT
  8
DEFPOINTS
  6
CONTINUOUS
 62
    30
 10
-122.70824752413731
 20
14.0
 30
0.0
  0
ENDSEC
  0
EOF
