  0
SECTION
  2
HEADER
  9
$ACADVER
  1
AC1009
  9
$DWGCODEPAGE
  3
dos932
  9
$INSBASE
 10
0.0
 20
0.0
 30
0.0
  9
$EXTMIN
 10
-1242.1829065216989
 20
-1038.2079967975239
 30
-0.001525820700358
  9
$EXTMAX
 10
1233.119213468301
 20
860.6872641955124
 30
0.000000034924604
  9
$LIMMIN
 10
-2970.0
 20
-2100.0
  9
$LIMMAX
 10
2970.0
 20
2100.0
  9
$ORTHOMODE
 70
     1
  9
$REGENMODE
 70
     1
  9
$FILLMODE
 70
     1
  9
$QTEXTMODE
 70
     0
  9
$MIRRTEXT
 70
     0
  9
$LTSCALE
 40
20.0
  9
$ATTMODE
 70
     1
  9
$TEXTSIZE
 40
64.0
  9
$TRACEWID
 40
0.05
  9
$TEXTSTYLE
  7
STANDARD
  9
$CLAYER
  8
SIZE
  9
$CELTYPE
  6
CONTINUOUS
  9
$CECOLOR
 62
     7
  9
$DIMSCALE
 40
1.0
  9
$DIMASZ
 40
12.0
  9
$DIMEXO
 40
20.0
  9
$DIMDLI
 40
200.0
  9
$DIMRND
 40
0.0
  9
$DIMDLE
 40
0.0
  9
$DIMEXE
 40
20.0
  9
$DIMTP
 40
0.0
  9
$DIMTM
 40
0.0
  9
$DIMTXT
 40
64.0
  9
$DIMCEN
 40
0.09
  9
$DIMTSZ
 40
0.0
  9
$DIMTOL
 70
     0
  9
$DIMLIM
 70
     0
  9
$DIMTIH
 70
     0
  9
$DIMTOH
 70
     0
  9
$DIMSE1
 70
     0
  9
$DIMSE2
 70
     0
  9
$DIMTAD
 70
     1
  9
$DIMZIN
 70
     8
  9
$DIMBLK
  1

  9
$DIMASO
 70
     1
  9
$DIMSHO
 70
     0
  9
$DIMPOST
  1

  9
$DIMAPOST
  1

  9
$DIMALT
 70
     0
  9
$DIMALTD
 70
     2
  9
$DIMALTF
 40
25.399999999999999
  9
$DIMLFAC
 40
1.0
  9
$DIMTOFL
 70
     1
  9
$DIMTVP
 40
0.0
  9
$DIMTIX
 70
     1
  9
$DIMSOXD
 70
     0
  9
$DIMSAH
 70
     0
  9
$DIMBLK1
  1

  9
$DIMBLK2
  1

  9
$DIMSTYLE
  2
STANDARD
  9
$DIMCLRD
 70
     7
  9
$DIMCLRE
 70
     7
  9
$DIMCLRT
 70
     7
  9
$DIMTFAC
 40
1.0
  9
$DIMGAP
 40
25.0
  9
$LUNITS
 70
     2
  9
$LUPREC
 70
     4
  9
$SKETCHINC
 40
0.1
  9
$FILLETRAD
 40
3.0
  9
$AUNITS
 70
     1
  9
$AUPREC
 70
     3
  9
$MENU
  1
ACAD
  9
$ELEVATION
 40
0.0
  9
$PELEVATION
 40
0.0
  9
$THICKNESS
 40
0.0
  9
$LIMCHECK
 70
     0
  9
$CHAMFERA
 40
0.0
  9
$CHAMFERB
 40
0.0
  9
$SKPOLY
 70
     0
  9
$TDCREATE
 40
2453019.62301037
  9
$TDUPDATE
 40
2459025.588092419
  9
$TDINDWG
 40
1.7154095023
  9
$TDUSRTIMER
 40
1.7154095023
  9
$USRTIMER
 70
     1
  9
$ANGBASE
 50
0.0
  9
$ANGDIR
 70
     0
  9
$PDMODE
 70
     3
  9
$PDSIZE
 40
-2.0
  9
$PLINEWID
 40
0.0
  9
$SPLFRAME
 70
     0
  9
$SPLINETYPE
 70
     6
  9
$SPLINESEGS
 70
     8
  9
$SURFTAB1
 70
     6
  9
$SURFTAB2
 70
     6
  9
$SURFTYPE
 70
     6
  9
$SURFU
 70
     6
  9
$SURFV
 70
     6
  9
$UCSNAME
  2

  9
$UCSORG
 10
0.0
 20
0.0
 30
0.0
  9
$UCSXDIR
 10
1.0
 20
0.0
 30
0.0
  9
$UCSYDIR
 10
0.0
 20
1.0
 30
0.0
  9
$PUCSNAME
  2

  9
$PUCSORG
 10
0.0
 20
0.0
 30
0.0
  9
$PUCSXDIR
 10
1.0
 20
0.0
 30
0.0
  9
$PUCSYDIR
 10
0.0
 20
1.0
 30
0.0
  9
$USERI1
 70
     0
  9
$USERI2
 70
     0
  9
$USERI3
 70
     0
  9
$USERI4
 70
     0
  9
$USERI5
 70
     0
  9
$USERR1
 40
20.0
  9
$USERR2
 40
0.0
  9
$USERR3
 40
0.0
  9
$USERR4
 40
0.0
  9
$USERR5
 40
0.0
  9
$WORLDVIEW
 70
     1
  9
$SHADEDGE
 70
     3
  9
$SHADEDIF
 70
    70
  9
$TILEMODE
 70
     1
  9
$MAXACTVP
 70
    48
  9
$PINSBASE
 10
0.0
 20
0.0
 30
0.0
  9
$PLIMCHECK
 70
     0
  9
$PEXTMIN
 10
-100000000000000000000.0
 20
-100000000000000000000.0
 30
-100000000000000000000.0
  9
$PEXTMAX
 10
100000000000000000000.0
 20
100000000000000000000.0
 30
100000000000000000000.0
  9
$PLIMMIN
 10
0.0
 20
0.0
  9
$PLIMMAX
 10
12.0
 20
9.0
  9
$UNITMODE
 70
     0
  9
$VISRETAIN
 70
     0
  9
$PLINEGEN
 70
     0
  9
$PSLTSCALE
 70
     0
  9
$TREEDEPTH
 70
  3020
  9
$ATTDIA
 70
     0
  9
$ATTREQ
 70
     1
  9
$BLIPMODE
 70
     1
  9
$COORDS
 70
     1
  9
$DRAGMODE
 70
     2
  9
$OSMODE
 70
     0
  9
$HANDLING
 70
     0
  9
$HANDSEED
  5
EE3E
  0
ENDSEC
  0
SECTION
  2
TABLES
  0
TABLE
  2
LTYPE
 70
     2
  0
LTYPE
  2
CONTINUOUS
 70
     0
  3
実線
 72
    65
 73
     0
 40
0.0
  0
LTYPE
  2
DASHDOT
 70
     0
  3
____ _ ____ _ ____ _ ____ _ ____ _ ____ _ ____
 72
    65
 73
     4
 40
5.5
 49
4.0
 49
-0.6
 49
0.3
 49
-0.6
  0
ENDTAB
  0
TABLE
  2
LAYER
 70
    12
  0
LAYER
  2
0
 70
     0
 62
     7
  6
CONTINUOUS
  0
LAYER
  2
BASIS
 70
     0
 62
     6
  6
DASHDOT
  0
LAYER
  2
OUTLINE
 70
     0
 62
     3
  6
CONTINUOUS
  0
LAYER
  2
DETAIL
 70
     0
 62
     5
  6
CONTINUOUS
  0
LAYER
  2
SIZE
 70
     0
 62
    30
  6
CONTINUOUS
  0
LAYER
  2
ARRANGE
 70
     0
 62
     1
  6
CONTINUOUS
  0
LAYER
  2
DEFPOINTS
 70
     0
 62
     7
  6
CONTINUOUS
  0
LAYER
  2
ETC
 70
     0
 62
    61
  6
CONTINUOUS
  0
LAYER
  2
FIX
 70
     0
 62
    11
  6
CONTINUOUS
  0
LAYER
  2
NOTE
 70
     0
 62
     4
  6
CONTINUOUS
  0
LAYER
  2
SERVICESPACE
 70
    64
 62
     2
  6
DASHDOT
  0
LAYER
  2
SYMBOLLINE
 70
    64
 62
    15
  6
CONTINUOUS
  0
ENDTAB
  0
TABLE
  2
STYLE
 70
     1
  0
STYLE
  2
STANDARD
 70
     0
 40
64.0
 41
0.9
 50
0.0
 71
     0
 42
64.0
  3
SIMPLEX.shx
  4
BIGFONT.shx
  0
ENDTAB
  0
TABLE
  2
APPID
 70
    19
  0
APPID
  2
ACAD
 70
     0
  0
APPID
  2
AUTOCAD_POSTSCRIPT_FIGURE
 70
     0
  0
APPID
  2
ACAD_EXEMPT_FROM_CAD_STANDARDS
 70
     0
  0
APPID
  2
ACAD_PSEXT
 70
     0
  0
APPID
  2
ACAUTHENVIRON
 70
     0
  0
APPID
  2
GENIUS_GENOENT_13
 70
     0
  0
APPID
  2
GENIUS_GENCFG_13
 70
     0
  0
APPID
  2
GENIUS_GENCFG0_13
 70
     0
  0
APPID
  2
GENIUS_GENCFG1_13
 70
     0
  0
APPID
  2
GENIUS_GENCFG2_13
 70
     0
  0
APPID
  2
GENIUS_GENCFG3_13
 70
     0
  0
APPID
  2
GENIUS_GENCFG4_13
 70
     0
  0
APPID
  2
GENIUS_GEVCFG0_13
 70
     0
  0
APPID
  2
CONTENTBLOCKICON
 70
     0
  0
APPID
  2
CONTENTBLOCKDESCRIPTION
 70
     0
  0
APPID
  2
ACAD_NAV_VCDISPLAY
 70
     0
  0
APPID
  2
ACAD_MLEADERVER
 70
     0
  0
APPID
  2
ACDBDYNAMICBLOCKTRUENAME
 70
     0
  0
APPID
  2
ACDBDYNAMICBLOCKGUID
 70
     0
  0
ENDTAB
  0
TABLE
  2
DIMSTYLE
 70
     1
  0
DIMSTYLE
  2
STANDARD
 70
     0
  3

  4

  5
_ORIGIN
  6

  7

 40
1.0
 41
12.0
 42
20.0
 43
200.0
 44
20.0
 45
0.0
 46
0.0
 47
0.0
 48
0.0
140
64.0
141
0.09
142
0.0
143
25.399999999999999
144
1.0
145
0.0
146
1.0
147
25.0
 71
     0
 72
     0
 73
     0
 74
     0
 75
     0
 76
     0
 77
     1
 78
     8
170
     0
171
     2
172
     1
173
     0
174
     1
175
     0
176
     7
177
     7
178
     7
  0
ENDTAB
  0
TABLE
  2
VIEW
 70
     1
  0
VIEW
  2
ALL
 70
     0
 40
4282.6198079999986
 10
0.0
 20
41.309904000000003
 41
5940.0
 11
0.0
 21
0.0
 31
1.0
 12
0.0
 22
0.0
 32
0.0
 42
50.0
 43
0.0
 44
0.0
 50
0.0
 71
     0
  0
ENDTAB
  0
TABLE
  2
UCS
 70
     0
  0
ENDTAB
  0
TABLE
  2
VPORT
 70
     1
  0
VPORT
  2
*ACTIVE
 70
     0
 10
0.0
 20
0.0
 11
1.0
 21
1.0
 12
-4.531846526699212
 22
-88.760366301005888
 13
0.0
 23
0.0
 14
1.0
 24
1.0
 15
0.0
 25
0.0
 16
0.0
 26
0.0
 36
1.0
 17
0.0
 27
0.0
 37
0.0
 40
1911.4846218393991
 41
1.747787610619469
 42
50.0
 43
0.0
 44
0.0
 50
0.0
 51
0.0
 71
     0
 72
  1000
 73
     1
 74
     3
 75
     0
 76
     0
 77
     0
 78
     0
  0
ENDTAB
  0
ENDSEC
  0
SECTION
  2
BLOCKS
  0
BLOCK
  8
0
  2
_ORIGIN
 70
     0
 10
0.0
 20
0.0
 30
0.0
  3
_ORIGIN
  1
_ORIGIN
  0
CIRCLE
  8
0
  6
CONTINUOUS
 62
     7
 10
0.0
 20
0.0
 30
0.0
 40
0.5
  0
LINE
  8
0
  6
CONTINUOUS
 62
     7
 10
0.0
 20
0.0
 30
0.0
 11
-1.0
 21
0.0
 31
0.0
  0
ENDBLK
  8
0
  0
ENDSEC
  0
SECTION
  2
ENTITIES
  0
TEXT
  8
ETC
  6
CONTINUOUS
 62
    61
 10
620.38595299999997
 20
580.86725500000011
 30
0.0
 40
64.0
  1
V-584H4_1
 41
0.9
  0
TEXT
  8
ETC
  6
CONTINUOUS
 62
    61
 10
616.19995900000004
 20
462.91194500000012
 30
0.0
 40
64.0
  1
換気扇
 41
0.9
  0
TEXT
  8
ETC
  6
CONTINUOUS
 62
    61
 10
666.80746199999976
 20
355.99100900000008
 30
0.0
 40
40.0
  1
V-584H4
 41
0.9
  0
CIRCLE
  8
ARRANGE
  6
CONTINUOUS
 62
     1
 10
0.0
 20
0.0
 30
0.0
 40
40.0
  0
POINT
  8
ARRANGE
  6
CONTINUOUS
 62
     1
 10
0.0
 20
0.0
 30
0.0
  0
TEXT
  8
NOTE
  6
CONTINUOUS
 62
     4
 10
-1212.28053
 20
-528.83922900000005
 30
0.0
 40
64.0
  1
AH 2×2×φ30天吊用穴
 41
0.9
  0
LINE
  8
NOTE
  6
CONTINUOUS
 62
     4
 10
-352.13214999999991
 20
-542.32878300000004
 30
0.0
 11
-1241.7809380000001
 21
-542.32878300000004
 31
0.0
  0
LINE
  8
NOTE
  6
CONTINUOUS
 62
     4
 10
-230.0
 20
-341.5
 30
0.0
 11
-352.13214999999991
 21
-542.32878300000004
 31
0.0
  0
LINE
  8
NOTE
  6
CONTINUOUS
 62
     4
 10
-230.0
 20
-341.5
 30
0.0
 11
-238.03559399999989
 21
-372.79447900000002
 31
0.0
  0
LINE
  8
NOTE
  6
CONTINUOUS
 62
     4
 10
-230.0
 20
-341.5
 30
0.0
 11
-254.08986499999989
 21
-363.03122400000012
 31
0.0
  0
CIRCLE
  8
FIX
  6
CONTINUOUS
 62
    11
 10
-250.0
 20
-301.5
 30
0.0
 40
15.0
  0
LINE
  8
NOTE
  6
CONTINUOUS
 62
     4
 10
-250.0
 20
-276.5
 30
0.0
 11
-250.0
 21
-326.5
 31
0.0
  0
CIRCLE
  8
FIX
  6
CONTINUOUS
 62
    11
 10
250.0
 20
-301.5
 30
0.0
 40
15.0
  0
LINE
  8
NOTE
  6
CONTINUOUS
 62
     4
 10
250.0
 20
-276.5
 30
0.0
 11
250.0
 21
-326.5
 31
0.0
  0
LINE
  8
OUTLINE
  6
CONTINUOUS
 62
     3
 10
-275.0
 20
-598.50046999999995
 30
0.0
 11
275.0
 21
-598.50046999999995
 31
0.0
  0
CIRCLE
  8
FIX
  6
CONTINUOUS
 62
    11
 10
230.0
 20
-341.5
 30
0.0
 40
15.0
  0
LINE
  8
NOTE
  6
CONTINUOUS
 62
     4
 10
255.0
 20
-341.5
 30
0.0
 11
205.0
 21
-341.5
 31
0.0
  0
LINE
  8
OUTLINE
  6
CONTINUOUS
 62
     3
 10
290.0
 20
-590.71123999999998
 30
0.0
 11
290.0
 21
-1.5
 31
0.0
  0
LINE
  8
OUTLINE
  6
CONTINUOUS
 62
     3
 10
275.0
 20
-598.50046999999995
 30
0.0
 11
290.0
 21
-590.71123999999998
 31
0.0
  0
LINE
  8
NOTE
  6
CONTINUOUS
 62
     4
 10
230.0
 20
-316.5
 30
0.0
 11
230.0
 21
-366.5
 31
0.0
  0
LINE
  8
OUTLINE
  6
CONTINUOUS
 62
     3
 10
-290.0
 20
-590.71123999999998
 30
0.0
 11
-290.0
 21
-1.5
 31
0.0
  0
LINE
  8
OUTLINE
  6
CONTINUOUS
 62
     3
 10
-290.0
 20
-590.71123999999998
 30
0.0
 11
-275.0
 21
-598.50046999999995
 31
0.0
  0
LINE
  8
NOTE
  6
CONTINUOUS
 62
     4
 10
-255.0
 20
-341.5
 30
0.0
 11
-205.0
 21
-341.5
 31
0.0
  0
LINE
  8
NOTE
  6
CONTINUOUS
 62
     4
 10
-230.0
 20
-316.5
 30
0.0
 11
-230.0
 21
-366.5
 31
0.0
  0
CIRCLE
  8
FIX
  6
CONTINUOUS
 62
    11
 10
-230.0
 20
-341.5
 30
0.0
 40
15.0
  0
LINE
  8
OUTLINE
  6
CONTINUOUS
 62
     3
 10
-100.0
 20
0.0
 30
0.0
 11
100.0
 21
0.0
 31
0.0
  0
LINE
  8
BASIS
  6
DASHDOT
 62
     6
 10
120.1218699999999
 20
-151.5
 30
0.0
 11
-119.0705200000002
 21
-151.5
 31
0.0
  0
LINE
  8
BASIS
  6
DASHDOT
 62
     6
 10
110.50019999999989
 20
-141.5
 30
0.0
 11
-109.0161499999999
 21
-141.5
 31
0.0
  0
LINE
  8
BASIS
  6
DASHDOT
 62
     6
 10
110.50019999999989
 20
-161.5
 30
0.0
 11
-109.0161499999999
 21
-161.5
 31
0.0
  0
LINE
  8
NOTE
  6
CONTINUOUS
 62
     4
 10
275.0
 20
-301.5
 30
0.0
 11
225.0
 21
-301.5
 31
0.0
  0
LINE
  8
OUTLINE
  6
CONTINUOUS
 62
     3
 10
210.0
 20
1.0
 30
0.0
 11
270.0
 21
1.0
 31
0.0
  0
LINE
  8
OUTLINE
  6
CONTINUOUS
 62
     3
 10
270.0
 20
1.0
 30
0.0
 11
270.0
 21
-1.5
 31
0.0
  0
LINE
  8
OUTLINE
  6
CONTINUOUS
 62
     3
 10
270.0
 20
-1.5
 30
0.0
 11
290.0
 21
-1.5
 31
0.0
  0
LINE
  8
BASIS
  6
DASHDOT
 62
     6
 10
20.0
 20
-259.32679999999999
 30
0.0
 11
20.0
 21
-43.228200000000022
 31
0.0
  0
LINE
  8
BASIS
  6
DASHDOT
 62
     6
 10
-20.0
 20
-259.32679999999999
 30
0.0
 11
-20.0
 21
-43.228200000000022
 31
0.0
  0
LINE
  8
OUTLINE
  6
CONTINUOUS
 62
     3
 10
210.0
 20
1.0
 30
0.0
 11
210.0
 21
-1.5
 31
0.0
  0
LINE
  8
OUTLINE
  6
CONTINUOUS
 62
     3
 10
100.0
 20
-1.5
 30
0.0
 11
210.0
 21
-1.5
 31
0.0
  0
LINE
  8
OUTLINE
  6
CONTINUOUS
 62
     3
 10
100.0
 20
-1.5
 30
0.0
 11
100.0
 21
0.0
 31
0.0
  0
LINE
  8
NOTE
  6
CONTINUOUS
 62
     4
 10
-275.0
 20
-301.5
 30
0.0
 11
-225.0
 21
-301.5
 31
0.0
  0
LINE
  8
OUTLINE
  6
CONTINUOUS
 62
     3
 10
-210.0
 20
-1.5
 30
0.0
 11
-100.0
 21
-1.5
 31
0.0
  0
LINE
  8
OUTLINE
  6
CONTINUOUS
 62
     3
 10
-100.0
 20
-1.5
 30
0.0
 11
-100.0
 21
0.0
 31
0.0
  0
LINE
  8
OUTLINE
  6
CONTINUOUS
 62
     3
 10
-270.0
 20
1.0
 30
0.0
 11
-270.0
 21
-1.5
 31
0.0
  0
LINE
  8
OUTLINE
  6
CONTINUOUS
 62
     3
 10
-210.0
 20
1.0
 30
0.0
 11
-210.0
 21
-1.5
 31
0.0
  0
LINE
  8
OUTLINE
  6
CONTINUOUS
 62
     3
 10
-290.0
 20
-1.5
 30
0.0
 11
-270.0
 21
-1.5
 31
0.0
  0
LINE
  8
OUTLINE
  6
CONTINUOUS
 62
     3
 10
-270.0
 20
1.0
 30
0.0
 11
-210.0
 21
1.0
 31
0.0
  0
LINE
  8
SIZE
  6
CONTINUOUS
 62
    30
 10
320.0000500000001
 20
-1.500039999999899
 30
0.0
 11
606.42735399999992
 21
-1.500039999999899
 31
0.0
  0
LINE
  8
SIZE
  6
CONTINUOUS
 62
    30
 10
295.0
 20
-301.5
 30
0.0
 11
606.42735399999992
 21
-301.5
 31
0.0
  0
LINE
  8
SIZE
  6
CONTINUOUS
 62
    30
 10
586.42735399999992
 20
-13.500039999999901
 30
0.0
 11
586.42735399999992
 21
-289.5
 31
0.0
  0
CIRCLE
  8
SIZE
  6
CONTINUOUS
 62
    30
 10
586.42735399999992
 20
-1.500039999999899
 30
0.0
 40
6.0
  0
LINE
  8
SIZE
  6
CONTINUOUS
 62
    30
 10
586.42735399999992
 20
-1.500039999999899
 30
0.0
 11
586.42735399999992
 21
-13.500039999999901
 31
0.0
  0
CIRCLE
  8
SIZE
  6
CONTINUOUS
 62
    30
 10
586.42735399999992
 20
-301.5
 30
0.0
 40
6.0
  0
LINE
  8
SIZE
  6
CONTINUOUS
 62
    30
 10
586.42735399999992
 20
-301.5
 30
0.0
 11
586.42735399999992
 21
-289.5
 31
0.0
  0
TEXT
  8
SIZE
  6
CONTINUOUS
 62
    30
 10
561.42735399999992
 20
-225.5571628571428
 30
0.0
 40
64.0
  1
300
 50
90.0
 41
0.9
 72
     1
 11
561.42735399999992
 21
-151.50001999999989
 31
0.0
  0
POINT
  8
DEFPOINTS
  6
CONTINUOUS
 62
    30
 10
586.42735399999992
 20
-301.5
 30
0.0
  0
LINE
  8
SIZE
  6
CONTINUOUS
 62
    30
 10
295.0
 20
-301.5
 30
0.0
 11
726.42735399999992
 21
-301.5
 31
0.0
  0
LINE
  8
SIZE
  6
CONTINUOUS
 62
    30
 10
275.0
 20
-341.5
 30
0.0
 11
726.42735399999992
 21
-341.5
 31
0.0
  0
LINE
  8
SIZE
  6
CONTINUOUS
 62
    30
 10
706.42735399999992
 20
-353.5
 30
0.0
 11
706.42735399999992
 21
-365.5
 31
0.0
  0
LINE
  8
SIZE
  6
CONTINUOUS
 62
    30
 10
706.42735399999992
 20
-289.5
 30
0.0
 11
706.42735399999992
 21
-109.384491
 31
0.0
  0
LINE
  8
SIZE
  6
CONTINUOUS
 62
    30
 10
706.42735399999992
 20
-341.5
 30
0.0
 11
706.42735399999992
 21
-301.5
 31
0.0
  0
CIRCLE
  8
SIZE
  6
CONTINUOUS
 62
    30
 10
706.42735399999992
 20
-341.5
 30
0.0
 40
6.0
  0
LINE
  8
SIZE
  6
CONTINUOUS
 62
    30
 10
706.42735399999992
 20
-341.5
 30
0.0
 11
706.42735399999992
 21
-353.5
 31
0.0
  0
CIRCLE
  8
SIZE
  6
CONTINUOUS
 62
    30
 10
706.42735399999992
 20
-301.5
 30
0.0
 40
6.0
  0
LINE
  8
SIZE
  6
CONTINUOUS
 62
    30
 10
706.42735399999992
 20
-301.5
 30
0.0
 11
706.42735399999992
 21
-289.5
 31
0.0
  0
TEXT
  8
SIZE
  6
CONTINUOUS
 62
    30
 10
681.42735399999992
 20
-227.64163442857139
 30
0.0
 40
64.0
  1
40
 50
90.0
 41
0.9
 72
     1
 11
681.42735399999992
 21
-181.01306299999999
 31
0.0
  0
POINT
  8
DEFPOINTS
  6
CONTINUOUS
 62
    30
 10
275.0
 20
-301.5
 30
0.0
  0
POINT
  8
DEFPOINTS
  6
CONTINUOUS
 62
    30
 10
255.0
 20
-341.5
 30
0.0
  0
POINT
  8
DEFPOINTS
  6
CONTINUOUS
 62
    30
 10
706.42735399999992
 20
-341.5
 30
0.0
  0
LINE
  8
SIZE
  6
CONTINUOUS
 62
    30
 10
-230.0
 20
-386.5
 30
0.0
 11
-230.0
 21
-797.99511099999984
 31
0.0
  0
LINE
  8
SIZE
  6
CONTINUOUS
 62
    30
 10
230.0
 20
-386.5
 30
0.0
 11
230.0
 21
-797.99511099999984
 31
0.0
  0
LINE
  8
SIZE
  6
CONTINUOUS
 62
    30
 10
-218.0
 20
-777.99511099999984
 30
0.0
 11
218.0
 21
-777.99511099999984
 31
0.0
  0
CIRCLE
  8
SIZE
  6
CONTINUOUS
 62
    30
 10
-230.0
 20
-777.99511099999984
 30
0.0
 40
6.0
  0
LINE
  8
SIZE
  6
CONTINUOUS
 62
    30
 10
-230.0
 20
-777.99511099999984
 30
0.0
 11
-218.0
 21
-777.99511099999984
 31
0.0
  0
CIRCLE
  8
SIZE
  6
CONTINUOUS
 62
    30
 10
230.0
 20
-777.99511099999984
 30
0.0
 40
6.0
  0
LINE
  8
SIZE
  6
CONTINUOUS
 62
    30
 10
230.0
 20
-777.99511099999984
 30
0.0
 11
218.0
 21
-777.99511099999984
 31
0.0
  0
TEXT
  8
SIZE
  6
CONTINUOUS
 62
    30
 10
-74.05714285714285
 20
-752.99511099999984
 30
0.0
 40
64.0
  1
460
 41
0.9
 72
     1
 11
0.0
 21
-752.99511099999984
 31
0.0
  0
POINT
  8
DEFPOINTS
  6
CONTINUOUS
 62
    30
 10
-230.0
 20
-366.5
 30
0.0
  0
POINT
  8
DEFPOINTS
  6
CONTINUOUS
 62
    30
 10
230.0
 20
-366.5
 30
0.0
  0
POINT
  8
DEFPOINTS
  6
CONTINUOUS
 62
    30
 10
230.0
 20
-777.99511099999984
 30
0.0
  0
LINE
  8
SIZE
  6
CONTINUOUS
 62
    30
 10
-250.0
 20
-346.5
 30
0.0
 11
-250.0
 21
-917.99511099999995
 31
0.0
  0
LINE
  8
SIZE
  6
CONTINUOUS
 62
    30
 10
250.0
 20
-346.5
 30
0.0
 11
250.0
 21
-917.99511099999995
 31
0.0
  0
LINE
  8
SIZE
  6
CONTINUOUS
 62
    30
 10
-238.0
 20
-897.99511099999984
 30
0.0
 11
238.0
 21
-897.99511099999984
 31
0.0
  0
CIRCLE
  8
SIZE
  6
CONTINUOUS
 62
    30
 10
-250.0
 20
-897.99511099999984
 30
0.0
 40
6.0
  0
LINE
  8
SIZE
  6
CONTINUOUS
 62
    30
 10
-250.0
 20
-897.99511099999984
 30
0.0
 11
-238.0
 21
-897.99511099999984
 31
0.0
  0
CIRCLE
  8
SIZE
  6
CONTINUOUS
 62
    30
 10
250.0
 20
-897.99511099999984
 30
0.0
 40
6.0
  0
LINE
  8
SIZE
  6
CONTINUOUS
 62
    30
 10
250.0
 20
-897.99511099999984
 30
0.0
 11
238.0
 21
-897.99511099999984
 31
0.0
  0
TEXT
  8
SIZE
  6
CONTINUOUS
 62
    30
 10
-74.05714285714285
 20
-872.99511099999984
 30
0.0
 40
64.0
  1
500
 41
0.9
 72
     1
 11
0.0
 21
-872.99511099999984
 31
0.0
  0
POINT
  8
DEFPOINTS
  6
CONTINUOUS
 62
    30
 10
-250.0
 20
-326.5
 30
0.0
  0
POINT
  8
DEFPOINTS
  6
CONTINUOUS
 62
    30
 10
250.0
 20
-326.5
 30
0.0
  0
POINT
  8
DEFPOINTS
  6
CONTINUOUS
 62
    30
 10
250.0
 20
-897.99511099999984
 30
0.0
  0
LINE
  8
SIZE
  6
CONTINUOUS
 62
    30
 10
-290.00003000000021
 20
-620.71123
 30
0.0
 11
-290.00003000000021
 21
-1037.995111
 31
0.0
  0
LINE
  8
SIZE
  6
CONTINUOUS
 62
    30
 10
290.0000500000001
 20
-620.71123
 30
0.0
 11
290.0000500000001
 21
-1037.995111
 31
0.0
  0
LINE
  8
SIZE
  6
CONTINUOUS
 62
    30
 10
-278.00003000000021
 20
-1017.995111
 30
0.0
 11
278.0000500000001
 21
-1017.995111
 31
0.0
  0
CIRCLE
  8
SIZE
  6
CONTINUOUS
 62
    30
 10
-290.00003000000021
 20
-1017.995111
 30
0.0
 40
6.0
  0
LINE
  8
SIZE
  6
CONTINUOUS
 62
    30
 10
-290.00003000000021
 20
-1017.995111
 30
0.0
 11
-278.00003000000021
 21
-1017.995111
 31
0.0
  0
CIRCLE
  8
SIZE
  6
CONTINUOUS
 62
    30
 10
290.0000500000001
 20
-1017.995111
 30
0.0
 40
6.0
  0
LINE
  8
SIZE
  6
CONTINUOUS
 62
    30
 10
290.0000500000001
 20
-1017.995111
 30
0.0
 11
278.0000500000001
 21
-1017.995111
 31
0.0
  0
TEXT
  8
SIZE
  6
CONTINUOUS
 62
    30
 10
-74.057142857142836
 20
-992.99511099999995
 30
0.0
 40
64.0
  1
580
 41
0.9
 72
     1
 11
0.0
 21
-992.99511099999995
 31
0.0
  0
POINT
  8
DEFPOINTS
  6
CONTINUOUS
 62
    30
 10
290.0000500000001
 20
-1017.995111
 30
0.0
  0
LINE
  8
SIZE
  6
CONTINUOUS
 62
    30
 10
-139.01613999999969
 20
-141.49995999999999
 30
0.0
 11
-390.630584
 21
-141.49995999999999
 31
0.0
  0
LINE
  8
SIZE
  6
CONTINUOUS
 62
    30
 10
-139.01613999999969
 20
-161.49995999999999
 30
0.0
 11
-390.630584
 21
-161.49995999999999
 31
0.0
  0
LINE
  8
SIZE
  6
CONTINUOUS
 62
    30
 10
-370.630584
 20
-173.49995999999999
 30
0.0
 11
-370.630584
 21
-185.49995999999999
 31
0.0
  0
LINE
  8
SIZE
  6
CONTINUOUS
 62
    30
 10
-370.630584
 20
-129.49995999999999
 30
0.0
 11
-370.630584
 21
860.68289700000014
 31
0.0
  0
LINE
  8
SIZE
  6
CONTINUOUS
 62
    30
 10
-370.630584
 20
-161.49995999999999
 30
0.0
 11
-370.630584
 21
-141.49995999999999
 31
0.0
  0
CIRCLE
  8
SIZE
  6
CONTINUOUS
 62
    30
 10
-370.630584
 20
-161.49995999999999
 30
0.0
 40
6.0
  0
LINE
  8
SIZE
  6
CONTINUOUS
 62
    30
 10
-370.630584
 20
-161.49995999999999
 30
0.0
 11
-370.630584
 21
-173.49995999999999
 31
0.0
  0
CIRCLE
  8
SIZE
  6
CONTINUOUS
 62
    30
 10
-370.630584
 20
-141.49995999999999
 30
0.0
 40
6.0
  0
LINE
  8
SIZE
  6
CONTINUOUS
 62
    30
 10
-370.630584
 20
-141.49995999999999
 30
0.0
 11
-370.630584
 21
-129.49995999999999
 31
0.0
  0
TEXT
  8
SIZE
  6
CONTINUOUS
 62
    30
 10
-395.630584
 20
-74.945673857142708
 30
0.0
 40
64.0
  1
20（ダクト接続口可動寸法）
 50
90.0
 41
0.9
 72
     1
 11
-395.630584
 21
371.59146900000002
 31
0.0
  0
POINT
  8
DEFPOINTS
  6
CONTINUOUS
 62
    30
 10
-119.01613999999969
 20
-141.49995999999999
 30
0.0
  0
POINT
  8
DEFPOINTS
  6
CONTINUOUS
 62
    30
 10
-119.01613999999969
 20
-161.49995999999999
 30
0.0
  0
POINT
  8
DEFPOINTS
  6
CONTINUOUS
 62
    30
 10
-370.630584
 20
-161.49995999999999
 30
0.0
  0
LINE
  8
SIZE
  6
CONTINUOUS
 62
    30
 10
-20.0
 20
-23.228200000000019
 30
0.0
 11
-20.0
 21
113.6314609999999
 31
0.0
  0
LINE
  8
SIZE
  6
CONTINUOUS
 62
    30
 10
20.0
 20
-23.228200000000019
 30
0.0
 11
20.0
 21
113.6314609999999
 31
0.0
  0
LINE
  8
SIZE
  6
CONTINUOUS
 62
    30
 10
-32.0
 20
93.631460999999945
 30
0.0
 11
-44.0
 21
93.631460999999945
 31
0.0
  0
LINE
  8
SIZE
  6
CONTINUOUS
 62
    30
 10
32.0
 20
93.631460999999945
 30
0.0
 11
1232.9825539999999
 21
93.631460999999945
 31
0.0
  0
LINE
  8
SIZE
  6
CONTINUOUS
 62
    30
 10
-20.0
 20
93.631460999999945
 30
0.0
 11
20.0
 21
93.631460999999945
 31
0.0
  0
CIRCLE
  8
SIZE
  6
CONTINUOUS
 62
    30
 10
-20.0
 20
93.631460999999945
 30
0.0
 40
6.0
  0
LINE
  8
SIZE
  6
CONTINUOUS
 62
    30
 10
-20.0
 20
93.631460999999945
 30
0.0
 11
-32.0
 21
93.631460999999945
 31
0.0
  0
CIRCLE
  8
SIZE
  6
CONTINUOUS
 62
    30
 10
20.0
 20
93.631460999999945
 30
0.0
 40
6.0
  0
LINE
  8
SIZE
  6
CONTINUOUS
 62
    30
 10
20.0
 20
93.631460999999945
 30
0.0
 11
32.0
 21
93.631460999999945
 31
0.0
  0
TEXT
  8
SIZE
  6
CONTINUOUS
 62
    30
 10
297.35398314285732
 20
118.6314609999999
 30
0.0
 40
64.0
  1
40（ダクト接続口可動寸法）
 41
0.9
 72
     1
 11
743.89112599999999
 21
118.6314609999999
 31
0.0
  0
POINT
  8
DEFPOINTS
  6
CONTINUOUS
 62
    30
 10
-20.0
 20
-43.228200000000022
 30
0.0
  0
POINT
  8
DEFPOINTS
  6
CONTINUOUS
 62
    30
 10
20.0
 20
-43.228200000000022
 30
0.0
  0
POINT
  8
DEFPOINTS
  6
CONTINUOUS
 62
    30
 10
20.0
 20
93.631460999999945
 30
0.0
  0
LINE
  8
BASIS
  6
DASHDOT
 62
     6
 10
0.0
 20
66.172780999999986
 30
0.0
 11
0.0
 21
-636.22077200000001
 31
0.0
  0
LINE
  8
DETAIL
  6
CONTINUOUS
 62
     5
 10
173.0
 20
-345.48500000000001
 30
0.0
 11
173.0
 21
-4.5
 31
0.0
  0
LINE
  8
DETAIL
  6
CONTINUOUS
 62
     5
 10
-173.0
 20
-345.48500000000001
 30
0.0
 11
-173.0
 21
-4.5
 31
0.0
  0
LINE
  8
DETAIL
  6
CONTINUOUS
 62
     5
 10
-274.0
 20
-410.55961000000002
 30
0.0
 11
274.0
 21
-410.55961000000002
 31
0.0
  0
LINE
  8
DETAIL
  6
CONTINUOUS
 62
     5
 10
-275.0
 20
-598.50046999999995
 30
0.0
 11
275.0
 21
-598.50046999999995
 31
0.0
  0
LINE
  8
DETAIL
  6
CONTINUOUS
 62
     5
 10
-275.0
 20
-496.94528000000003
 30
0.0
 11
275.0
 21
-496.94528000000003
 31
0.0
  0
LINE
  8
DETAIL
  6
CONTINUOUS
 62
     5
 10
-13.281410000000051
 20
-510.07166000000012
 30
0.0
 11
-111.7185799999997
 21
-510.07166000000012
 31
0.0
  0
LINE
  8
DETAIL
  6
CONTINUOUS
 62
     5
 10
-13.281410000000051
 20
-502.25749000000002
 30
0.0
 11
-111.7185799999997
 21
-502.25749000000002
 31
0.0
  0
LINE
  8
DETAIL
  6
CONTINUOUS
 62
     5
 10
-13.281410000000051
 20
-506.16449000000011
 30
0.0
 11
-111.7185799999997
 21
-506.16449000000011
 31
0.0
  0
LINE
  8
DETAIL
  6
CONTINUOUS
 62
     5
 10
-171.0
 20
-347.48500000000001
 30
0.0
 11
171.0
 21
-347.48500000000001
 31
0.0
  0
LINE
  8
DETAIL
  6
CONTINUOUS
 62
     5
 10
138.28142000000031
 20
-510.07166000000012
 30
0.0
 11
236.71858999999989
 21
-510.07166000000012
 31
0.0
  0
LINE
  8
DETAIL
  6
CONTINUOUS
 62
     5
 10
138.28142000000031
 20
-502.25749000000002
 30
0.0
 11
236.71858999999989
 21
-502.25749000000002
 31
0.0
  0
LINE
  8
DETAIL
  6
CONTINUOUS
 62
     5
 10
138.28142000000031
 20
-506.16449000000011
 30
0.0
 11
236.71858999999989
 21
-506.16449000000011
 31
0.0
  0
LINE
  8
DETAIL
  6
CONTINUOUS
 62
     5
 10
275.0
 20
-598.50046999999995
 30
0.0
 11
275.0
 21
-496.94528000000003
 31
0.0
  0
LINE
  8
DETAIL
  6
CONTINUOUS
 62
     5
 10
290.0
 20
-590.71123999999998
 30
0.0
 11
290.0
 21
-1.5
 31
0.0
  0
LINE
  8
DETAIL
  6
CONTINUOUS
 62
     5
 10
275.0
 20
-598.50046999999995
 30
0.0
 11
290.0
 21
-590.71123999999998
 31
0.0
  0
LINE
  8
DETAIL
  6
CONTINUOUS
 62
     5
 10
274.0
 20
-473.44528000000003
 30
0.0
 11
274.0
 21
-346.94528000000008
 31
0.0
  0
LINE
  8
DETAIL
  6
CONTINUOUS
 62
     5
 10
13.281420000000249
 20
-510.07166000000012
 30
0.0
 11
111.71858999999991
 21
-510.07166000000012
 31
0.0
  0
LINE
  8
DETAIL
  6
CONTINUOUS
 62
     5
 10
13.281420000000249
 20
-506.16449000000011
 30
0.0
 11
111.71858999999991
 21
-506.16449000000011
 31
0.0
  0
LINE
  8
DETAIL
  6
CONTINUOUS
 62
     5
 10
13.281420000000249
 20
-502.25749000000002
 30
0.0
 11
111.71858999999991
 21
-502.25749000000002
 31
0.0
  0
LINE
  8
DETAIL
  6
CONTINUOUS
 62
     5
 10
135.0
 20
-465.55961000000002
 30
0.0
 11
215.0
 21
-465.55961000000002
 31
0.0
  0
LINE
  8
DETAIL
  6
CONTINUOUS
 62
     5
 10
220.0
 20
-460.55961000000002
 30
0.0
 11
220.0
 21
-380.55961000000002
 31
0.0
  0
ARC
  8
DETAIL
  6
CONTINUOUS
 62
     5
 10
215.0
 20
-460.55961000000002
 30
0.0
 40
5.0
 50
270.0
 51
0.0
  0
LINE
  8
DETAIL
  6
CONTINUOUS
 62
     5
 10
160.0
 20
-450.55961000000002
 30
0.0
 11
160.0
 21
-390.55961000000002
 31
0.0
  0
LINE
  8
DETAIL
  6
CONTINUOUS
 62
     5
 10
170.0
 20
-450.55961000000002
 30
0.0
 11
170.0
 21
-390.55961000000002
 31
0.0
  0
LINE
  8
DETAIL
  6
CONTINUOUS
 62
     5
 10
160.0
 20
-450.55961000000002
 30
0.0
 11
170.0
 21
-450.55961000000002
 31
0.0
  0
LINE
  8
DETAIL
  6
CONTINUOUS
 62
     5
 10
160.0
 20
-442.55961000000002
 30
0.0
 11
170.0
 21
-442.55961000000002
 31
0.0
  0
LINE
  8
DETAIL
  6
CONTINUOUS
 62
     5
 10
130.0
 20
-460.55961000000002
 30
0.0
 11
130.0
 21
-380.55961000000002
 31
0.0
  0
ARC
  8
DETAIL
  6
CONTINUOUS
 62
     5
 10
135.0
 20
-460.55961000000002
 30
0.0
 40
5.0
 50
180.0
 51
270.0
  0
LINE
  8
DETAIL
  6
CONTINUOUS
 62
     5
 10
135.0
 20
-375.55961000000002
 30
0.0
 11
215.0
 21
-375.55961000000002
 31
0.0
  0
ARC
  8
DETAIL
  6
CONTINUOUS
 62
     5
 10
215.0
 20
-380.55961000000002
 30
0.0
 40
5.0
 50
0.0
 51
90.0
  0
LINE
  8
DETAIL
  6
CONTINUOUS
 62
     5
 10
160.0
 20
-390.55961000000002
 30
0.0
 11
170.0
 21
-390.55961000000002
 31
0.0
  0
LINE
  8
DETAIL
  6
CONTINUOUS
 62
     5
 10
160.0
 20
-398.55961000000002
 30
0.0
 11
170.0
 21
-398.55961000000002
 31
0.0
  0
ARC
  8
DETAIL
  6
CONTINUOUS
 62
     5
 10
171.0
 20
-345.48500000000001
 30
0.0
 40
2.0
 50
270.0
 51
0.0
  0
ARC
  8
DETAIL
  6
CONTINUOUS
 62
     5
 10
135.0
 20
-380.55961000000002
 30
0.0
 40
5.0
 50
90.0
 51
180.0
  0
LINE
  8
DETAIL
  6
CONTINUOUS
 62
     5
 10
-290.0
 20
-590.71123999999998
 30
0.0
 11
-290.0
 21
-1.5
 31
0.0
  0
LINE
  8
DETAIL
  6
CONTINUOUS
 62
     5
 10
-275.0
 20
-598.50046999999995
 30
0.0
 11
-275.0
 21
-496.94528000000003
 31
0.0
  0
LINE
  8
DETAIL
  6
CONTINUOUS
 62
     5
 10
-138.28141000000011
 20
-510.07166000000012
 30
0.0
 11
-236.71857999999969
 21
-510.07166000000012
 31
0.0
  0
LINE
  8
DETAIL
  6
CONTINUOUS
 62
     5
 10
-290.0
 20
-590.71123999999998
 30
0.0
 11
-275.0
 21
-598.50046999999995
 31
0.0
  0
LINE
  8
DETAIL
  6
CONTINUOUS
 62
     5
 10
-138.28141000000011
 20
-502.25749000000002
 30
0.0
 11
-236.71857999999969
 21
-502.25749000000002
 31
0.0
  0
LINE
  8
DETAIL
  6
CONTINUOUS
 62
     5
 10
-138.28141000000011
 20
-506.16449000000011
 30
0.0
 11
-236.71857999999969
 21
-506.16449000000011
 31
0.0
  0
ARC
  8
DETAIL
  6
CONTINUOUS
 62
     5
 10
-171.0
 20
-345.48500000000001
 30
0.0
 40
2.0
 50
180.0
 51
270.0
  0
LINE
  8
DETAIL
  6
CONTINUOUS
 62
     5
 10
-274.0
 20
-346.94528000000008
 30
0.0
 11
-274.0
 21
-473.44528000000003
 31
0.0
  0
LINE
  8
DETAIL
  6
CONTINUOUS
 62
     5
 10
-100.0
 20
0.0
 30
0.0
 11
100.0
 21
0.0
 31
0.0
  0
LINE
  8
DETAIL
  6
CONTINUOUS
 62
     5
 10
-100.0
 20
-16.5
 30
0.0
 11
100.0
 21
-16.5
 31
0.0
  0
LINE
  8
DETAIL
  6
CONTINUOUS
 62
     5
 10
97.0
 20
-251.5
 30
0.0
 11
-97.0
 21
-251.5
 31
0.0
  0
LINE
  8
DETAIL
  6
CONTINUOUS
 62
     5
 10
-97.0
 20
-51.5
 30
0.0
 11
97.0
 21
-51.5
 31
0.0
  0
LINE
  8
DETAIL
  6
CONTINUOUS
 62
     5
 10
-65.028839999999946
 20
-182.0
 30
0.0
 11
-50.0
 21
-182.0
 31
0.0
  0
CIRCLE
  8
DETAIL
  6
CONTINUOUS
 62
     5
 10
0.0
 20
-151.5
 30
0.0
 40
97.5
  0
CIRCLE
  8
DETAIL
  6
CONTINUOUS
 62
     5
 10
0.0
 20
-151.5
 30
0.0
 40
74.0
  0
CIRCLE
  8
DETAIL
  6
CONTINUOUS
 62
     5
 10
0.0
 20
-151.5
 30
0.0
 40
77.0
  0
CIRCLE
  8
DETAIL
  6
CONTINUOUS
 62
     5
 10
0.0
 20
-151.5
 30
0.0
 40
73.0
  0
LINE
  8
DETAIL
  6
CONTINUOUS
 62
     5
 10
210.0
 20
1.0
 30
0.0
 11
270.0
 21
1.0
 31
0.0
  0
LINE
  8
DETAIL
  6
CONTINUOUS
 62
     5
 10
220.0
 20
-18.5
 30
0.0
 11
260.0
 21
-18.5
 31
0.0
  0
LINE
  8
DETAIL
  6
CONTINUOUS
 62
     5
 10
210.0
 20
-21.0
 30
0.0
 11
270.0
 21
-21.0
 31
0.0
  0
LINE
  8
DETAIL
  6
CONTINUOUS
 62
     5
 10
220.0
 20
-11.0
 30
0.0
 11
260.0
 21
-11.0
 31
0.0
  0
LINE
  8
DETAIL
  6
CONTINUOUS
 62
     5
 10
270.0
 20
1.0
 30
0.0
 11
270.0
 21
-21.0
 31
0.0
  0
LINE
  8
DETAIL
  6
CONTINUOUS
 62
     5
 10
270.0
 20
-1.5
 30
0.0
 11
290.0
 21
-1.5
 31
0.0
  0
LINE
  8
DETAIL
  6
CONTINUOUS
 62
     5
 10
260.0
 20
-11.0
 30
0.0
 11
260.0
 21
-18.5
 31
0.0
  0
LINE
  8
DETAIL
  6
CONTINUOUS
 62
     5
 10
100.0
 20
-54.5
 30
0.0
 11
100.0
 21
-248.5
 31
0.0
  0
CIRCLE
  8
DETAIL
  6
CONTINUOUS
 62
     5
 10
82.5
 20
-234.0
 30
0.0
 40
4.0
  0
ARC
  8
DETAIL
  6
CONTINUOUS
 62
     5
 10
82.5
 20
-244.0
 30
0.0
 40
2.5
 50
180.0
 51
359.81749534215862
  0
CIRCLE
  8
DETAIL
  6
CONTINUOUS
 62
     5
 10
120.0
 20
-307.5
 30
0.0
 40
4.0
  0
ARC
  8
DETAIL
  6
CONTINUOUS
 62
     5
 10
139.5
 20
-307.5
 30
0.0
 40
2.5
 50
270.0
 51
90.0
  0
LINE
  8
DETAIL
  6
CONTINUOUS
 62
     5
 10
123.1224999999999
 20
-305.0
 30
0.0
 11
139.5
 21
-305.0
 31
0.0
  0
LINE
  8
DETAIL
  6
CONTINUOUS
 62
     5
 10
123.1224999999999
 20
-310.0
 30
0.0
 11
139.5
 21
-310.0
 31
0.0
  0
ARC
  8
DETAIL
  6
CONTINUOUS
 62
     5
 10
100.5
 20
-307.5
 30
0.0
 40
2.5
 50
90.0
 51
270.0
  0
LINE
  8
DETAIL
  6
CONTINUOUS
 62
     5
 10
100.5
 20
-305.0
 30
0.0
 11
116.8775000000001
 21
-305.0
 31
0.0
  0
LINE
  8
DETAIL
  6
CONTINUOUS
 62
     5
 10
100.5
 20
-310.0
 30
0.0
 11
116.8775000000001
 21
-310.0
 31
0.0
  0
LINE
  8
DETAIL
  6
CONTINUOUS
 62
     5
 10
85.0
 20
-237.12249999999989
 30
0.0
 11
85.0
 21
-244.0
 31
0.0
  0
ARC
  8
DETAIL
  6
CONTINUOUS
 62
     5
 10
97.0
 20
-248.5
 30
0.0
 40
3.0
 50
270.0
 51
0.0
  0
ARC
  8
DETAIL
  6
CONTINUOUS
 62
     5
 10
82.5
 20
-224.0
 30
0.0
 40
2.5
 50
0.0
 51
179.9087476710753
  0
LINE
  8
DETAIL
  6
CONTINUOUS
 62
     5
 10
85.0
 20
-224.0
 30
0.0
 11
85.0
 21
-230.87750000000011
 31
0.0
  0
LINE
  8
DETAIL
  6
CONTINUOUS
 62
     5
 10
80.0
 20
-237.12249999999989
 30
0.0
 11
80.0
 21
-244.0
 31
0.0
  0
LINE
  8
DETAIL
  6
CONTINUOUS
 62
     5
 10
80.0
 20
-224.0
 30
0.0
 11
80.0
 21
-230.87750000000011
 31
0.0
  0
LINE
  8
DETAIL
  6
CONTINUOUS
 62
     5
 10
50.0
 20
-202.48038999999989
 30
0.0
 11
50.0
 21
-182.0
 31
0.0
  0
ARC
  8
DETAIL
  6
CONTINUOUS
 62
     5
 10
45.0
 20
-202.48038999999989
 30
0.0
 40
5.0
 50
311.43459900000499
 51
0.0
  0
LINE
  8
DETAIL
  6
CONTINUOUS
 62
     5
 10
65.028839999999946
 20
-182.0
 30
0.0
 11
50.0
 21
-182.0
 31
0.0
  0
ARC
  8
DETAIL
  6
CONTINUOUS
 62
     5
 10
65.028839999999946
 20
-180.0
 30
0.0
 40
2.0
 50
270.0
 51
336.33374299999991
  0
LINE
  8
DETAIL
  6
CONTINUOUS
 62
     5
 10
-50.0
 20
-202.48038999999989
 30
0.0
 11
-50.0
 21
-182.0
 31
0.0
  0
ARC
  8
DETAIL
  6
CONTINUOUS
 62
     5
 10
-45.0
 20
-202.48038999999989
 30
0.0
 40
5.0
 50
180.0
 51
228.56540099999501
  0
CIRCLE
  8
DETAIL
  6
CONTINUOUS
 62
     5
 10
82.5
 20
-69.0
 30
0.0
 40
4.0
  0
ARC
  8
DETAIL
  6
CONTINUOUS
 62
     5
 10
82.5
 20
-79.0
 30
0.0
 40
2.5
 50
180.0
 51
359.81749534215862
  0
LINE
  8
DETAIL
  6
CONTINUOUS
 62
     5
 10
210.0
 20
1.0
 30
0.0
 11
210.0
 21
-21.0
 31
0.0
  0
LINE
  8
DETAIL
  6
CONTINUOUS
 62
     5
 10
85.0
 20
-79.0
 30
0.0
 11
85.0
 21
-72.122499999999945
 31
0.0
  0
ARC
  8
DETAIL
  6
CONTINUOUS
 62
     5
 10
97.0
 20
-54.5
 30
0.0
 40
3.0
 50
0.0
 51
90.0
  0
ARC
  8
DETAIL
  6
CONTINUOUS
 62
     5
 10
82.5
 20
-59.0
 30
0.0
 40
2.5
 50
0.0
 51
179.9087476710753
  0
LINE
  8
DETAIL
  6
CONTINUOUS
 62
     5
 10
85.0
 20
-65.877500000000055
 30
0.0
 11
85.0
 21
-59.0
 31
0.0
  0
LINE
  8
DETAIL
  6
CONTINUOUS
 62
     5
 10
100.0
 20
-1.5
 30
0.0
 11
210.0
 21
-1.5
 31
0.0
  0
LINE
  8
DETAIL
  6
CONTINUOUS
 62
     5
 10
220.0
 20
-11.0
 30
0.0
 11
220.0
 21
-18.5
 31
0.0
  0
ARC
  8
DETAIL
  6
CONTINUOUS
 62
     5
 10
170.0
 20
-4.5
 30
0.0
 40
3.0
 50
0.0
 51
90.0
  0
LINE
  8
DETAIL
  6
CONTINUOUS
 62
     5
 10
100.0
 20
-16.5
 30
0.0
 11
100.0
 21
0.0
 31
0.0
  0
LINE
  8
DETAIL
  6
CONTINUOUS
 62
     5
 10
80.0
 20
-79.0
 30
0.0
 11
80.0
 21
-72.122499999999945
 31
0.0
  0
LINE
  8
DETAIL
  6
CONTINUOUS
 62
     5
 10
80.0
 20
-65.877500000000055
 30
0.0
 11
80.0
 21
-59.0
 31
0.0
  0
LINE
  8
DETAIL
  6
CONTINUOUS
 62
     5
 10
4.5
 20
-92.5
 30
0.0
 11
-4.5
 21
-92.5
 31
0.0
  0
LINE
  8
DETAIL
  6
CONTINUOUS
 62
     5
 10
-6.0
 20
-80.900999999999954
 30
0.0
 11
-6.0
 21
-91.0
 31
0.0
  0
LINE
  8
DETAIL
  6
CONTINUOUS
 62
     5
 10
6.0
 20
-80.900999999999954
 30
0.0
 11
6.0
 21
-91.0
 31
0.0
  0
ARC
  8
DETAIL
  6
CONTINUOUS
 62
     5
 10
-4.5
 20
-91.0
 30
0.0
 40
1.5
 50
180.0
 51
270.0
  0
ARC
  8
DETAIL
  6
CONTINUOUS
 62
     5
 10
4.5
 20
-91.0
 30
0.0
 40
1.5
 50
270.0
 51
0.0
  0
ARC
  8
DETAIL
  6
CONTINUOUS
 62
     5
 10
-8.0
 20
-80.900999999999954
 30
0.0
 40
2.0
 50
0.0
 51
83.34253299998268
  0
ARC
  8
DETAIL
  6
CONTINUOUS
 62
     5
 10
8.0
 20
-80.900999999999954
 30
0.0
 40
2.0
 50
96.65746700001732
 51
180.0
  0
LINE
  8
DETAIL
  6
CONTINUOUS
 62
     5
 10
-100.0
 20
-54.5
 30
0.0
 11
-100.0
 21
-248.5
 31
0.0
  0
LINE
  8
DETAIL
  6
CONTINUOUS
 62
     5
 10
-123.1224999999999
 20
-305.0
 30
0.0
 11
-139.5
 21
-305.0
 31
0.0
  0
LINE
  8
DETAIL
  6
CONTINUOUS
 62
     5
 10
-123.1224999999999
 20
-310.0
 30
0.0
 11
-139.5
 21
-310.0
 31
0.0
  0
ARC
  8
DETAIL
  6
CONTINUOUS
 62
     5
 10
-100.5
 20
-307.5
 30
0.0
 40
2.5
 50
270.0
 51
90.0
  0
LINE
  8
DETAIL
  6
CONTINUOUS
 62
     5
 10
-100.5
 20
-305.0
 30
0.0
 11
-116.8775000000001
 21
-305.0
 31
0.0
  0
LINE
  8
DETAIL
  6
CONTINUOUS
 62
     5
 10
-100.5
 20
-310.0
 30
0.0
 11
-116.8775000000001
 21
-310.0
 31
0.0
  0
CIRCLE
  8
DETAIL
  6
CONTINUOUS
 62
     5
 10
-120.0
 20
-307.5
 30
0.0
 40
4.0
  0
ARC
  8
DETAIL
  6
CONTINUOUS
 62
     5
 10
-97.0
 20
-248.5
 30
0.0
 40
3.0
 50
180.0
 51
270.0
  0
LINE
  8
DETAIL
  6
CONTINUOUS
 62
     5
 10
-85.0
 20
-237.12249999999989
 30
0.0
 11
-85.0
 21
-244.0
 31
0.0
  0
LINE
  8
DETAIL
  6
CONTINUOUS
 62
     5
 10
-80.0
 20
-237.12249999999989
 30
0.0
 11
-80.0
 21
-244.0
 31
0.0
  0
ARC
  8
DETAIL
  6
CONTINUOUS
 62
     5
 10
-82.5
 20
-244.0
 30
0.0
 40
2.5
 50
180.0
 51
359.81749534215862
  0
CIRCLE
  8
DETAIL
  6
CONTINUOUS
 62
     5
 10
-82.5
 20
-234.0
 30
0.0
 40
4.0
  0
ARC
  8
DETAIL
  6
CONTINUOUS
 62
     5
 10
-82.5
 20
-224.0
 30
0.0
 40
2.5
 50
0.0
 51
179.9087476710753
  0
LINE
  8
DETAIL
  6
CONTINUOUS
 62
     5
 10
-85.0
 20
-224.0
 30
0.0
 11
-85.0
 21
-230.87750000000011
 31
0.0
  0
LINE
  8
DETAIL
  6
CONTINUOUS
 62
     5
 10
-80.0
 20
-224.0
 30
0.0
 11
-80.0
 21
-230.87750000000011
 31
0.0
  0
ARC
  8
DETAIL
  6
CONTINUOUS
 62
     5
 10
-139.5
 20
-307.5
 30
0.0
 40
2.5
 50
90.0
 51
270.0
  0
ARC
  8
DETAIL
  6
CONTINUOUS
 62
     5
 10
-65.028839999999946
 20
-180.0
 30
0.0
 40
2.0
 50
203.66625700000009
 51
270.0
  0
LINE
  8
DETAIL
  6
CONTINUOUS
 62
     5
 10
-210.0
 20
-1.5
 30
0.0
 11
-100.0
 21
-1.5
 31
0.0
  0
CIRCLE
  8
DETAIL
  6
CONTINUOUS
 62
     5
 10
-82.5
 20
-69.0
 30
0.0
 40
4.0
  0
LINE
  8
DETAIL
  6
CONTINUOUS
 62
     5
 10
-85.0
 20
-79.0
 30
0.0
 11
-85.0
 21
-72.122499999999945
 31
0.0
  0
ARC
  8
DETAIL
  6
CONTINUOUS
 62
     5
 10
-82.5
 20
-79.0
 30
0.0
 40
2.5
 50
180.0
 51
359.81749534215862
  0
LINE
  8
DETAIL
  6
CONTINUOUS
 62
     5
 10
-80.0
 20
-79.0
 30
0.0
 11
-80.0
 21
-72.122499999999945
 31
0.0
  0
ARC
  8
DETAIL
  6
CONTINUOUS
 62
     5
 10
-97.0
 20
-54.5
 30
0.0
 40
3.0
 50
90.0
 51
180.0
  0
ARC
  8
DETAIL
  6
CONTINUOUS
 62
     5
 10
-82.5
 20
-59.0
 30
0.0
 40
2.5
 50
0.0
 51
179.9087476710753
  0
LINE
  8
DETAIL
  6
CONTINUOUS
 62
     5
 10
-85.0
 20
-65.877500000000055
 30
0.0
 11
-85.0
 21
-59.0
 31
0.0
  0
LINE
  8
DETAIL
  6
CONTINUOUS
 62
     5
 10
-80.0
 20
-65.877500000000055
 30
0.0
 11
-80.0
 21
-59.0
 31
0.0
  0
LINE
  8
DETAIL
  6
CONTINUOUS
 62
     5
 10
-100.0
 20
-16.5
 30
0.0
 11
-100.0
 21
0.0
 31
0.0
  0
ARC
  8
DETAIL
  6
CONTINUOUS
 62
     5
 10
-170.0
 20
-4.5
 30
0.0
 40
3.0
 50
90.0
 51
180.0
  0
LINE
  8
DETAIL
  6
CONTINUOUS
 62
     5
 10
-270.0
 20
1.0
 30
0.0
 11
-270.0
 21
-21.0
 31
0.0
  0
LINE
  8
DETAIL
  6
CONTINUOUS
 62
     5
 10
-210.0
 20
1.0
 30
0.0
 11
-210.0
 21
-21.0
 31
0.0
  0
LINE
  8
DETAIL
  6
CONTINUOUS
 62
     5
 10
-270.0
 20
-21.0
 30
0.0
 11
-210.0
 21
-21.0
 31
0.0
  0
LINE
  8
DETAIL
  6
CONTINUOUS
 62
     5
 10
-290.0
 20
-1.5
 30
0.0
 11
-270.0
 21
-1.5
 31
0.0
  0
LINE
  8
DETAIL
  6
CONTINUOUS
 62
     5
 10
-270.0
 20
1.0
 30
0.0
 11
-210.0
 21
1.0
 31
0.0
  0
LINE
  8
DETAIL
  6
CONTINUOUS
 62
     5
 10
-260.0
 20
-18.5
 30
0.0
 11
-220.0
 21
-18.5
 31
0.0
  0
LINE
  8
DETAIL
  6
CONTINUOUS
 62
     5
 10
-260.0
 20
-11.0
 30
0.0
 11
-220.0
 21
-11.0
 31
0.0
  0
LINE
  8
DETAIL
  6
CONTINUOUS
 62
     5
 10
-220.0
 20
-11.0
 30
0.0
 11
-220.0
 21
-18.5
 31
0.0
  0
LINE
  8
DETAIL
  6
CONTINUOUS
 62
     5
 10
-260.0
 20
-11.0
 30
0.0
 11
-260.0
 21
-18.5
 31
0.0
  0
LINE
  8
SIZE
  6
CONTINUOUS
 62
    30
 10
295.0
 20
-496.94528000000003
 30
0.0
 11
726.42735399999992
 21
-496.94528000000003
 31
0.0
  0
LINE
  8
SIZE
  6
CONTINUOUS
 62
    30
 10
310.0
 20
-473.44528000000003
 30
0.0
 11
726.42735399999992
 21
-473.44528000000003
 31
0.0
  0
LINE
  8
SIZE
  6
CONTINUOUS
 62
    30
 10
706.42735399999992
 20
-461.44528000000003
 30
0.0
 11
706.42735399999992
 21
-449.44528000000003
 31
0.0
  0
LINE
  8
SIZE
  6
CONTINUOUS
 62
    30
 10
706.42735399999992
 20
-508.94528000000003
 30
0.0
 11
706.42735399999992
 21
-855.26012400000002
 31
0.0
  0
LINE
  8
SIZE
  6
CONTINUOUS
 62
    30
 10
706.42735399999992
 20
-473.44528000000003
 30
0.0
 11
706.42735399999992
 21
-496.94528000000003
 31
0.0
  0
CIRCLE
  8
SIZE
  6
CONTINUOUS
 62
    30
 10
706.42735399999992
 20
-473.44528000000003
 30
0.0
 40
6.0
  0
LINE
  8
SIZE
  6
CONTINUOUS
 62
    30
 10
706.42735399999992
 20
-473.44528000000003
 30
0.0
 11
706.42735399999992
 21
-461.44528000000003
 31
0.0
  0
CIRCLE
  8
SIZE
  6
CONTINUOUS
 62
    30
 10
706.42735399999992
 20
-496.94528000000003
 30
0.0
 40
6.0
  0
LINE
  8
SIZE
  6
CONTINUOUS
 62
    30
 10
706.42735399999992
 20
-496.94528000000003
 30
0.0
 11
706.42735399999992
 21
-508.94528000000003
 31
0.0
  0
TEXT
  8
SIZE
  6
CONTINUOUS
 62
    30
 10
681.42735399999992
 20
-830.26012457142861
 30
0.0
 40
64.0
  1
23.5
 50
90.0
 41
0.9
 72
     1
 11
681.42735399999992
 21
-742.488696
 31
0.0
  0
POINT
  8
DEFPOINTS
  6
CONTINUOUS
 62
    30
 10
706.42735399999992
 20
-473.44528000000003
 30
0.0
  0
LINE
  8
SIZE
  6
CONTINUOUS
 62
    30
 10
310.0
 20
-473.44528000000003
 30
0.0
 11
846.42735399999992
 21
-473.44528000000003
 31
0.0
  0
LINE
  8
SIZE
  6
CONTINUOUS
 62
    30
 10
310.0
 20
-346.94528000000008
 30
0.0
 11
846.42735399999992
 21
-346.94528000000008
 31
0.0
  0
LINE
  8
SIZE
  6
CONTINUOUS
 62
    30
 10
826.42735399999992
 20
-358.94528000000008
 30
0.0
 11
826.42735399999992
 21
-461.44528000000003
 31
0.0
  0
LINE
  8
SIZE
  6
CONTINUOUS
 62
    30
 10
826.42735399999992
 20
-473.44528000000003
 30
0.0
 11
826.42735399999992
 21
-890.84206600000005
 31
0.0
  0
CIRCLE
  8
SIZE
  6
CONTINUOUS
 62
    30
 10
826.42735399999992
 20
-346.94528000000008
 30
0.0
 40
6.0
  0
LINE
  8
SIZE
  6
CONTINUOUS
 62
    30
 10
826.42735399999992
 20
-346.94528000000008
 30
0.0
 11
826.42735399999992
 21
-358.94528000000008
 31
0.0
  0
CIRCLE
  8
SIZE
  6
CONTINUOUS
 62
    30
 10
826.42735399999992
 20
-473.44528000000003
 30
0.0
 40
6.0
  0
LINE
  8
SIZE
  6
CONTINUOUS
 62
    30
 10
826.42735399999992
 20
-473.44528000000003
 30
0.0
 11
826.42735399999992
 21
-461.44528000000003
 31
0.0
  0
TEXT
  8
SIZE
  6
CONTINUOUS
 62
    30
 10
801.42735399999992
 20
-865.84206571428581
 30
0.0
 40
64.0
  1
126.5
 50
90.0
 41
0.9
 72
     1
 11
801.42735399999992
 21
-756.12778000000003
 31
0.0
  0
POINT
  8
DEFPOINTS
  6
CONTINUOUS
 62
    30
 10
290.0
 20
-473.44528000000003
 30
0.0
  0
POINT
  8
DEFPOINTS
  6
CONTINUOUS
 62
    30
 10
826.42735399999992
 20
-346.94528000000008
 30
0.0
  0
LINE
  8
SIZE
  6
CONTINUOUS
 62
    30
 10
320.0000500000001
 20
-1.500039999999899
 30
0.0
 11
846.42735399999992
 21
-1.500039999999899
 31
0.0
  0
LINE
  8
SIZE
  6
CONTINUOUS
 62
    30
 10
310.0
 20
-346.94528000000008
 30
0.0
 11
846.42735399999992
 21
-346.94528000000008
 31
0.0
  0
LINE
  8
SIZE
  6
CONTINUOUS
 62
    30
 10
826.42735399999992
 20
-13.500039999999901
 30
0.0
 11
826.42735399999992
 21
-334.94528000000008
 31
0.0
  0
CIRCLE
  8
SIZE
  6
CONTINUOUS
 62
    30
 10
826.42735399999992
 20
-1.500039999999899
 30
0.0
 40
6.0
  0
LINE
  8
SIZE
  6
CONTINUOUS
 62
    30
 10
826.42735399999992
 20
-1.500039999999899
 30
0.0
 11
826.42735399999992
 21
-13.500039999999901
 31
0.0
  0
CIRCLE
  8
SIZE
  6
CONTINUOUS
 62
    30
 10
826.42735399999992
 20
-346.94528000000008
 30
0.0
 40
6.0
  0
LINE
  8
SIZE
  6
CONTINUOUS
 62
    30
 10
826.42735399999992
 20
-346.94528000000008
 30
0.0
 11
826.42735399999992
 21
-334.94528000000008
 31
0.0
  0
TEXT
  8
SIZE
  6
CONTINUOUS
 62
    30
 10
801.42735399999992
 20
-248.2798028571429
 30
0.0
 40
64.0
  1
345
 50
90.0
 41
0.9
 72
     1
 11
801.42735399999992
 21
-174.22265999999999
 31
0.0
  0
POINT
  8
DEFPOINTS
  6
CONTINUOUS
 62
    30
 10
290.0
 20
-346.94528000000008
 30
0.0
  0
POINT
  8
DEFPOINTS
  6
CONTINUOUS
 62
    30
 10
826.42735399999992
 20
-346.94528000000008
 30
0.0
  0
LINE
  8
SIZE
  6
CONTINUOUS
 62
    30
 10
295.0
 20
-598.50046999999995
 30
0.0
 11
1086.4273539999999
 21
-598.50046999999995
 31
0.0
  0
LINE
  8
SIZE
  6
CONTINUOUS
 62
    30
 10
320.0000500000001
 20
-1.500039999999899
 30
0.0
 11
1086.4273539999999
 21
-1.500039999999899
 31
0.0
  0
LINE
  8
SIZE
  6
CONTINUOUS
 62
    30
 10
1066.4273539999999
 20
-586.50046999999995
 30
0.0
 11
1066.4273539999999
 21
-13.500039999999901
 31
0.0
  0
CIRCLE
  8
SIZE
  6
CONTINUOUS
 62
    30
 10
1066.4273539999999
 20
-598.50046999999995
 30
0.0
 40
6.0
  0
LINE
  8
SIZE
  6
CONTINUOUS
 62
    30
 10
1066.4273539999999
 20
-598.50046999999995
 30
0.0
 11
1066.4273539999999
 21
-586.50046999999995
 31
0.0
  0
CIRCLE
  8
SIZE
  6
CONTINUOUS
 62
    30
 10
1066.4273539999999
 20
-1.500039999999899
 30
0.0
 40
6.0
  0
LINE
  8
SIZE
  6
CONTINUOUS
 62
    30
 10
1066.4273539999999
 20
-1.500039999999899
 30
0.0
 11
1066.4273539999999
 21
-13.500039999999901
 31
0.0
  0
TEXT
  8
SIZE
  6
CONTINUOUS
 62
    30
 10
1041.4273539999999
 20
-359.63651585714291
 30
0.0
 40
64.0
  1
597
 50
90.0
 41
0.9
 72
     1
 11
1041.4273539999999
 21
-285.57937299999998
 31
0.0
  0
POINT
  8
DEFPOINTS
  6
CONTINUOUS
 62
    30
 10
275.0
 20
-598.50046999999995
 30
0.0
  0
POINT
  8
DEFPOINTS
  6
CONTINUOUS
 62
    30
 10
1066.4273539999999
 20
-1.500039999999899
 30
0.0
  0
LINE
  8
SIZE
  6
CONTINUOUS
 62
    30
 10
320.0000500000001
 20
-1.500039999999899
 30
0.0
 11
966.42735399999992
 21
-1.500039999999899
 31
0.0
  0
LINE
  8
SIZE
  6
CONTINUOUS
 62
    30
 10
295.0
 20
-496.94528000000003
 30
0.0
 11
966.42735399999992
 21
-496.94528000000003
 31
0.0
  0
LINE
  8
SIZE
  6
CONTINUOUS
 62
    30
 10
946.42735399999992
 20
-13.500039999999901
 30
0.0
 11
946.42735399999992
 21
-484.94528000000003
 31
0.0
  0
CIRCLE
  8
SIZE
  6
CONTINUOUS
 62
    30
 10
946.42735399999992
 20
-1.500039999999899
 30
0.0
 40
6.0
  0
LINE
  8
SIZE
  6
CONTINUOUS
 62
    30
 10
946.42735399999992
 20
-1.500039999999899
 30
0.0
 11
946.42735399999992
 21
-13.500039999999901
 31
0.0
  0
CIRCLE
  8
SIZE
  6
CONTINUOUS
 62
    30
 10
946.42735399999992
 20
-496.94528000000003
 30
0.0
 40
6.0
  0
LINE
  8
SIZE
  6
CONTINUOUS
 62
    30
 10
946.42735399999992
 20
-496.94528000000003
 30
0.0
 11
946.42735399999992
 21
-484.94528000000003
 31
0.0
  0
TEXT
  8
SIZE
  6
CONTINUOUS
 62
    30
 10
921.42735399999992
 20
-323.27980285714278
 30
0.0
 40
64.0
  1
495
 50
90.0
 41
0.9
 72
     1
 11
921.42735399999992
 21
-249.22265999999999
 31
0.0
  0
POINT
  8
DEFPOINTS
  6
CONTINUOUS
 62
    30
 10
275.0
 20
-496.94528000000003
 30
0.0
  0
POINT
  8
DEFPOINTS
  6
CONTINUOUS
 62
    30
 10
946.42735399999992
 20
-496.94528000000003
 30
0.0
  0
LINE
  8
DETAIL
  6
CONTINUOUS
 62
     5
 10
-290.0
 20
-473.44528000000003
 30
0.0
 11
290.0
 21
-473.44528000000003
 31
0.0
  0
LINE
  8
DETAIL
  6
CONTINUOUS
 62
     5
 10
-290.0
 20
-346.94528000000008
 30
0.0
 11
-274.0
 21
-346.94528000000008
 31
0.0
  0
LINE
  8
DETAIL
  6
CONTINUOUS
 62
     5
 10
274.0
 20
-346.94528000000008
 30
0.0
 11
290.0
 21
-346.94528000000008
 31
0.0
  0
LINE
  8
SIZE
  6
CONTINUOUS
 62
    30
 10
-120.0
 20
0.0
 30
0.0
 11
-158.520634
 21
0.0
 31
0.0
  0
LINE
  8
SIZE
  6
CONTINUOUS
 62
    30
 10
-121.93988299999999
 20
-1.5
 30
0.0
 11
-158.520634
 21
-1.5
 31
0.0
  0
LINE
  8
SIZE
  6
CONTINUOUS
 62
    30
 10
-138.520634
 20
12.0
 30
0.0
 11
-138.520634
 21
-25.5
 31
0.0
  0
LINE
  8
SIZE
  6
CONTINUOUS
 62
    30
 10
-138.520634
 20
12.0
 30
0.0
 11
-138.520634
 21
112.40000000000011
 31
0.0
  0
CIRCLE
  8
SIZE
  6
CONTINUOUS
 62
    30
 10
-138.520634
 20
-1.5
 30
0.0
 40
6.0
  0
CIRCLE
  8
SIZE
  6
CONTINUOUS
 62
    30
 10
-138.520634
 20
0.0
 30
0.0
 40
6.0
  0
TEXT
  8
SIZE
  6
CONTINUOUS
 62
    30
 10
-163.520634
 20
49.00000000000005
 30
0.0
 40
64.0
  1
2
 50
90.0
 41
0.9
 72
     1
 11
-163.520634
 21
68.200000000000045
 31
0.0
  0
POINT
  8
DEFPOINTS
  6
CONTINUOUS
 62
    30
 10
-100.0
 20
0.0
 30
0.0
  0
POINT
  8
DEFPOINTS
  6
CONTINUOUS
 62
    30
 10
-101.93988299999999
 20
-1.5
 30
0.0
  0
POINT
  8
DEFPOINTS
  6
CONTINUOUS
 62
    30
 10
-138.520634
 20
-1.5
 30
0.0
  0
LINE
  8
SIZE
  6
CONTINUOUS
 62
    30
 10
140.12186999999989
 20
-151.5
 30
0.0
 11
486.42735399999992
 21
-151.5
 31
0.0
  0
LINE
  8
SIZE
  6
CONTINUOUS
 62
    30
 10
310.0
 20
-1.5
 30
0.0
 11
486.42735399999992
 21
-1.5
 31
0.0
  0
LINE
  8
SIZE
  6
CONTINUOUS
 62
    30
 10
466.42735399999992
 20
-139.5
 30
0.0
 11
466.42735399999992
 21
-13.5
 31
0.0
  0
CIRCLE
  8
SIZE
  6
CONTINUOUS
 62
    30
 10
466.42735399999992
 20
-151.5
 30
0.0
 40
6.0
  0
LINE
  8
SIZE
  6
CONTINUOUS
 62
    30
 10
466.42735399999992
 20
-151.5
 30
0.0
 11
466.42735399999992
 21
-139.5
 31
0.0
  0
CIRCLE
  8
SIZE
  6
CONTINUOUS
 62
    30
 10
466.42735399999992
 20
-1.5
 30
0.0
 40
6.0
  0
LINE
  8
SIZE
  6
CONTINUOUS
 62
    30
 10
466.42735399999992
 20
-1.5
 30
0.0
 11
466.42735399999992
 21
-13.5
 31
0.0
  0
TEXT
  8
SIZE
  6
CONTINUOUS
 62
    30
 10
441.42735399999992
 20
-145.07142857142861
 30
0.0
 40
64.0
  1
150
 50
90.0
 41
0.9
 72
     1
 11
441.42735399999992
 21
-76.5
 31
0.0
  0
POINT
  8
DEFPOINTS
  6
CONTINUOUS
 62
    30
 10
120.1218699999999
 20
-151.5
 30
0.0
  0
POINT
  8
DEFPOINTS
  6
CONTINUOUS
 62
    30
 10
290.0
 20
-1.5
 30
0.0
  0
POINT
  8
DEFPOINTS
  6
CONTINUOUS
 62
    30
 10
466.42735399999992
 20
-1.5
 30
0.0
  0
LINE
  8
BASIS
  6
DASHDOT
 62
     6
 10
240.0
 20
18.72376400000007
 30
0.0
 11
240.0
 21
-29.584317000000059
 31
0.0
  0
LINE
  8
BASIS
  6
DASHDOT
 62
     6
 10
-240.0
 20
18.72376400000007
 30
0.0
 11
-240.0
 21
-29.584317000000059
 31
0.0
  0
LINE
  8
SIZE
  6
CONTINUOUS
 62
    30
 10
-240.0
 20
38.723764000000067
 30
0.0
 11
-240.0
 21
233.63146099999989
 31
0.0
  0
LINE
  8
SIZE
  6
CONTINUOUS
 62
    30
 10
240.0
 20
38.723764000000067
 30
0.0
 11
240.0
 21
233.63146099999989
 31
0.0
  0
LINE
  8
SIZE
  6
CONTINUOUS
 62
    30
 10
-228.0
 20
213.63146099999989
 30
0.0
 11
228.0
 21
213.63146099999989
 31
0.0
  0
CIRCLE
  8
SIZE
  6
CONTINUOUS
 62
    30
 10
-240.0
 20
213.63146099999989
 30
0.0
 40
6.0
  0
LINE
  8
SIZE
  6
CONTINUOUS
 62
    30
 10
-240.0
 20
213.63146099999989
 30
0.0
 11
-228.0
 21
213.63146099999989
 31
0.0
  0
CIRCLE
  8
SIZE
  6
CONTINUOUS
 62
    30
 10
240.0
 20
213.63146099999989
 30
0.0
 40
6.0
  0
LINE
  8
SIZE
  6
CONTINUOUS
 62
    30
 10
240.0
 20
213.63146099999989
 30
0.0
 11
228.0
 21
213.63146099999989
 31
0.0
  0
TEXT
  8
SIZE
  6
CONTINUOUS
 62
    30
 10
-74.057142857142836
 20
238.63146099999989
 30
0.0
 40
64.0
  1
480
 41
0.9
 72
     1
 11
0.0
 21
238.63146099999989
 31
0.0
  0
POINT
  8
DEFPOINTS
  6
CONTINUOUS
 62
    30
 10
-240.0
 20
18.72376400000007
 30
0.0
  0
POINT
  8
DEFPOINTS
  6
CONTINUOUS
 62
    30
 10
240.0
 20
18.72376400000007
 30
0.0
  0
POINT
  8
DEFPOINTS
  6
CONTINUOUS
 62
    30
 10
240.0
 20
213.63146099999989
 30
0.0
  0
ENDSEC
  0
EOF
