  0
SECTION
  2
HEADER
  9
$ACADVER
  1
AC1009
  9
$DWGCODEPAGE
  3
dos932
  9
$INSBASE
 10
0.0
 20
0.0
 30
0.0
  9
$EXTMIN
 10
-1084.92735213941
 20
-925.09459334553139
 30
-0.0015258207003583
  9
$EXTMAX
 10
904.10615156184031
 20
300.88806920788193
 30
0.0000000349246037
  9
$LIMMIN
 10
-2970.0
 20
-2100.0
  9
$LIMMAX
 10
2970.0
 20
2100.0
  9
$ORTHOMODE
 70
     1
  9
$REGENMODE
 70
     1
  9
$FILLMODE
 70
     1
  9
$QTEXTMODE
 70
     0
  9
$MIRRTEXT
 70
     0
  9
$LTSCALE
 40
20.0
  9
$ATTMODE
 70
     1
  9
$TEXTSIZE
 40
64.0
  9
$TRACEWID
 40
0.05
  9
$TEXTSTYLE
  7
STANDARD
  9
$CLAYER
  8
SIZE
  9
$CELTYPE
  6
CONTINUOUS
  9
$CECOLOR
 62
     7
  9
$DIMSCALE
 40
1.0
  9
$DIMASZ
 40
12.0
  9
$DIMEXO
 40
20.0
  9
$DIMDLI
 40
200.0
  9
$DIMRND
 40
0.0
  9
$DIMDLE
 40
0.0
  9
$DIMEXE
 40
20.0
  9
$DIMTP
 40
0.0
  9
$DIMTM
 40
0.0
  9
$DIMTXT
 40
64.0
  9
$DIMCEN
 40
0.09
  9
$DIMTSZ
 40
0.0
  9
$DIMTOL
 70
     0
  9
$DIMLIM
 70
     0
  9
$DIMTIH
 70
     0
  9
$DIMTOH
 70
     0
  9
$DIMSE1
 70
     0
  9
$DIMSE2
 70
     0
  9
$DIMTAD
 70
     1
  9
$DIMZIN
 70
     8
  9
$DIMBLK
  1

  9
$DIMASO
 70
     1
  9
$DIMSHO
 70
     0
  9
$DIMPOST
  1

  9
$DIMAPOST
  1

  9
$DIMALT
 70
     0
  9
$DIMALTD
 70
     2
  9
$DIMALTF
 40
25.399999999999999
  9
$DIMLFAC
 40
1.0
  9
$DIMTOFL
 70
     1
  9
$DIMTVP
 40
0.0
  9
$DIMTIX
 70
     1
  9
$DIMSOXD
 70
     0
  9
$DIMSAH
 70
     0
  9
$DIMBLK1
  1

  9
$DIMBLK2
  1

  9
$DIMSTYLE
  2
STANDARD
  9
$DIMCLRD
 70
     7
  9
$DIMCLRE
 70
     7
  9
$DIMCLRT
 70
     7
  9
$DIMTFAC
 40
1.0
  9
$DIMGAP
 40
25.0
  9
$LUNITS
 70
     2
  9
$LUPREC
 70
     4
  9
$SKETCHINC
 40
0.1
  9
$FILLETRAD
 40
3.0
  9
$AUNITS
 70
     1
  9
$AUPREC
 70
     3
  9
$MENU
  1
ACAD
  9
$ELEVATION
 40
0.0
  9
$PELEVATION
 40
0.0
  9
$THICKNESS
 40
0.0
  9
$LIMCHECK
 70
     0
  9
$CHAMFERA
 40
0.0
  9
$CHAMFERB
 40
0.0
  9
$SKPOLY
 70
     0
  9
$TDCREATE
 40
2453019.62301037
  9
$TDUPDATE
 40
2459025.588149479
  9
$TDINDWG
 40
1.7155599653
  9
$TDUSRTIMER
 40
1.7155599653
  9
$USRTIMER
 70
     1
  9
$ANGBASE
 50
0.0
  9
$ANGDIR
 70
     0
  9
$PDMODE
 70
     3
  9
$PDSIZE
 40
-2.0
  9
$PLINEWID
 40
0.0
  9
$SPLFRAME
 70
     0
  9
$SPLINETYPE
 70
     6
  9
$SPLINESEGS
 70
     8
  9
$SURFTAB1
 70
     6
  9
$SURFTAB2
 70
     6
  9
$SURFTYPE
 70
     6
  9
$SURFU
 70
     6
  9
$SURFV
 70
     6
  9
$UCSNAME
  2

  9
$UCSORG
 10
0.0
 20
0.0
 30
0.0
  9
$UCSXDIR
 10
1.0
 20
0.0
 30
0.0
  9
$UCSYDIR
 10
0.0
 20
1.0
 30
0.0
  9
$PUCSNAME
  2

  9
$PUCSORG
 10
0.0
 20
0.0
 30
0.0
  9
$PUCSXDIR
 10
1.0
 20
0.0
 30
0.0
  9
$PUCSYDIR
 10
0.0
 20
1.0
 30
0.0
  9
$USERI1
 70
     0
  9
$USERI2
 70
     0
  9
$USERI3
 70
     0
  9
$USERI4
 70
     0
  9
$USERI5
 70
     0
  9
$USERR1
 40
20.0
  9
$USERR2
 40
0.0
  9
$USERR3
 40
0.0
  9
$USERR4
 40
0.0
  9
$USERR5
 40
0.0
  9
$WORLDVIEW
 70
     1
  9
$SHADEDGE
 70
     3
  9
$SHADEDIF
 70
    70
  9
$TILEMODE
 70
     1
  9
$MAXACTVP
 70
    48
  9
$PINSBASE
 10
0.0
 20
0.0
 30
0.0
  9
$PLIMCHECK
 70
     0
  9
$PEXTMIN
 10
-100000000000000000000.0
 20
-100000000000000000000.0
 30
-100000000000000000000.0
  9
$PEXTMAX
 10
100000000000000000000.0
 20
100000000000000000000.0
 30
100000000000000000000.0
  9
$PLIMMIN
 10
0.0
 20
0.0
  9
$PLIMMAX
 10
12.0
 20
9.0
  9
$UNITMODE
 70
     0
  9
$VISRETAIN
 70
     0
  9
$PLINEGEN
 70
     0
  9
$PSLTSCALE
 70
     0
  9
$TREEDEPTH
 70
  3020
  9
$ATTDIA
 70
     0
  9
$ATTREQ
 70
     1
  9
$BLIPMODE
 70
     1
  9
$COORDS
 70
     1
  9
$DRAGMODE
 70
     2
  9
$OSMODE
 70
     0
  9
$HANDLING
 70
     0
  9
$HANDSEED
  5
EF88
  0
ENDSEC
  0
SECTION
  2
TABLES
  0
TABLE
  2
LTYPE
 70
     3
  0
LTYPE
  2
CONTINUOUS
 70
     0
  3
実線
 72
    65
 73
     0
 40
0.0
  0
LTYPE
  2
DASHDOT
 70
     0
  3
____ _ ____ _ ____ _ ____ _ ____ _ ____ _ ____
 72
    65
 73
     4
 40
5.5
 49
4.0
 49
-0.6
 49
0.3
 49
-0.6
  0
LTYPE
  2
DASHED
 70
     0
  3
-- -- -- -- -- -- -- -- -- -- -- -- -- -- --
 72
    65
 73
     2
 40
0.75
 49
0.5
 49
-0.25
  0
ENDTAB
  0
TABLE
  2
LAYER
 70
    12
  0
LAYER
  2
0
 70
     0
 62
     7
  6
CONTINUOUS
  0
LAYER
  2
BASIS
 70
     0
 62
     6
  6
DASHDOT
  0
LAYER
  2
OUTLINE
 70
     0
 62
     3
  6
CONTINUOUS
  0
LAYER
  2
DETAIL
 70
     0
 62
     5
  6
CONTINUOUS
  0
LAYER
  2
SIZE
 70
     0
 62
    30
  6
CONTINUOUS
  0
LAYER
  2
ARRANGE
 70
     0
 62
     1
  6
CONTINUOUS
  0
LAYER
  2
DEFPOINTS
 70
     0
 62
     7
  6
CONTINUOUS
  0
LAYER
  2
ETC
 70
     0
 62
    61
  6
CONTINUOUS
  0
LAYER
  2
FIX
 70
     0
 62
    11
  6
CONTINUOUS
  0
LAYER
  2
NOTE
 70
     0
 62
     4
  6
CONTINUOUS
  0
LAYER
  2
SERVICESPACE
 70
    64
 62
     2
  6
DASHDOT
  0
LAYER
  2
SYMBOLLINE
 70
    64
 62
    15
  6
CONTINUOUS
  0
ENDTAB
  0
TABLE
  2
STYLE
 70
     1
  0
STYLE
  2
STANDARD
 70
     0
 40
64.0
 41
0.9
 50
0.0
 71
     0
 42
64.0
  3
SIMPLEX.shx
  4
BIGFONT.shx
  0
ENDTAB
  0
TABLE
  2
APPID
 70
    19
  0
APPID
  2
ACAD
 70
     0
  0
APPID
  2
AUTOCAD_POSTSCRIPT_FIGURE
 70
     0
  0
APPID
  2
ACAD_EXEMPT_FROM_CAD_STANDARDS
 70
     0
  0
APPID
  2
ACAD_PSEXT
 70
     0
  0
APPID
  2
ACAUTHENVIRON
 70
     0
  0
APPID
  2
GENIUS_GENOENT_13
 70
     0
  0
APPID
  2
GENIUS_GENCFG_13
 70
     0
  0
APPID
  2
GENIUS_GENCFG0_13
 70
     0
  0
APPID
  2
GENIUS_GENCFG1_13
 70
     0
  0
APPID
  2
GENIUS_GENCFG2_13
 70
     0
  0
APPID
  2
GENIUS_GENCFG3_13
 70
     0
  0
APPID
  2
GENIUS_GENCFG4_13
 70
     0
  0
APPID
  2
GENIUS_GEVCFG0_13
 70
     0
  0
APPID
  2
CONTENTBLOCKICON
 70
     0
  0
APPID
  2
CONTENTBLOCKDESCRIPTION
 70
     0
  0
APPID
  2
ACAD_NAV_VCDISPLAY
 70
     0
  0
APPID
  2
ACAD_MLEADERVER
 70
     0
  0
APPID
  2
ACDBDYNAMICBLOCKTRUENAME
 70
     0
  0
APPID
  2
ACDBDYNAMICBLOCKGUID
 70
     0
  0
ENDTAB
  0
TABLE
  2
DIMSTYLE
 70
     1
  0
DIMSTYLE
  2
STANDARD
 70
     0
  3

  4

  5
_ORIGIN
  6

  7

 40
1.0
 41
12.0
 42
20.0
 43
200.0
 44
20.0
 45
0.0
 46
0.0
 47
0.0
 48
0.0
140
64.0
141
0.09
142
0.0
143
25.399999999999999
144
1.0
145
0.0
146
1.0
147
25.0
 71
     0
 72
     0
 73
     0
 74
     0
 75
     0
 76
     0
 77
     1
 78
     8
170
     0
171
     2
172
     1
173
     0
174
     1
175
     0
176
     7
177
     7
178
     7
  0
ENDTAB
  0
TABLE
  2
VIEW
 70
     1
  0
VIEW
  2
ALL
 70
     0
 40
4282.6198079999986
 10
0.0
 20
41.309904000000003
 41
5940.0
 11
0.0
 21
0.0
 31
1.0
 12
0.0
 22
0.0
 32
0.0
 42
50.0
 43
0.0
 44
0.0
 50
0.0
 71
     0
  0
ENDTAB
  0
TABLE
  2
UCS
 70
     0
  0
ENDTAB
  0
TABLE
  2
VPORT
 70
     1
  0
VPORT
  2
*ACTIVE
 70
     0
 10
0.0
 20
0.0
 11
1.0
 21
1.0
 12
-90.410600288784906
 22
-312.10326206882468
 13
0.0
 23
0.0
 14
1.0
 24
1.0
 15
0.0
 25
0.0
 16
0.0
 26
0.0
 36
1.0
 17
0.0
 27
0.0
 37
0.0
 40
1234.1107244045961
 41
1.747787610619469
 42
50.0
 43
0.0
 44
0.0
 50
0.0
 51
0.0
 71
     0
 72
  1000
 73
     1
 74
     3
 75
     0
 76
     0
 77
     0
 78
     0
  0
ENDTAB
  0
ENDSEC
  0
SECTION
  2
BLOCKS
  0
BLOCK
  8
0
  2
_ORIGIN
 70
     0
 10
0.0
 20
0.0
 30
0.0
  3
_ORIGIN
  1
_ORIGIN
  0
CIRCLE
  8
0
  6
CONTINUOUS
 62
     7
 10
0.0
 20
0.0
 30
0.0
 40
0.5
  0
LINE
  8
0
  6
CONTINUOUS
 62
     7
 10
0.0
 20
0.0
 30
0.0
 11
-1.0
 21
0.0
 31
0.0
  0
ENDBLK
  8
0
  0
ENDSEC
  0
SECTION
  2
ENTITIES
  0
TEXT
  8
ETC
  6
CONTINUOUS
 62
    61
 10
393.6416119999999
 20
236.69192200000001
 30
0.0
 40
64.0
  1
V-584H4_2
 41
0.9
  0
TEXT
  8
ETC
  6
CONTINUOUS
 62
    61
 10
389.45561800000002
 20
118.73661199999989
 30
0.0
 40
64.0
  1
換気扇
 41
0.9
  0
TEXT
  8
ETC
  6
CONTINUOUS
 62
    61
 10
440.06312000000003
 20
11.81567600000005
 30
0.0
 40
40.0
  1
V-584H4
 41
0.9
  0
CIRCLE
  8
ARRANGE
  6
CONTINUOUS
 62
     1
 10
0.0
 20
0.0
 30
0.0
 40
40.0
  0
POINT
  8
ARRANGE
  6
CONTINUOUS
 62
     1
 10
0.0
 20
0.0
 30
0.0
  0
LINE
  8
BASIS
  6
DASHDOT
 62
     6
 10
0.0
 20
-653.70286799999997
 30
0.0
 11
0.0
 21
38.134249999999952
 31
0.0
  0
LINE
  8
NOTE
  6
CONTINUOUS
 62
     4
 10
240.0
 20
-576.57700199999999
 30
0.0
 11
240.0
 21
-543.42245800000001
 31
0.0
  0
LINE
  8
OUTLINE
  6
CONTINUOUS
 62
     3
 10
290.0
 20
-5.0
 30
0.0
 11
290.0
 21
-594.99973
 31
0.0
  0
LINE
  8
OUTLINE
  6
CONTINUOUS
 62
     3
 10
285.0
 20
-599.99973
 30
0.0
 11
-285.0
 21
-599.99973
 31
0.0
  0
LINE
  8
NOTE
  6
CONTINUOUS
 62
     4
 10
-224.5
 20
-559.99973
 30
0.0
 11
-255.5
 21
-559.99973
 31
0.0
  0
LINE
  8
NOTE
  6
CONTINUOUS
 62
     4
 10
224.5
 20
-559.99973
 30
0.0
 11
255.5
 21
-559.99973
 31
0.0
  0
ARC
  8
OUTLINE
  6
CONTINUOUS
 62
     3
 10
285.0
 20
-594.99973
 30
0.0
 40
5.0
 50
270.0
 51
0.0
  0
ARC
  8
OUTLINE
  6
CONTINUOUS
 62
     3
 10
285.0
 20
-5.0
 30
0.0
 40
5.0
 50
0.0
 51
90.0
  0
LINE
  8
OUTLINE
  6
CONTINUOUS
 62
     3
 10
285.0
 20
0.0
 30
0.0
 11
-285.0
 21
0.0
 31
0.0
  0
LINE
  8
SIZE
  6
CONTINUOUS
 62
    30
 10
-240.0
 20
-595.49973
 30
0.0
 11
-240.0
 21
-805.03348600000004
 31
0.0
  0
LINE
  8
SIZE
  6
CONTINUOUS
 62
    30
 10
240.0
 20
-595.49973
 30
0.0
 11
240.0
 21
-805.03348600000004
 31
0.0
  0
LINE
  8
SIZE
  6
CONTINUOUS
 62
    30
 10
-228.0
 20
-785.03348600000004
 30
0.0
 11
228.0
 21
-785.03348600000004
 31
0.0
  0
CIRCLE
  8
SIZE
  6
CONTINUOUS
 62
    30
 10
-240.0
 20
-785.03348600000004
 30
0.0
 40
6.0
  0
LINE
  8
SIZE
  6
CONTINUOUS
 62
    30
 10
-240.0
 20
-785.03348600000004
 30
0.0
 11
-228.0
 21
-785.03348600000004
 31
0.0
  0
CIRCLE
  8
SIZE
  6
CONTINUOUS
 62
    30
 10
240.0
 20
-785.03348600000004
 30
0.0
 40
6.0
  0
LINE
  8
SIZE
  6
CONTINUOUS
 62
    30
 10
240.0
 20
-785.03348600000004
 30
0.0
 11
228.0
 21
-785.03348600000004
 31
0.0
  0
TEXT
  8
SIZE
  6
CONTINUOUS
 62
    30
 10
-74.057142857142836
 20
-760.03348600000004
 30
0.0
 40
64.0
  1
480
 41
0.9
 72
     1
 11
0.0
 21
-760.03348600000004
 31
0.0
  0
POINT
  8
DEFPOINTS
  6
CONTINUOUS
 62
    30
 10
-240.0
 20
-575.49973
 30
0.0
  0
POINT
  8
DEFPOINTS
  6
CONTINUOUS
 62
    30
 10
240.0
 20
-575.49973
 30
0.0
  0
POINT
  8
DEFPOINTS
  6
CONTINUOUS
 62
    30
 10
240.0
 20
-785.03348600000004
 30
0.0
  0
LINE
  8
OUTLINE
  6
CONTINUOUS
 62
     3
 10
-290.0
 20
-5.0
 30
0.0
 11
-290.0
 21
-594.99973
 31
0.0
  0
ARC
  8
OUTLINE
  6
CONTINUOUS
 62
     3
 10
-285.0
 20
-594.99973
 30
0.0
 40
5.0
 50
180.0
 51
270.0
  0
ARC
  8
OUTLINE
  6
CONTINUOUS
 62
     3
 10
-285.0
 20
-5.0
 30
0.0
 40
5.0
 50
90.0
 51
180.0
  0
LINE
  8
NOTE
  6
CONTINUOUS
 62
     4
 10
-240.0
 20
-576.57700199999999
 30
0.0
 11
-240.0
 21
-543.42245800000001
 31
0.0
  0
LINE
  8
SIZE
  6
CONTINUOUS
 62
    30
 10
-292.58197000000001
 20
-599.99973
 30
0.0
 11
-435.99029000000002
 21
-599.99973
 31
0.0
  0
LINE
  8
SIZE
  6
CONTINUOUS
 62
    30
 10
-275.5
 20
-559.99973
 30
0.0
 11
-435.99029000000002
 21
-559.99973
 31
0.0
  0
LINE
  8
SIZE
  6
CONTINUOUS
 62
    30
 10
-415.99029000000002
 20
-611.99973
 30
0.0
 11
-415.99029000000002
 21
-623.99973
 31
0.0
  0
LINE
  8
SIZE
  6
CONTINUOUS
 62
    30
 10
-415.99029000000002
 20
-547.99973
 30
0.0
 11
-415.99029000000002
 21
-392.74258700000001
 31
0.0
  0
LINE
  8
SIZE
  6
CONTINUOUS
 62
    30
 10
-415.99029000000002
 20
-599.99973
 30
0.0
 11
-415.99029000000002
 21
-559.99973
 31
0.0
  0
CIRCLE
  8
SIZE
  6
CONTINUOUS
 62
    30
 10
-415.99029000000002
 20
-599.99973
 30
0.0
 40
6.0
  0
LINE
  8
SIZE
  6
CONTINUOUS
 62
    30
 10
-415.99029000000002
 20
-599.99973
 30
0.0
 11
-415.99029000000002
 21
-611.99973
 31
0.0
  0
CIRCLE
  8
SIZE
  6
CONTINUOUS
 62
    30
 10
-415.99029000000002
 20
-559.99973
 30
0.0
 40
6.0
  0
LINE
  8
SIZE
  6
CONTINUOUS
 62
    30
 10
-415.99029000000002
 20
-559.99973
 30
0.0
 11
-415.99029000000002
 21
-547.99973
 31
0.0
  0
TEXT
  8
SIZE
  6
CONTINUOUS
 62
    30
 10
-440.99029000000002
 20
-510.99973042857141
 30
0.0
 40
64.0
  1
40
 50
90.0
 41
0.9
 72
     1
 11
-440.99029000000002
 21
-464.37115899999992
 31
0.0
  0
POINT
  8
DEFPOINTS
  6
CONTINUOUS
 62
    30
 10
-255.5
 20
-559.99973
 30
0.0
  0
POINT
  8
DEFPOINTS
  6
CONTINUOUS
 62
    30
 10
-415.99029000000002
 20
-559.99973
 30
0.0
  0
LINE
  8
SIZE
  6
CONTINUOUS
 62
    30
 10
-292.58197000000001
 20
-599.99973
 30
0.0
 11
-555.99028999999996
 21
-599.99973
 31
0.0
  0
LINE
  8
SIZE
  6
CONTINUOUS
 62
    30
 10
-305.0
 20
0.0
 30
0.0
 11
-555.99028999999996
 21
0.0
 31
0.0
  0
LINE
  8
SIZE
  6
CONTINUOUS
 62
    30
 10
-535.99028999999996
 20
-587.99973
 30
0.0
 11
-535.99028999999996
 21
-12.0
 31
0.0
  0
CIRCLE
  8
SIZE
  6
CONTINUOUS
 62
    30
 10
-535.99028999999996
 20
-599.99973
 30
0.0
 40
6.0
  0
LINE
  8
SIZE
  6
CONTINUOUS
 62
    30
 10
-535.99028999999996
 20
-599.99973
 30
0.0
 11
-535.99028999999996
 21
-587.99973
 31
0.0
  0
CIRCLE
  8
SIZE
  6
CONTINUOUS
 62
    30
 10
-535.99028999999996
 20
0.0
 30
0.0
 40
6.0
  0
LINE
  8
SIZE
  6
CONTINUOUS
 62
    30
 10
-535.99028999999996
 20
0.0
 30
0.0
 11
-535.99028999999996
 21
-12.0
 31
0.0
  0
TEXT
  8
SIZE
  6
CONTINUOUS
 62
    30
 10
-560.99028999999996
 20
-374.05700785714282
 30
0.0
 40
64.0
  1
600
 50
90.0
 41
0.9
 72
     1
 11
-560.99028999999996
 21
-299.999865
 31
0.0
  0
POINT
  8
DEFPOINTS
  6
CONTINUOUS
 62
    30
 10
-272.58197000000001
 20
-599.99973
 30
0.0
  0
POINT
  8
DEFPOINTS
  6
CONTINUOUS
 62
    30
 10
-285.0
 20
0.0
 30
0.0
  0
POINT
  8
DEFPOINTS
  6
CONTINUOUS
 62
    30
 10
-535.99028999999996
 20
0.0
 30
0.0
  0
LINE
  8
SIZE
  6
CONTINUOUS
 62
    30
 10
-290.0
 20
-614.99973
 30
0.0
 11
-290.0
 21
-925.03348600000004
 31
0.0
  0
LINE
  8
SIZE
  6
CONTINUOUS
 62
    30
 10
290.0
 20
-614.99973
 30
0.0
 11
290.0
 21
-925.03348600000004
 31
0.0
  0
LINE
  8
SIZE
  6
CONTINUOUS
 62
    30
 10
-278.0
 20
-905.03348600000004
 30
0.0
 11
278.0
 21
-905.03348600000004
 31
0.0
  0
CIRCLE
  8
SIZE
  6
CONTINUOUS
 62
    30
 10
-290.0
 20
-905.03348600000004
 30
0.0
 40
6.0
  0
LINE
  8
SIZE
  6
CONTINUOUS
 62
    30
 10
-290.0
 20
-905.03348600000004
 30
0.0
 11
-278.0
 21
-905.03348600000004
 31
0.0
  0
CIRCLE
  8
SIZE
  6
CONTINUOUS
 62
    30
 10
290.0
 20
-905.03348600000004
 30
0.0
 40
6.0
  0
LINE
  8
SIZE
  6
CONTINUOUS
 62
    30
 10
290.0
 20
-905.03348600000004
 30
0.0
 11
278.0
 21
-905.03348600000004
 31
0.0
  0
TEXT
  8
SIZE
  6
CONTINUOUS
 62
    30
 10
-74.057142857142836
 20
-880.03348600000004
 30
0.0
 40
64.0
  1
580
 41
0.9
 72
     1
 11
0.0
 21
-880.03348600000004
 31
0.0
  0
POINT
  8
DEFPOINTS
  6
CONTINUOUS
 62
    30
 10
-290.0
 20
-594.99973
 30
0.0
  0
POINT
  8
DEFPOINTS
  6
CONTINUOUS
 62
    30
 10
290.0
 20
-594.99973
 30
0.0
  0
POINT
  8
DEFPOINTS
  6
CONTINUOUS
 62
    30
 10
290.0
 20
-905.03348600000004
 30
0.0
  0
TEXT
  8
NOTE
  6
CONTINUOUS
 62
     4
 10
-1054.8614359999999
 20
-747.33895900000005
 30
0.0
 40
64.0
  1
AH 2×φ8取付用穴
 41
0.9
  0
LINE
  8
NOTE
  6
CONTINUOUS
 62
     4
 10
-362.13215000000002
 20
-760.82851300000004
 30
0.0
 11
-1084.7610709999999
 21
-760.82851300000004
 31
0.0
  0
LINE
  8
NOTE
  6
CONTINUOUS
 62
     4
 10
-240.0
 20
-559.99973
 30
0.0
 11
-362.13215000000002
 21
-760.82851300000004
 31
0.0
  0
LINE
  8
NOTE
  6
CONTINUOUS
 62
     4
 10
-240.0
 20
-559.99973
 30
0.0
 11
-248.03559399999989
 21
-591.29420900000002
 31
0.0
  0
LINE
  8
NOTE
  6
CONTINUOUS
 62
     4
 10
-240.0
 20
-559.99973
 30
0.0
 11
-264.08986499999992
 21
-581.53095399999995
 31
0.0
  0
CIRCLE
  8
FIX
  6
CONTINUOUS
 62
    11
 10
-240.0
 20
-559.99973
 30
0.0
 40
8.0
  0
LINE
  8
DETAIL
  6
CONTINUOUS
 62
     5
 10
290.0
 20
-5.0
 30
0.0
 11
290.0
 21
-594.99973
 31
0.0
  0
LINE
  8
DETAIL
  6
CONTINUOUS
 62
     5
 10
275.0
 20
-575.88640999999996
 30
0.0
 11
275.0
 21
-5.0
 31
0.0
  0
LINE
  8
DETAIL
  6
CONTINUOUS
 62
     5
 10
-290.0
 20
-503.99973
 30
0.0
 11
290.0
 21
-503.99973
 31
0.0
  0
LINE
  8
DETAIL
  6
CONTINUOUS
 62
     5
 10
285.0
 20
-599.99973
 30
0.0
 11
-285.0
 21
-599.99973
 31
0.0
  0
CIRCLE
  8
DETAIL
  6
DASHED
 62
     5
 10
-240.0
 20
-559.99973
 30
0.0
 40
8.0
  0
LINE
  8
DETAIL
  6
CONTINUOUS
 62
     5
 10
115.0
 20
-519.97343999999998
 30
0.0
 11
136.0
 21
-519.97343999999998
 31
0.0
  0
LINE
  8
DETAIL
  6
CONTINUOUS
 62
     5
 10
115.0
 20
-539.66958999999997
 30
0.0
 11
136.0
 21
-539.66958999999997
 31
0.0
  0
LINE
  8
DETAIL
  6
CONTINUOUS
 62
     5
 10
240.0
 20
-505.54862000000003
 30
0.0
 11
10.0
 21
-505.54862000000003
 31
0.0
  0
LINE
  8
DETAIL
  6
CONTINUOUS
 62
     5
 10
240.0
 20
-569.56111999999996
 30
0.0
 11
10.0
 21
-569.56111999999996
 31
0.0
  0
LINE
  8
DETAIL
  6
CONTINUOUS
 62
     5
 10
0.0
 20
-559.56111999999996
 30
0.0
 11
0.0
 21
-515.54862000000003
 31
0.0
  0
ARC
  8
DETAIL
  6
CONTINUOUS
 62
     5
 10
10.0
 20
-559.56111999999996
 30
0.0
 40
10.0
 50
180.0
 51
270.0
  0
ARC
  8
DETAIL
  6
CONTINUOUS
 62
     5
 10
10.0
 20
-515.54862000000003
 30
0.0
 40
10.0
 50
90.0
 51
180.0
  0
LINE
  8
DETAIL
  6
CONTINUOUS
 62
     5
 10
93.0
 20
-519.97343999999998
 30
0.0
 11
114.0
 21
-519.97343999999998
 31
0.0
  0
LINE
  8
DETAIL
  6
CONTINUOUS
 62
     5
 10
93.0
 20
-539.66958999999997
 30
0.0
 11
114.0
 21
-539.66958999999997
 31
0.0
  0
LINE
  8
DETAIL
  6
CONTINUOUS
 62
     5
 10
93.0
 20
-539.66958999999997
 30
0.0
 11
93.0
 21
-519.97343999999998
 31
0.0
  0
LINE
  8
DETAIL
  6
CONTINUOUS
 62
     5
 10
115.0
 20
-539.66958999999997
 30
0.0
 11
115.0
 21
-519.97343999999998
 31
0.0
  0
LINE
  8
DETAIL
  6
CONTINUOUS
 62
     5
 10
114.0
 20
-539.66958999999997
 30
0.0
 11
114.0
 21
-519.97343999999998
 31
0.0
  0
CIRCLE
  8
DETAIL
  6
DASHED
 62
     5
 10
240.0
 20
-559.99973
 30
0.0
 40
8.0
  0
LINE
  8
DETAIL
  6
CONTINUOUS
 62
     5
 10
250.0
 20
-559.56111999999996
 30
0.0
 11
250.0
 21
-515.54862000000003
 31
0.0
  0
LINE
  8
DETAIL
  6
CONTINUOUS
 62
     5
 10
274.39805000000001
 20
-580.71061999999995
 30
0.0
 11
287.2328
 21
-597.16089999999997
 31
0.0
  0
ARC
  8
DETAIL
  6
CONTINUOUS
 62
     5
 10
240.0
 20
-559.56111999999996
 30
0.0
 40
10.0
 50
270.0
 51
0.0
  0
ARC
  8
DETAIL
  6
CONTINUOUS
 62
     5
 10
270.0
 20
-575.88640999999996
 30
0.0
 40
5.0
 50
270.0
 51
0.0
  0
ARC
  8
DETAIL
  6
CONTINUOUS
 62
     5
 10
285.0
 20
-594.99973
 30
0.0
 40
5.0
 50
270.0
 51
0.0
  0
LINE
  8
DETAIL
  6
CONTINUOUS
 62
     5
 10
159.0
 20
-519.97343999999998
 30
0.0
 11
180.0
 21
-519.97343999999998
 31
0.0
  0
LINE
  8
DETAIL
  6
CONTINUOUS
 62
     5
 10
159.0
 20
-539.66958999999997
 30
0.0
 11
180.0
 21
-539.66958999999997
 31
0.0
  0
LINE
  8
DETAIL
  6
CONTINUOUS
 62
     5
 10
159.0
 20
-539.66958999999997
 30
0.0
 11
159.0
 21
-519.97343999999998
 31
0.0
  0
LINE
  8
DETAIL
  6
CONTINUOUS
 62
     5
 10
158.0
 20
-539.66958999999997
 30
0.0
 11
158.0
 21
-519.97343999999998
 31
0.0
  0
LINE
  8
DETAIL
  6
CONTINUOUS
 62
     5
 10
137.0
 20
-539.66958999999997
 30
0.0
 11
137.0
 21
-519.97343999999998
 31
0.0
  0
LINE
  8
DETAIL
  6
CONTINUOUS
 62
     5
 10
136.0
 20
-539.66958999999997
 30
0.0
 11
136.0
 21
-519.97343999999998
 31
0.0
  0
LINE
  8
DETAIL
  6
CONTINUOUS
 62
     5
 10
137.0
 20
-519.97343999999998
 30
0.0
 11
158.0
 21
-519.97343999999998
 31
0.0
  0
LINE
  8
DETAIL
  6
CONTINUOUS
 62
     5
 10
137.0
 20
-539.66958999999997
 30
0.0
 11
158.0
 21
-539.66958999999997
 31
0.0
  0
LINE
  8
DETAIL
  6
CONTINUOUS
 62
     5
 10
180.0
 20
-539.66958999999997
 30
0.0
 11
180.0
 21
-519.97343999999998
 31
0.0
  0
CIRCLE
  8
DETAIL
  6
CONTINUOUS
 62
     5
 10
220.0
 20
-527.97343999999998
 30
0.0
 40
5.25
  0
ARC
  8
DETAIL
  6
CONTINUOUS
 62
     5
 10
240.0
 20
-515.54862000000003
 30
0.0
 40
10.0
 50
0.0
 51
90.0
  0
LINE
  8
DETAIL
  6
CONTINUOUS
 62
     5
 10
16.931640000000019
 20
-30.12707
 30
0.0
 11
108.06837
 21
-30.12707
 31
0.0
  0
LINE
  8
DETAIL
  6
CONTINUOUS
 62
     5
 10
16.931640000000019
 20
-38.99034000000006
 30
0.0
 11
108.06837
 21
-38.99034000000006
 31
0.0
  0
LINE
  8
DETAIL
  6
CONTINUOUS
 62
     5
 10
16.931640000000019
 20
-47.853610000000003
 30
0.0
 11
108.06837
 21
-47.853610000000003
 31
0.0
  0
LINE
  8
DETAIL
  6
CONTINUOUS
 62
     5
 10
16.931640000000019
 20
-56.716879999999946
 30
0.0
 11
108.06837
 21
-56.716879999999946
 31
0.0
  0
LINE
  8
DETAIL
  6
CONTINUOUS
 62
     5
 10
16.931640000000019
 20
-65.580150000000003
 30
0.0
 11
108.06837
 21
-65.580150000000003
 31
0.0
  0
LINE
  8
DETAIL
  6
CONTINUOUS
 62
     5
 10
16.931640000000019
 20
-74.44342000000006
 30
0.0
 11
108.06837
 21
-74.44342000000006
 31
0.0
  0
ARC
  8
DETAIL
  6
CONTINUOUS
 62
     5
 10
16.931640000000019
 20
-52.285240000000037
 30
0.0
 40
4.4316300000000002
 50
90.0
 51
270.0
  0
ARC
  8
DETAIL
  6
CONTINUOUS
 62
     5
 10
16.931640000000019
 20
-70.011780000000044
 30
0.0
 40
4.4316300000000002
 50
90.0
 51
270.0
  0
ARC
  8
DETAIL
  6
CONTINUOUS
 62
     5
 10
16.931640000000019
 20
-34.558710000000019
 30
0.0
 40
4.4316300000000002
 50
90.0
 51
270.0
  0
ARC
  8
DETAIL
  6
CONTINUOUS
 62
     5
 10
108.06837
 20
-52.285240000000037
 30
0.0
 40
4.4316300000000002
 50
270.0
 51
90.0
  0
ARC
  8
DETAIL
  6
CONTINUOUS
 62
     5
 10
108.06837
 20
-70.011780000000044
 30
0.0
 40
4.4316300000000002
 50
270.0
 51
90.0
  0
ARC
  8
DETAIL
  6
CONTINUOUS
 62
     5
 10
108.06837
 20
-34.558710000000019
 30
0.0
 40
4.4316300000000002
 50
270.0
 51
90.0
  0
LINE
  8
DETAIL
  6
CONTINUOUS
 62
     5
 10
141.93163999999999
 20
-30.12707
 30
0.0
 11
233.06836999999999
 21
-30.12707
 31
0.0
  0
LINE
  8
DETAIL
  6
CONTINUOUS
 62
     5
 10
141.93163999999999
 20
-38.99034000000006
 30
0.0
 11
233.06836999999999
 21
-38.99034000000006
 31
0.0
  0
LINE
  8
DETAIL
  6
CONTINUOUS
 62
     5
 10
141.93163999999999
 20
-56.716879999999946
 30
0.0
 11
233.06836999999999
 21
-56.716879999999946
 31
0.0
  0
LINE
  8
DETAIL
  6
CONTINUOUS
 62
     5
 10
141.93163999999999
 20
-47.853610000000003
 30
0.0
 11
233.06836999999999
 21
-47.853610000000003
 31
0.0
  0
LINE
  8
DETAIL
  6
CONTINUOUS
 62
     5
 10
141.93163999999999
 20
-74.44342000000006
 30
0.0
 11
233.06836999999999
 21
-74.44342000000006
 31
0.0
  0
LINE
  8
DETAIL
  6
CONTINUOUS
 62
     5
 10
141.93163999999999
 20
-65.580150000000003
 30
0.0
 11
233.06836999999999
 21
-65.580150000000003
 31
0.0
  0
ARC
  8
DETAIL
  6
CONTINUOUS
 62
     5
 10
141.93163999999999
 20
-52.285240000000037
 30
0.0
 40
4.4316300000000002
 50
90.0
 51
270.0
  0
ARC
  8
DETAIL
  6
CONTINUOUS
 62
     5
 10
141.93163999999999
 20
-70.011780000000044
 30
0.0
 40
4.4316300000000002
 50
90.0
 51
270.0
  0
ARC
  8
DETAIL
  6
CONTINUOUS
 62
     5
 10
141.93163999999999
 20
-34.558710000000019
 30
0.0
 40
4.4316300000000002
 50
90.0
 51
270.0
  0
ARC
  8
DETAIL
  6
CONTINUOUS
 62
     5
 10
233.06836999999999
 20
-52.285240000000037
 30
0.0
 40
4.4316300000000002
 50
270.0
 51
90.0
  0
ARC
  8
DETAIL
  6
CONTINUOUS
 62
     5
 10
233.06836999999999
 20
-70.011780000000044
 30
0.0
 40
4.4316300000000002
 50
270.0
 51
90.0
  0
ARC
  8
DETAIL
  6
CONTINUOUS
 62
     5
 10
233.06836999999999
 20
-34.558710000000019
 30
0.0
 40
4.4316300000000002
 50
270.0
 51
90.0
  0
ARC
  8
DETAIL
  6
CONTINUOUS
 62
     5
 10
270.0
 20
-5.0
 30
0.0
 40
5.0
 50
0.0
 51
90.0
  0
ARC
  8
DETAIL
  6
CONTINUOUS
 62
     5
 10
285.0
 20
-5.0
 30
0.0
 40
5.0
 50
0.0
 51
90.0
  0
LINE
  8
DETAIL
  6
CONTINUOUS
 62
     5
 10
285.0
 20
0.0
 30
0.0
 11
-285.0
 21
0.0
 31
0.0
  0
LINE
  8
DETAIL
  6
CONTINUOUS
 62
     5
 10
-16.931640000000019
 20
-30.12707
 30
0.0
 11
-108.06837
 21
-30.12707
 31
0.0
  0
LINE
  8
DETAIL
  6
CONTINUOUS
 62
     5
 10
-16.931640000000019
 20
-38.99034000000006
 30
0.0
 11
-108.06837
 21
-38.99034000000006
 31
0.0
  0
LINE
  8
DETAIL
  6
CONTINUOUS
 62
     5
 10
-16.931640000000019
 20
-47.853610000000003
 30
0.0
 11
-108.06837
 21
-47.853610000000003
 31
0.0
  0
LINE
  8
DETAIL
  6
CONTINUOUS
 62
     5
 10
-16.931640000000019
 20
-56.716879999999946
 30
0.0
 11
-108.06837
 21
-56.716879999999946
 31
0.0
  0
LINE
  8
DETAIL
  6
CONTINUOUS
 62
     5
 10
-16.931640000000019
 20
-65.580150000000003
 30
0.0
 11
-108.06837
 21
-65.580150000000003
 31
0.0
  0
LINE
  8
DETAIL
  6
CONTINUOUS
 62
     5
 10
-16.931640000000019
 20
-74.44342000000006
 30
0.0
 11
-108.06837
 21
-74.44342000000006
 31
0.0
  0
ARC
  8
DETAIL
  6
CONTINUOUS
 62
     5
 10
-16.931640000000019
 20
-52.285240000000037
 30
0.0
 40
4.4316300000000002
 50
270.0
 51
90.0
  0
ARC
  8
DETAIL
  6
CONTINUOUS
 62
     5
 10
-16.931640000000019
 20
-70.011780000000044
 30
0.0
 40
4.4316300000000002
 50
270.0
 51
90.0
  0
ARC
  8
DETAIL
  6
CONTINUOUS
 62
     5
 10
-16.931640000000019
 20
-34.558710000000019
 30
0.0
 40
4.4316300000000002
 50
270.0
 51
90.0
  0
ARC
  8
DETAIL
  6
CONTINUOUS
 62
     5
 10
-108.06837
 20
-52.285240000000037
 30
0.0
 40
4.4316300000000002
 50
90.0
 51
270.0
  0
ARC
  8
DETAIL
  6
CONTINUOUS
 62
     5
 10
-108.06837
 20
-70.011780000000044
 30
0.0
 40
4.4316300000000002
 50
90.0
 51
270.0
  0
ARC
  8
DETAIL
  6
CONTINUOUS
 62
     5
 10
-108.06837
 20
-34.558710000000019
 30
0.0
 40
4.4316300000000002
 50
90.0
 51
270.0
  0
LINE
  8
DETAIL
  6
CONTINUOUS
 62
     5
 10
-141.93163999999999
 20
-30.12707
 30
0.0
 11
-233.06836999999999
 21
-30.12707
 31
0.0
  0
LINE
  8
DETAIL
  6
CONTINUOUS
 62
     5
 10
-141.93163999999999
 20
-38.99034000000006
 30
0.0
 11
-233.06836999999999
 21
-38.99034000000006
 31
0.0
  0
LINE
  8
DETAIL
  6
CONTINUOUS
 62
     5
 10
-141.93163999999999
 20
-56.716879999999946
 30
0.0
 11
-233.06836999999999
 21
-56.716879999999946
 31
0.0
  0
LINE
  8
DETAIL
  6
CONTINUOUS
 62
     5
 10
-141.93163999999999
 20
-47.853610000000003
 30
0.0
 11
-233.06836999999999
 21
-47.853610000000003
 31
0.0
  0
LINE
  8
DETAIL
  6
CONTINUOUS
 62
     5
 10
-141.93163999999999
 20
-74.44342000000006
 30
0.0
 11
-233.06836999999999
 21
-74.44342000000006
 31
0.0
  0
LINE
  8
DETAIL
  6
CONTINUOUS
 62
     5
 10
-141.93163999999999
 20
-65.580150000000003
 30
0.0
 11
-233.06836999999999
 21
-65.580150000000003
 31
0.0
  0
ARC
  8
DETAIL
  6
CONTINUOUS
 62
     5
 10
-141.93163999999999
 20
-52.285240000000037
 30
0.0
 40
4.4316300000000002
 50
270.0
 51
90.0
  0
ARC
  8
DETAIL
  6
CONTINUOUS
 62
     5
 10
-141.93163999999999
 20
-70.011780000000044
 30
0.0
 40
4.4316300000000002
 50
270.0
 51
90.0
  0
ARC
  8
DETAIL
  6
CONTINUOUS
 62
     5
 10
-141.93163999999999
 20
-34.558710000000019
 30
0.0
 40
4.4316300000000002
 50
270.0
 51
90.0
  0
ARC
  8
DETAIL
  6
CONTINUOUS
 62
     5
 10
-233.06836999999999
 20
-52.285240000000037
 30
0.0
 40
4.4316300000000002
 50
90.0
 51
270.0
  0
ARC
  8
DETAIL
  6
CONTINUOUS
 62
     5
 10
-233.06836999999999
 20
-70.011780000000044
 30
0.0
 40
4.4316300000000002
 50
90.0
 51
270.0
  0
ARC
  8
DETAIL
  6
CONTINUOUS
 62
     5
 10
-233.06836999999999
 20
-34.558710000000019
 30
0.0
 40
4.4316300000000002
 50
90.0
 51
270.0
  0
LINE
  8
DETAIL
  6
CONTINUOUS
 62
     5
 10
-290.0
 20
-5.0
 30
0.0
 11
-290.0
 21
-594.99973
 31
0.0
  0
LINE
  8
DETAIL
  6
CONTINUOUS
 62
     5
 10
-275.0
 20
-575.88640999999996
 30
0.0
 11
-275.0
 21
-5.0
 31
0.0
  0
LINE
  8
DETAIL
  6
CONTINUOUS
 62
     5
 10
-274.39805000000001
 20
-580.71061999999995
 30
0.0
 11
-287.2328
 21
-597.16089999999997
 31
0.0
  0
ARC
  8
DETAIL
  6
CONTINUOUS
 62
     5
 10
-270.0
 20
-575.88640999999996
 30
0.0
 40
5.0
 50
180.0
 51
270.0
  0
ARC
  8
DETAIL
  6
CONTINUOUS
 62
     5
 10
-285.0
 20
-594.99973
 30
0.0
 40
5.0
 50
180.0
 51
270.0
  0
ARC
  8
DETAIL
  6
CONTINUOUS
 62
     5
 10
-270.0
 20
-5.0
 30
0.0
 40
5.0
 50
90.0
 51
180.0
  0
ARC
  8
DETAIL
  6
CONTINUOUS
 62
     5
 10
-285.0
 20
-5.0
 30
0.0
 40
5.0
 50
90.0
 51
180.0
  0
LINE
  8
DETAIL
  6
CONTINUOUS
 62
     5
 10
270.0
 20
-580.88640999999996
 30
0.0
 11
-270.0
 21
-580.88640999999996
 31
0.0
  0
CIRCLE
  8
FIX
  6
CONTINUOUS
 62
    11
 10
240.0
 20
-559.99973
 30
0.0
 40
8.0
  0
ENDSEC
  0
EOF
