  0
SECTION
  2
HEADER
  9
$ACADVER
  1
AC1009
  9
$INSBASE
 10
0.0
 20
0.0
 30
0.0
  9
$EXTMIN
 10
-306.0
 20
-972.449882
 30
0.0
  9
$EXTMAX
 10
1514.485112765545
 20
519.89864458998659
 30
0.0
  9
$LIMMIN
 10
-2970.0
 20
-2100.0
  9
$LIMMAX
 10
2970.0
 20
2100.0
  9
$ORTHOMODE
 70
     1
  9
$REGENMODE
 70
     0
  9
$FILLMODE
 70
     1
  9
$QTEXTMODE
 70
     0
  9
$MIRRTEXT
 70
     0
  9
$DRAGMODE
 70
     2
  9
$LTSCALE
 40
20.0
  9
$OSMODE
 70
   175
  9
$ATTMODE
 70
     1
  9
$TEXTSIZE
 40
64.0
  9
$TRACEWID
 40
0.05
  9
$TEXTSTYLE
  7
STANDARD
  9
$CLAYER
  8
0
  9
$CELTYPE
  6
CONTINUOUS
  9
$CECOLOR
 62
   256
  9
$DIMSCALE
 40
1.0
  9
$DIMASZ
 40
12.0
  9
$DIMEXO
 40
20.0
  9
$DIMDLI
 40
200.0
  9
$DIMRND
 40
0.0
  9
$DIMDLE
 40
0.0
  9
$DIMEXE
 40
20.0
  9
$DIMTP
 40
0.0
  9
$DIMTM
 40
0.0
  9
$DIMTXT
 40
64.0
  9
$DIMCEN
 40
0.09
  9
$DIMTSZ
 40
0.0
  9
$DIMTOL
 70
     0
  9
$DIMLIM
 70
     0
  9
$DIMTIH
 70
     0
  9
$DIMTOH
 70
     0
  9
$DIMSE1
 70
     0
  9
$DIMSE2
 70
     0
  9
$DIMTAD
 70
     1
  9
$DIMZIN
 70
     8
  9
$DIMBLK
  1
DOT1
  9
$DIMASO
 70
     1
  9
$DIMSHO
 70
     0
  9
$DIMPOST
  1

  9
$DIMAPOST
  1

  9
$DIMALT
 70
     0
  9
$DIMALTD
 70
     2
  9
$DIMALTF
 40
25.399999999999999
  9
$DIMLFAC
 40
1.0
  9
$DIMTOFL
 70
     1
  9
$DIMTVP
 40
0.0
  9
$DIMTIX
 70
     1
  9
$DIMSOXD
 70
     0
  9
$DIMSAH
 70
     1
  9
$DIMBLK1
  1
ORIGIN
  9
$DIMBLK2
  1
ORIGIN
  9
$DIMSTYLE
  2
STANDARD
  9
$DIMCLRD
 70
     7
  9
$DIMCLRE
 70
     7
  9
$DIMCLRT
 70
     7
  9
$DIMTFAC
 40
1.0
  9
$DIMGAP
 40
25.0
  9
$LUNITS
 70
     2
  9
$LUPREC
 70
     4
  9
$SKETCHINC
 40
0.1
  9
$FILLETRAD
 40
4.0
  9
$AUNITS
 70
     1
  9
$AUPREC
 70
     3
  9
$MENU
  1
ACAD
  9
$ELEVATION
 40
0.0
  9
$PELEVATION
 40
0.0
  9
$THICKNESS
 40
50.0
  9
$LIMCHECK
 70
     0
  9
$BLIPMODE
 70
     0
  9
$CHAMFERA
 40
0.0
  9
$CHAMFERB
 40
0.0
  9
$SKPOLY
 70
     0
  9
$TDCREATE
 40
2453090.6791026969
  9
$TDUPDATE
 40
2453792.4377754158
  9
$TDINDWG
 40
0.0727455903
  9
$TDUSRTIMER
 40
0.0727455903
  9
$USRTIMER
 70
     1
  9
$ANGBASE
 50
0.0
  9
$ANGDIR
 70
     0
  9
$PDMODE
 70
     3
  9
$PDSIZE
 40
-2.0
  9
$PLINEWID
 40
0.0
  9
$COORDS
 70
     2
  9
$SPLFRAME
 70
     0
  9
$SPLINETYPE
 70
     6
  9
$SPLINESEGS
 70
     8
  9
$ATTDIA
 70
     0
  9
$ATTREQ
 70
     1
  9
$HANDLING
 70
 22529
  9
$HANDSEED
  5
369
  9
$SURFTAB1
 70
     6
  9
$SURFTAB2
 70
     6
  9
$SURFTYPE
 70
     6
  9
$SURFU
 70
     6
  9
$SURFV
 70
     6
  9
$UCSNAME
  2

  9
$UCSORG
 10
0.0
 20
0.0
 30
0.0
  9
$UCSXDIR
 10
1.0
 20
0.0
 30
0.0
  9
$UCSYDIR
 10
0.0
 20
1.0
 30
0.0
  9
$PUCSNAME
  2

  9
$PUCSORG
 10
0.0
 20
0.0
 30
0.0
  9
$PUCSXDIR
 10
1.0
 20
0.0
 30
0.0
  9
$PUCSYDIR
 10
0.0
 20
1.0
 30
0.0
  9
$USERI1
 70
     0
  9
$USERI2
 70
     0
  9
$USERI3
 70
     0
  9
$USERI4
 70
     0
  9
$USERI5
 70
     0
  9
$USERR1
 40
20.0
  9
$USERR2
 40
0.0
  9
$USERR3
 40
0.0
  9
$USERR4
 40
0.0
  9
$USERR5
 40
0.0
  9
$WORLDVIEW
 70
     1
  9
$SHADEDGE
 70
     3
  9
$SHADEDIF
 70
    70
  9
$TILEMODE
 70
     1
  9
$MAXACTVP
 70
    48
  9
$PLIMCHECK
 70
     0
  9
$PEXTMIN
 10
-1.0000000000000000E+020
 20
-1.0000000000000000E+020
 30
-1.0000000000000000E+020
  9
$PEXTMAX
 10
1.0000000000000000E+020
 20
1.0000000000000000E+020
 30
1.0000000000000000E+020
  9
$PLIMMIN
 10
0.0
 20
0.0
  9
$PLIMMAX
 10
12.0
 20
9.0
  9
$UNITMODE
 70
     0
  9
$VISRETAIN
 70
     0
  9
$PLINEGEN
 70
     0
  9
$PSLTSCALE
 70
     0
  0
ENDSEC
  0
SECTION
  2
TABLES
  0
TABLE
  2
VPORT
 70
     7
  0
VPORT
  2
*ACTIVE
 70
     0
 10
0.0
 20
0.0
 11
1.0
 21
1.0
 12
149.08189131801871
 22
-314.92778677395972
 13
0.0
 23
0.0
 14
1.0
 24
1.0
 15
0.0
 25
0.0
 16
0.0
 26
0.0
 36
1.0
 17
0.0
 27
0.0
 37
0.0
 40
2205.3299968039232
 41
1.447268106734434
 42
50.0
 43
0.0
 44
0.0
 50
0.0
 51
0.0
 71
     0
 72
  1000
 73
     1
 74
     0
 75
     0
 76
     0
 77
     0
 78
     0
  0
ENDTAB
  0
TABLE
  2
LTYPE
 70
     3
  0
LTYPE
  2
CONTINUOUS
 70
     0
  3
実線
 72
    65
 73
     0
 40
0.0
  0
LTYPE
  2
DASHDOT
 70
     0
  3
____ _ ____ _ ____ _ ____ _ ____ _ ____ _ ____
 72
    65
 73
     4
 40
5.5
 49
4.0
 49
-0.6
 49
0.3
 49
-0.6
  0
LTYPE
  2
CONTINOUS
 70
     0
  3
Solid line
 72
    65
 73
     0
 40
0.0
  0
ENDTAB
  0
TABLE
  2
LAYER
 70
    12
  0
LAYER
  2
0
 70
     0
 62
     7
  6
CONTINUOUS
  0
LAYER
  2
SIZE
 70
     0
 62
    30
  6
CONTINUOUS
  0
LAYER
  2
BASIS
 70
     0
 62
     6
  6
DASHDOT
  0
LAYER
  2
OUTLINE
 70
     0
 62
     3
  6
CONTINUOUS
  0
LAYER
  2
DETAIL
 70
     0
 62
     5
  6
CONTINUOUS
  0
LAYER
  2
ARRANGE
 70
     0
 62
     1
  6
CONTINUOUS
  0
LAYER
  2
DEFPOINTS
 70
     0
 62
     7
  6
CONTINUOUS
  0
LAYER
  2
ETC
 70
     0
 62
    61
  6
CONTINUOUS
  0
LAYER
  2
FIX
 70
     0
 62
    11
  6
CONTINUOUS
  0
LAYER
  2
NOTE
 70
     0
 62
     4
  6
CONTINUOUS
  0
LAYER
  2
SERVICESPACE
 70
     0
 62
     2
  6
DASHDOT
  0
LAYER
  2
SYMBOLLINE
 70
     0
 62
    15
  6
CONTINUOUS
  0
ENDTAB
  0
TABLE
  2
STYLE
 70
     1
  0
STYLE
  2
STANDARD
 70
     0
 40
64.0
 41
0.9
 50
0.0
 71
     0
 42
64.0
  3
SIMPLEX.shx
  4
BIGFONT.shx
  0
ENDTAB
  0
TABLE
  2
VIEW
 70
     1
  0
VIEW
  2
ALL
 70
     0
 40
4282.6198079999976
 10
0.0
 20
41.309903999999989
 41
5940.0
 11
0.0
 21
0.0
 31
1.0
 12
0.0
 22
0.0
 32
0.0
 42
50.0
 43
0.0
 44
0.0
 50
0.0
 71
     0
  0
ENDTAB
  0
TABLE
  2
UCS
 70
     0
  0
ENDTAB
  0
TABLE
  2
APPID
 70
     2
  0
APPID
  2
ACAD
 70
     0
  0
APPID
  2
AUTOCAD_POSTSCRIPT_FIGURE
 70
     0
  0
ENDTAB
  0
TABLE
  2
DIMSTYLE
 70
     1
  0
DIMSTYLE
  2
STANDARD
 70
     0
  3

  4

  5

  6

  7

 40
1.0
 41
0.18
 42
0.0625
 43
0.38
 44
0.18
 45
0.0
 46
0.0
 47
0.0
 48
0.0
140
0.18
141
0.09
142
0.0
143
25.399999999999999
144
1.0
145
0.0
146
1.0
147
0.09
 71
     0
 72
     0
 73
     1
 74
     1
 75
     0
 76
     0
 77
     0
 78
     0
170
     0
171
     2
172
     0
173
     0
174
     0
175
     0
176
     7
177
     7
178
     7
  0
ENDTAB
  0
ENDSEC
  0
SECTION
  2
BLOCKS
  0
BLOCK
  8
0
  2
$MODEL_SPACE
 70
     0
 10
0.0
 20
0.0
 30
0.0
  3
$MODEL_SPACE
  1

  0
ENDBLK
  5
22A
  8
0
  0
BLOCK
 67
     1
  8
0
  2
$PAPER_SPACE
 70
     0
 10
0.0
 20
0.0
 30
0.0
  3
$PAPER_SPACE
  1

  0
ENDBLK
  5
226
 67
     1
  8
0
  0
BLOCK
  8
0
  2
DOT1
 70
     0
 10
0.0
 20
0.0
 30
0.0
  3
DOT1
  1

  0
CIRCLE
  5
247
  8
SIZE
  6
CONTINUOUS
 62
     7
 10
0.0
 20
0.0
 30
0.0
 40
3.0
  0
ENDBLK
  5
248
  8
0
  0
BLOCK
  8
0
  2
_ORIGIN
 70
     0
 10
0.0
 20
0.0
 30
0.0
  3
_ORIGIN
  1

  0
CIRCLE
  5
24B
  8
0
  6
CONTINUOUS
 62
     7
 10
0.0
 20
0.0
 30
0.0
 40
0.5
  0
LINE
  5
24C
  8
0
  6
CONTINUOUS
 62
     7
 10
0.0
 20
0.0
 30
0.0
 11
-1.0
 21
0.0
 31
0.0
  0
ENDBLK
  5
24D
  8
0
  0
BLOCK
  8
0
 62
    30
  2
_NONE
 70
     0
 10
0.0
 20
0.0
 30
0.0
  3
_NONE
  1

  0
ENDBLK
  5
250
  8
0
 62
    30
  0
BLOCK
  8
0
 62
    30
  2
_OPEN30
 70
     0
 10
0.0
 20
0.0
 30
0.0
  3
_OPEN30
  1

  0
LINE
  5
253
  8
0
  6
BYBLOCK
 62
     0
 10
-1.0
 20
0.26794919
 30
0.0
 11
0.0
 21
0.0
 31
0.0
  0
LINE
  5
254
  8
0
  6
BYBLOCK
 62
     0
 10
0.0
 20
0.0
 30
0.0
 11
-1.0
 21
-0.26794919
 31
0.0
  0
LINE
  5
255
  8
0
  6
BYBLOCK
 62
     0
 10
0.0
 20
0.0
 30
0.0
 11
-1.0
 21
0.0
 31
0.0
  0
ENDBLK
  5
256
  8
0
 62
    30
  0
ENDSEC
  0
SECTION
  2
ENTITIES
  0
LINE
  5
257
  8
DETAIL
  6
CONTINUOUS
 62
     5
 10
-300.0
 20
-300.0
 30
0.0
 11
-300.0
 21
0.0
 31
0.0
  0
LINE
  5
258
  8
DETAIL
  6
CONTINUOUS
 62
     5
 10
300.0
 20
0.0
 30
0.0
 11
-300.0
 21
0.0
 31
0.0
  0
LINE
  5
259
  8
DETAIL
  6
CONTINOUS
 62
     5
 10
0.0
 20
-653.0
 30
0.0
 11
-273.27989500000001
 21
-653.0
 31
0.0
  0
LINE
  5
25A
  8
DETAIL
  6
CONTINOUS
 62
     5
 10
0.0
 20
-570.0
 30
0.0
 11
-273.64077900000001
 21
-570.0
 31
0.0
  0
LINE
  5
25B
  8
BASIS
  6
DASHDOT
 62
     6
 10
0.0
 20
-771.940068
 30
0.0
 11
0.0
 21
91.970927000000003
 31
0.0
  0
LINE
  5
25C
  8
DETAIL
  6
CONTINOUS
 62
     5
 10
-300.0
 20
-700.0
 30
0.0
 11
-300.0
 21
-300.0
 31
0.0
  0
LINE
  5
25D
  8
DETAIL
  6
CONTINOUS
 62
     5
 10
0.0
 20
-653.0
 30
0.0
 11
274.66708499999999
 21
-653.0
 31
0.0
  0
LINE
  5
25E
  8
DETAIL
  6
CONTINOUS
 62
     5
 10
0.0
 20
-570.0
 30
0.0
 11
274.66708499999999
 21
-570.0
 31
0.0
  0
LINE
  5
25F
  8
DETAIL
  6
CONTINOUS
 62
     5
 10
-300.0
 20
-300.0
 30
0.0
 11
300.0
 21
-300.0
 31
0.0
  0
LINE
  5
260
  8
DETAIL
  6
CONTINOUS
 62
     5
 10
300.0
 20
-700.0
 30
0.0
 11
300.0
 21
0.0
 31
0.0
  0
LINE
  5
261
  8
DETAIL
  6
CONTINOUS
 62
     5
 10
-300.0
 20
-700.0
 30
0.0
 11
300.0
 21
-700.0
 31
0.0
  0
LINE
  5
262
  8
DETAIL
  6
CONTINOUS
 62
     5
 10
-280.0
 20
-700.0
 30
0.0
 11
-280.0
 21
-300.0
 31
0.0
  0
LINE
  5
263
  8
DETAIL
  6
CONTINOUS
 62
     5
 10
280.0
 20
-700.0
 30
0.0
 11
280.0
 21
-300.0
 31
0.0
  0
LINE
  5
264
  8
OUTLINE
  6
CONTINOUS
 62
     3
 10
-300.0
 20
-700.0
 30
0.0
 11
300.0
 21
-700.0
 31
0.0
  0
LINE
  5
265
  8
OUTLINE
  6
CONTINOUS
 62
     3
 10
-300.0
 20
-700.0
 30
0.0
 11
-300.0
 21
-300.0
 31
0.0
  0
LINE
  5
266
  8
OUTLINE
  6
CONTINUOUS
 62
     3
 10
-300.0
 20
-300.0
 30
0.0
 11
-300.0
 21
0.0
 31
0.0
  0
LINE
  5
267
  8
OUTLINE
  6
CONTINUOUS
 62
     3
 10
300.0
 20
0.0
 30
0.0
 11
-300.0
 21
0.0
 31
0.0
  0
LINE
  5
268
  8
OUTLINE
  6
CONTINOUS
 62
     3
 10
300.0
 20
-700.0
 30
0.0
 11
300.0
 21
0.0
 31
0.0
  0
POINT
  5
269
  8
ARRANGE
  6
CONTINUOUS
 62
     1
 10
0.0
 20
0.0
 30
0.0
  0
CIRCLE
  5
26A
  8
ARRANGE
  6
CONTINUOUS
 62
     1
 10
0.0
 20
0.0
 30
0.0
 40
40.0
  0
LINE
  5
26B
  8
SIZE
  6
CONTINUOUS
 62
    30
 10
320.0
 20
0.0
 30
0.0
 11
647.00046699999984
 21
0.0
 31
0.0
  0
LINE
  5
26C
  8
SIZE
  6
CONTINUOUS
 62
    30
 10
320.0
 20
-700.0
 30
0.0
 11
647.00046699999984
 21
-700.0
 31
0.0
  0
LINE
  5
26D
  8
SIZE
  6
CONTINUOUS
 62
    30
 10
627.00046699999984
 20
-12.0
 30
0.0
 11
627.00046699999984
 21
-688.0
 31
0.0
  0
CIRCLE
  5
26E
  8
SIZE
  6
CONTINUOUS
 62
    30
 10
627.00046699999984
 20
0.0
 30
0.0
 40
6.0
  0
LINE
  5
26F
  8
SIZE
  6
CONTINUOUS
 62
    30
 10
627.00046699999984
 20
0.0
 30
0.0
 11
627.00046699999984
 21
-12.0
 31
0.0
  0
CIRCLE
  5
270
  8
SIZE
  6
CONTINUOUS
 62
    30
 10
627.00046699999984
 20
-700.0
 30
0.0
 40
6.0
  0
LINE
  5
271
  8
SIZE
  6
CONTINUOUS
 62
    30
 10
627.00046699999984
 20
-700.0
 30
0.0
 11
627.00046699999984
 21
-688.0
 31
0.0
  0
TEXT
  5
272
  8
SIZE
  6
CONTINUOUS
 62
    30
 10
602.00046699999984
 20
-424.05714285714288
 30
0.0
 40
64.0
  1
700
 50
90.0
 41
0.9
 72
     1
 11
602.00046699999984
 21
-350.0
 31
0.0
  0
LINE
  5
276
  8
SIZE
  6
CONTINUOUS
 62
    30
 10
320.0
 20
-700.0
 30
0.0
 11
513.77236100000005
 21
-700.0
 31
0.0
  0
LINE
  5
277
  8
SIZE
  6
CONTINUOUS
 62
    30
 10
320.0
 20
-300.0
 30
0.0
 11
513.77236100000005
 21
-300.0
 31
0.0
  0
LINE
  5
278
  8
SIZE
  6
CONTINUOUS
 62
    30
 10
493.77236099999988
 20
-688.0
 30
0.0
 11
493.77236099999988
 21
-312.0
 31
0.0
  0
CIRCLE
  5
279
  8
SIZE
  6
CONTINUOUS
 62
    30
 10
493.77236099999988
 20
-700.0
 30
0.0
 40
6.0
  0
LINE
  5
27A
  8
SIZE
  6
CONTINUOUS
 62
    30
 10
493.77236099999988
 20
-700.0
 30
0.0
 11
493.77236099999988
 21
-688.0
 31
0.0
  0
CIRCLE
  5
27B
  8
SIZE
  6
CONTINUOUS
 62
    30
 10
493.77236099999988
 20
-300.0
 30
0.0
 40
6.0
  0
LINE
  5
27C
  8
SIZE
  6
CONTINUOUS
 62
    30
 10
493.77236099999988
 20
-300.0
 30
0.0
 11
493.77236099999988
 21
-312.0
 31
0.0
  0
TEXT
  5
27D
  8
SIZE
  6
CONTINUOUS
 62
    30
 10
468.77236099999988
 20
-574.05714285714282
 30
0.0
 40
64.0
  1
400
 50
90.0
 41
0.9
 72
     1
 11
468.77236099999988
 21
-500.0
 31
0.0
  0
LINE
  5
281
  8
SIZE
  6
CONTINUOUS
 62
    30
 10
300.0
 20
-720.0
 30
0.0
 11
300.0
 21
-972.449882
 31
0.0
  0
LINE
  5
282
  8
SIZE
  6
CONTINUOUS
 62
    30
 10
-300.0
 20
-720.0
 30
0.0
 11
-300.0
 21
-972.449882
 31
0.0
  0
LINE
  5
283
  8
SIZE
  6
CONTINUOUS
 62
    30
 10
288.0
 20
-952.44988199999989
 30
0.0
 11
-288.0
 21
-952.44988199999989
 31
0.0
  0
CIRCLE
  5
284
  8
SIZE
  6
CONTINUOUS
 62
    30
 10
300.0
 20
-952.44988199999989
 30
0.0
 40
6.0
  0
LINE
  5
285
  8
SIZE
  6
CONTINUOUS
 62
    30
 10
300.0
 20
-952.44988199999989
 30
0.0
 11
288.0
 21
-952.44988199999989
 31
0.0
  0
CIRCLE
  5
286
  8
SIZE
  6
CONTINUOUS
 62
    30
 10
-300.0
 20
-952.44988199999989
 30
0.0
 40
6.0
  0
LINE
  5
287
  8
SIZE
  6
CONTINUOUS
 62
    30
 10
-300.0
 20
-952.44988199999989
 30
0.0
 11
-288.0
 21
-952.44988199999989
 31
0.0
  0
TEXT
  5
288
  8
SIZE
  6
CONTINUOUS
 62
    30
 10
-74.05714285714285
 20
-927.44988199999989
 30
0.0
 40
64.0
  1
600
 41
0.9
 72
     1
 11
0.0
 21
-927.44988199999989
 31
0.0
  0
LINE
  5
28C
  8
DETAIL
  6
CONTINOUS
 62
     5
 10
-95.830698999999981
 20
-635.24780799999996
 30
0.0
 11
109.2157959999999
 21
-635.24780799999996
 31
0.0
  0
LINE
  5
28D
  8
DETAIL
  6
CONTINOUS
 62
     5
 10
-95.830698999999981
 20
-626.55063700000005
 30
0.0
 11
113.8306989999999
 21
-626.55063700000005
 31
0.0
  0
LINE
  5
28E
  8
DETAIL
  6
CONTINOUS
 62
     5
 10
-95.871086999999989
 20
-605.23160700000005
 30
0.0
 11
113.874861
 21
-605.23160700000005
 31
0.0
  0
LINE
  5
28F
  8
DETAIL
  6
CONTINOUS
 62
     5
 10
74.669300999999976
 20
-596.24780799999985
 30
0.0
 11
109.813372
 21
-596.24780799999985
 31
0.0
  0
LINE
  5
290
  8
DETAIL
  6
CONTINOUS
 62
     5
 10
-95.830698999999981
 20
-596.24780799999985
 30
0.0
 11
74.669300999999976
 21
-596.24780799999985
 31
0.0
  0
CIRCLE
  5
291
  8
DETAIL
  6
CONTINOUS
 62
     5
 10
-25.330698999999981
 20
-618.24780799999996
 30
0.0
 40
8.3000000000000007
  0
ARC
  5
292
  8
DETAIL
  6
CONTINOUS
 62
     5
 10
-95.830698999999981
 20
-615.74780799999985
 30
0.0
 40
19.5
 50
90.0
 51
270.0
  0
ARC
  5
293
  8
DETAIL
  6
CONTINOUS
 62
     5
 10
-95.830698999999981
 20
-615.74780799999985
 30
0.0
 40
10.5
 50
90.0
 51
270.0
  0
CIRCLE
  5
294
  8
DETAIL
  6
CONTINOUS
 62
     5
 10
-25.330698999999981
 20
-618.24780799999996
 30
0.0
 40
6.5
  0
CIRCLE
  5
295
  8
DETAIL
  6
CONTINOUS
 62
     5
 10
-46.830698999999981
 20
-618.24780799999996
 30
0.0
 40
6.5
  0
CIRCLE
  5
296
  8
DETAIL
  6
CONTINOUS
 62
     5
 10
-46.830698999999981
 20
-618.24780799999996
 30
0.0
 40
8.3000000000000007
  0
CIRCLE
  5
297
  8
DETAIL
  6
CONTINOUS
 62
     5
 10
39.169301000000011
 20
-618.24780799999996
 30
0.0
 40
6.5
  0
CIRCLE
  5
298
  8
DETAIL
  6
CONTINOUS
 62
     5
 10
39.169301000000011
 20
-618.24780799999996
 30
0.0
 40
8.3000000000000007
  0
CIRCLE
  5
299
  8
DETAIL
  6
CONTINOUS
 62
     5
 10
17.669301000000011
 20
-618.24780799999996
 30
0.0
 40
6.5
  0
CIRCLE
  5
29A
  8
DETAIL
  6
CONTINOUS
 62
     5
 10
17.669301000000011
 20
-618.24780799999996
 30
0.0
 40
8.3000000000000007
  0
CIRCLE
  5
29B
  8
DETAIL
  6
CONTINOUS
 62
     5
 10
82.169300999999976
 20
-618.24780799999996
 30
0.0
 40
6.5
  0
CIRCLE
  5
29C
  8
DETAIL
  6
CONTINOUS
 62
     5
 10
60.669301000000019
 20
-618.24780799999996
 30
0.0
 40
6.5
  0
CIRCLE
  5
29D
  8
DETAIL
  6
CONTINOUS
 62
     5
 10
82.169300999999976
 20
-618.24780799999996
 30
0.0
 40
8.3000000000000007
  0
CIRCLE
  5
29E
  8
DETAIL
  6
CONTINOUS
 62
     5
 10
60.669301000000019
 20
-618.24780799999996
 30
0.0
 40
8.3000000000000007
  0
ARC
  5
29F
  8
DETAIL
  6
CONTINOUS
 62
     5
 10
44.669301000000011
 20
-615.74780799999985
 30
0.0
 40
70.0
 50
346.07795600000009
 51
0.0
  0
ARC
  5
2A0
  8
DETAIL
  6
CONTINOUS
 62
     5
 10
109.2157959999999
 20
-631.74780799999985
 30
0.0
 40
3.5
 50
270.0
 51
346.07795600000009
  0
ARC
  5
2A1
  8
DETAIL
  6
CONTINOUS
 62
     5
 10
44.669301000000011
 20
-615.74780799999985
 30
0.0
 40
70.0
 50
0.0
 51
13.922043999999991
  0
ARC
  5
2A2
  8
DETAIL
  6
CONTINOUS
 62
     5
 10
109.2157959999999
 20
-599.74780799999985
 30
0.0
 40
3.5
 50
13.922043999999991
 51
90.0
  0
LINE
  5
2A3
  8
DETAIL
  6
CONTINOUS
 62
     5
 10
-276.49960199999992
 20
-662.53605000000005
 30
0.0
 11
278.0
 21
-662.53605000000005
 31
0.0
  0
TEXT
  5
2A4
  8
ETC
  6
CONTINUOUS
 62
    61
 10
866.74248203576644
 20
111.8651365789345
 30
0.0
 40
50.0
  1
V-6047KL6-BL
 41
0.9
  0
TEXT
  5
2A5
  8
ETC
  6
CONTINUOUS
 62
    61
 10
864.17503541408939
 20
186.2919914540424
 30
0.0
 40
50.0
  1
V-6037KL6-BL
 41
0.9
  0
TEXT
  5
2A6
  8
ETC
  6
CONTINUOUS
 62
    61
 10
866.74248203576644
 20
265.85173173568631
 30
0.0
 40
50.0
  1
V-6027KL6-BL
 41
0.9
  0
TEXT
  5
2A7
  8
ETC
  6
CONTINUOUS
 62
    61
 10
730.02796990840216
 20
455.8986445899863
 30
0.0
 40
64.0
  1
V-6027KL6-BL_2
 41
0.9
  0
TEXT
  5
2A8
  8
ETC
  6
CONTINUOUS
 62
    61
 10
734.57267690840229
 20
346.59601458998623
 30
0.0
 40
64.0
  1
換気扇
 41
0.9
  0
ENDSEC
  0
EOF
