  0
SECTION
  2
HEADER
  9
$ACADVER
  1
AC1009
  9
$INSBASE
 10
0.0
 20
0.0
 30
0.0
  9
$EXTMIN
 10
-763.98952599999996
 20
-1095.455089999999
 30
0.0
  9
$EXTMAX
 10
1477.9600958154381
 20
851.6402098655866
 30
50.0
  9
$LIMMIN
 10
-2970.0
 20
-2100.0
  9
$LIMMAX
 10
2970.0
 20
2100.0
  9
$ORTHOMODE
 70
     1
  9
$REGENMODE
 70
     0
  9
$FILLMODE
 70
     1
  9
$QTEXTMODE
 70
     0
  9
$MIRRTEXT
 70
     0
  9
$DRAGMODE
 70
     2
  9
$LTSCALE
 40
20.0
  9
$OSMODE
 70
   175
  9
$ATTMODE
 70
     1
  9
$TEXTSIZE
 40
64.0
  9
$TRACEWID
 40
0.05
  9
$TEXTSTYLE
  7
STANDARD
  9
$CLAYER
  8
OUTLINE
  9
$CELTYPE
  6
CONTINUOUS
  9
$CECOLOR
 62
     3
  9
$DIMSCALE
 40
1.0
  9
$DIMASZ
 40
12.0
  9
$DIMEXO
 40
20.0
  9
$DIMDLI
 40
200.0
  9
$DIMRND
 40
0.0
  9
$DIMDLE
 40
0.0
  9
$DIMEXE
 40
20.0
  9
$DIMTP
 40
0.0
  9
$DIMTM
 40
0.0
  9
$DIMTXT
 40
64.0
  9
$DIMCEN
 40
0.09
  9
$DIMTSZ
 40
0.0
  9
$DIMTOL
 70
     0
  9
$DIMLIM
 70
     0
  9
$DIMTIH
 70
     0
  9
$DIMTOH
 70
     0
  9
$DIMSE1
 70
     0
  9
$DIMSE2
 70
     0
  9
$DIMTAD
 70
     1
  9
$DIMZIN
 70
     8
  9
$DIMBLK
  1
NONE
  9
$DIMASO
 70
     1
  9
$DIMSHO
 70
     0
  9
$DIMPOST
  1

  9
$DIMAPOST
  1

  9
$DIMALT
 70
     0
  9
$DIMALTD
 70
     2
  9
$DIMALTF
 40
25.399999999999999
  9
$DIMLFAC
 40
1.0
  9
$DIMTOFL
 70
     1
  9
$DIMTVP
 40
0.0
  9
$DIMTIX
 70
     1
  9
$DIMSOXD
 70
     0
  9
$DIMSAH
 70
     0
  9
$DIMBLK1
  1
NONE
  9
$DIMBLK2
  1
ORIGIN
  9
$DIMSTYLE
  2
STANDARD
  9
$DIMCLRD
 70
   256
  9
$DIMCLRE
 70
   256
  9
$DIMCLRT
 70
   256
  9
$DIMTFAC
 40
1.0
  9
$DIMGAP
 40
25.0
  9
$LUNITS
 70
     2
  9
$LUPREC
 70
     4
  9
$SKETCHINC
 40
0.1
  9
$FILLETRAD
 40
4.0
  9
$AUNITS
 70
     1
  9
$AUPREC
 70
     3
  9
$MENU
  1
ACAD
  9
$ELEVATION
 40
0.0
  9
$PELEVATION
 40
0.0
  9
$THICKNESS
 40
50.0
  9
$LIMCHECK
 70
     0
  9
$BLIPMODE
 70
     0
  9
$CHAMFERA
 40
0.0
  9
$CHAMFERB
 40
0.0
  9
$SKPOLY
 70
     0
  9
$TDCREATE
 40
2453090.6791026969
  9
$TDUPDATE
 40
2453792.7014713539
  9
$TDINDWG
 40
0.0868411921
  9
$TDUSRTIMER
 40
0.0868411921
  9
$USRTIMER
 70
     1
  9
$ANGBASE
 50
0.0
  9
$ANGDIR
 70
     0
  9
$PDMODE
 70
     3
  9
$PDSIZE
 40
-2.0
  9
$PLINEWID
 40
0.0
  9
$COORDS
 70
     2
  9
$SPLFRAME
 70
     0
  9
$SPLINETYPE
 70
     6
  9
$SPLINESEGS
 70
     8
  9
$ATTDIA
 70
     0
  9
$ATTREQ
 70
     1
  9
$HANDLING
 70
 22529
  9
$HANDSEED
  5
7F8
  9
$SURFTAB1
 70
     6
  9
$SURFTAB2
 70
     6
  9
$SURFTYPE
 70
     6
  9
$SURFU
 70
     6
  9
$SURFV
 70
     6
  9
$UCSNAME
  2

  9
$UCSORG
 10
0.0
 20
0.0
 30
0.0
  9
$UCSXDIR
 10
1.0
 20
0.0
 30
0.0
  9
$UCSYDIR
 10
0.0
 20
1.0
 30
0.0
  9
$PUCSNAME
  2

  9
$PUCSORG
 10
0.0
 20
0.0
 30
0.0
  9
$PUCSXDIR
 10
1.0
 20
0.0
 30
0.0
  9
$PUCSYDIR
 10
0.0
 20
1.0
 30
0.0
  9
$USERI1
 70
     0
  9
$USERI2
 70
     0
  9
$USERI3
 70
     0
  9
$USERI4
 70
     0
  9
$USERI5
 70
     0
  9
$USERR1
 40
20.0
  9
$USERR2
 40
0.0
  9
$USERR3
 40
0.0
  9
$USERR4
 40
0.0
  9
$USERR5
 40
0.0
  9
$WORLDVIEW
 70
     1
  9
$SHADEDGE
 70
     3
  9
$SHADEDIF
 70
    70
  9
$TILEMODE
 70
     1
  9
$MAXACTVP
 70
    48
  9
$PLIMCHECK
 70
     0
  9
$PEXTMIN
 10
-1.0000000000000000E+020
 20
-1.0000000000000000E+020
 30
-1.0000000000000000E+020
  9
$PEXTMAX
 10
1.0000000000000000E+020
 20
1.0000000000000000E+020
 30
1.0000000000000000E+020
  9
$PLIMMIN
 10
0.0
 20
0.0
  9
$PLIMMAX
 10
12.0
 20
9.0
  9
$UNITMODE
 70
     0
  9
$VISRETAIN
 70
     0
  9
$PLINEGEN
 70
     0
  9
$PSLTSCALE
 70
     0
  0
ENDSEC
  0
SECTION
  2
TABLES
  0
TABLE
  2
VPORT
 70
     8
  0
VPORT
  2
*ACTIVE
 70
     0
 10
0.0
 20
0.0
 11
1.0
 21
1.0
 12
41.722073933252886
 22
-122.8680047429127
 13
0.0
 23
0.0
 14
1.0
 24
1.0
 15
0.0
 25
0.0
 16
0.0
 26
0.0
 36
1.0
 17
0.0
 27
0.0
 37
0.0
 40
2501.0308009018831
 41
1.447268106734434
 42
50.0
 43
0.0
 44
0.0
 50
0.0
 51
0.0
 71
     0
 72
  1000
 73
     1
 74
     0
 75
     0
 76
     0
 77
     0
 78
     0
  0
ENDTAB
  0
TABLE
  2
LTYPE
 70
     3
  0
LTYPE
  2
CONTINUOUS
 70
     0
  3
実線
 72
    65
 73
     0
 40
0.0
  0
LTYPE
  2
DASHDOT
 70
     0
  3
____ _ ____ _ ____ _ ____ _ ____ _ ____ _ ____
 72
    65
 73
     4
 40
5.5
 49
4.0
 49
-0.6
 49
0.3
 49
-0.6
  0
LTYPE
  2
CONTINOUS
 70
     0
  3
Solid line
 72
    65
 73
     0
 40
0.0
  0
ENDTAB
  0
TABLE
  2
LAYER
 70
    12
  0
LAYER
  2
0
 70
     0
 62
     7
  6
CONTINUOUS
  0
LAYER
  2
OUTLINE
 70
     0
 62
     3
  6
CONTINUOUS
  0
LAYER
  2
SIZE
 70
     0
 62
    30
  6
CONTINUOUS
  0
LAYER
  2
BASIS
 70
     0
 62
     6
  6
DASHDOT
  0
LAYER
  2
DETAIL
 70
     0
 62
     5
  6
CONTINUOUS
  0
LAYER
  2
ARRANGE
 70
     0
 62
     1
  6
CONTINUOUS
  0
LAYER
  2
DEFPOINTS
 70
     0
 62
     7
  6
CONTINUOUS
  0
LAYER
  2
ETC
 70
     0
 62
    61
  6
CONTINUOUS
  0
LAYER
  2
FIX
 70
     0
 62
    11
  6
CONTINUOUS
  0
LAYER
  2
NOTE
 70
     0
 62
     4
  6
CONTINUOUS
  0
LAYER
  2
SERVICESPACE
 70
     0
 62
     2
  6
DASHDOT
  0
LAYER
  2
SYMBOLLINE
 70
     0
 62
    15
  6
CONTINUOUS
  0
ENDTAB
  0
TABLE
  2
STYLE
 70
     1
  0
STYLE
  2
STANDARD
 70
     0
 40
64.0
 41
0.9
 50
0.0
 71
     0
 42
64.0
  3
SIMPLEX.shx
  4
BIGFONT.shx
  0
ENDTAB
  0
TABLE
  2
VIEW
 70
     1
  0
VIEW
  2
ALL
 70
     0
 40
4282.6198079999967
 10
0.0
 20
41.309903999999989
 41
5940.0
 11
0.0
 21
0.0
 31
1.0
 12
0.0
 22
0.0
 32
0.0
 42
50.0
 43
0.0
 44
0.0
 50
0.0
 71
     0
  0
ENDTAB
  0
TABLE
  2
UCS
 70
     0
  0
ENDTAB
  0
TABLE
  2
APPID
 70
     2
  0
APPID
  2
ACAD
 70
     0
  0
APPID
  2
AUTOCAD_POSTSCRIPT_FIGURE
 70
     0
  0
ENDTAB
  0
TABLE
  2
DIMSTYLE
 70
     1
  0
DIMSTYLE
  2
STANDARD
 70
     0
  3

  4

  5

  6

  7

 40
1.0
 41
0.18
 42
0.0625
 43
0.38
 44
0.18
 45
0.0
 46
0.0
 47
0.0
 48
0.0
140
0.18
141
0.09
142
0.0
143
25.399999999999999
144
1.0
145
0.0
146
1.0
147
0.09
 71
     0
 72
     0
 73
     1
 74
     1
 75
     0
 76
     0
 77
     0
 78
     0
170
     0
171
     2
172
     0
173
     0
174
     0
175
     0
176
     7
177
     7
178
     7
  0
ENDTAB
  0
ENDSEC
  0
SECTION
  2
BLOCKS
  0
BLOCK
  8
0
  2
$MODEL_SPACE
 70
     0
 10
0.0
 20
0.0
 30
0.0
  3
$MODEL_SPACE
  1

  0
ENDBLK
  5
60A
  8
0
  0
BLOCK
 67
     1
  8
0
  2
$PAPER_SPACE
 70
     0
 10
0.0
 20
0.0
 30
0.0
  3
$PAPER_SPACE
  1

  0
ENDBLK
  5
606
 67
     1
  8
0
  0
BLOCK
  8
0
  2
DOT1
 70
     0
 10
0.0
 20
0.0
 30
0.0
  3
DOT1
  1

  0
CIRCLE
  5
627
  8
SIZE
  6
CONTINUOUS
 62
     7
 10
0.0
 20
0.0
 30
0.0
 40
3.0
  0
ENDBLK
  5
628
  8
0
  0
BLOCK
  8
0
  2
_ORIGIN
 70
     0
 10
0.0
 20
0.0
 30
0.0
  3
_ORIGIN
  1

  0
CIRCLE
  5
62B
  8
0
  6
CONTINUOUS
 62
     7
 10
0.0
 20
0.0
 30
0.0
 40
0.5
  0
LINE
  5
62C
  8
0
  6
CONTINUOUS
 62
     7
 10
0.0
 20
0.0
 30
0.0
 11
-1.0
 21
0.0
 31
0.0
  0
ENDBLK
  5
62D
  8
0
  0
BLOCK
  8
0
 62
    30
  2
_NONE
 70
     0
 10
0.0
 20
0.0
 30
0.0
  3
_NONE
  1

  0
ENDBLK
  5
630
  8
0
 62
    30
  0
BLOCK
  8
0
 62
    30
  2
_OPEN30
 70
     0
 10
0.0
 20
0.0
 30
0.0
  3
_OPEN30
  1

  0
LINE
  5
633
  8
0
  6
BYBLOCK
 62
     0
 10
-1.0
 20
0.26794919
 30
0.0
 11
0.0
 21
0.0
 31
0.0
  0
LINE
  5
634
  8
0
  6
BYBLOCK
 62
     0
 10
0.0
 20
0.0
 30
0.0
 11
-1.0
 21
-0.26794919
 31
0.0
  0
LINE
  5
635
  8
0
  6
BYBLOCK
 62
     0
 10
0.0
 20
0.0
 30
0.0
 11
-1.0
 21
0.0
 31
0.0
  0
ENDBLK
  5
636
  8
0
 62
    30
  0
ENDSEC
  0
SECTION
  2
ENTITIES
  0
LINE
  5
637
  8
DETAIL
  6
CONTINUOUS
 62
     5
 10
300.0
 20
-300.0
 30
0.0
 11
300.0
 21
0.0
 31
0.0
  0
LINE
  5
638
  8
DETAIL
  6
CONTINUOUS
 62
     5
 10
-300.0
 20
0.0
 30
0.0
 11
300.0
 21
0.0
 31
0.0
  0
LINE
  5
639
  8
BASIS
  6
DASHDOT
 62
     6
 10
0.0
 20
-771.940068
 30
0.0
 11
0.0
 21
62.599742999999989
 31
0.0
  0
LINE
  5
63A
  8
DETAIL
  6
CONTINOUS
 62
     5
 10
300.0
 20
-700.0
 30
0.0
 11
300.0
 21
-300.0
 31
0.0
  0
LINE
  5
63B
  8
DETAIL
  6
CONTINOUS
 62
     5
 10
300.0
 20
-300.0
 30
0.0
 11
-300.0
 21
-300.0
 31
0.0
  0
LINE
  5
63C
  8
DETAIL
  6
CONTINOUS
 62
     5
 10
-300.0
 20
-700.0
 30
0.0
 11
-300.0
 21
0.0
 31
0.0
  0
LINE
  5
63D
  8
DETAIL
  6
CONTINOUS
 62
     5
 10
300.0
 20
-700.0
 30
0.0
 11
-300.0
 21
-700.0
 31
0.0
  0
LINE
  5
63E
  8
NOTE
  6
CONTINUOUS
 62
     4
 10
240.0
 20
-380.0
 30
0.0
 11
240.0
 21
-340.0
 31
0.0
  0
LINE
  5
63F
  8
NOTE
  6
CONTINUOUS
 62
     4
 10
260.0
 20
-360.0
 30
0.0
 11
220.0
 21
-360.0
 31
0.0
  0
LINE
  5
640
  8
NOTE
  6
CONTINUOUS
 62
     4
 10
240.0
 20
-615.0
 30
0.0
 11
240.0
 21
-575.0
 31
0.0
  0
LINE
  5
641
  8
NOTE
  6
CONTINUOUS
 62
     4
 10
260.0
 20
-595.0
 30
0.0
 11
220.0
 21
-595.0
 31
0.0
  0
LINE
  5
642
  8
NOTE
  6
CONTINUOUS
 62
     4
 10
-240.0
 20
-380.0
 30
0.0
 11
-240.0
 21
-340.0
 31
0.0
  0
LINE
  5
643
  8
NOTE
  6
CONTINUOUS
 62
     4
 10
-260.0
 20
-360.0
 30
0.0
 11
-220.0
 21
-360.0
 31
0.0
  0
LINE
  5
644
  8
NOTE
  6
CONTINUOUS
 62
     4
 10
-240.0
 20
-615.0
 30
0.0
 11
-240.0
 21
-575.0
 31
0.0
  0
LINE
  5
645
  8
NOTE
  6
CONTINUOUS
 62
     4
 10
-260.0
 20
-595.0
 30
0.0
 11
-220.0
 21
-595.0
 31
0.0
  0
CIRCLE
  5
646
  8
FIX
  6
CONTINUOUS
 62
    11
 10
240.0
 20
-360.0
 30
0.0
 40
4.0
  0
CIRCLE
  5
647
  8
FIX
  6
CONTINUOUS
 62
    11
 10
-240.0
 20
-360.0
 30
0.0
 40
4.0
  0
CIRCLE
  5
648
  8
FIX
  6
CONTINUOUS
 62
    11
 10
240.0
 20
-595.0
 30
0.0
 40
4.0
  0
CIRCLE
  5
649
  8
FIX
  6
CONTINUOUS
 62
    11
 10
-240.0
 20
-595.0
 30
0.0
 40
4.0
  0
LINE
  5
64A
  8
OUTLINE
  6
CONTINOUS
 62
     3
 10
300.0
 20
-700.0
 30
0.0
 11
-300.0
 21
-700.0
 31
0.0
  0
LINE
  5
64B
  8
OUTLINE
  6
CONTINOUS
 62
     3
 10
300.0
 20
-700.0
 30
0.0
 11
300.0
 21
-300.0
 31
0.0
  0
LINE
  5
64C
  8
OUTLINE
  6
CONTINUOUS
 62
     3
 10
300.0
 20
-300.0
 30
0.0
 11
300.0
 21
0.0
 31
0.0
  0
LINE
  5
64D
  8
OUTLINE
  6
CONTINUOUS
 62
     3
 10
-300.0
 20
0.0
 30
0.0
 11
300.0
 21
0.0
 31
0.0
  0
LINE
  5
64E
  8
OUTLINE
  6
CONTINOUS
 62
     3
 10
-300.0
 20
-700.0
 30
0.0
 11
-300.0
 21
0.0
 31
0.0
  0
LINE
  5
64F
  8
NOTE
  6
CONTINUOUS
 62
     4
 10
240.0
 20
-320.0
 30
0.0
 11
240.0
 21
-280.0
 31
0.0
  0
LINE
  5
650
  8
NOTE
  6
CONTINUOUS
 62
     4
 10
260.0
 20
-300.0
 30
0.0
 11
220.0
 21
-300.0
 31
0.0
  0
CIRCLE
  5
651
  8
FIX
  6
CONTINUOUS
 62
    11
 10
240.0
 20
-300.0
 30
0.0
 40
12.5
  0
CIRCLE
  5
652
  8
FIX
  6
CONTINUOUS
 62
    11
 10
-240.0
 20
-300.0
 30
0.0
 40
12.5
  0
LINE
  5
653
  8
NOTE
  6
CONTINUOUS
 62
     4
 10
-240.0
 20
-320.0
 30
0.0
 11
-240.0
 21
-280.0
 31
0.0
  0
LINE
  5
654
  8
NOTE
  6
CONTINUOUS
 62
     4
 10
-260.0
 20
-300.0
 30
0.0
 11
-220.0
 21
-300.0
 31
0.0
  0
TEXT
  5
655
  8
NOTE
  6
CONTINUOUS
 62
     4
 10
-46.875295000000001
 20
-220.5883959999999
 30
0.0
 40
64.0
  1
EA
 41
0.9
  0
LINE
  5
656
  8
NOTE
  6
CONTINUOUS
 62
     4
 10
-206.0
 20
-300.0
 30
0.0
 11
-166.0
 21
-300.0
 31
0.0
  0
TEXT
  5
657
  8
NOTE
  6
CONTINUOUS
 62
     4
 10
-248.285752
 20
-497.2998119999998
 30
0.0
 40
64.0
  1
EL
 41
0.9
  0
LINE
  5
658
  8
NOTE
  6
CONTINUOUS
 62
     4
 10
-116.5607899999999
 20
-526.41268400000001
 30
0.0
 11
-268.39457099999993
 21
-526.41268400000001
 31
0.0
  0
TEXT
  5
659
  8
NOTE
  6
CONTINUOUS
 62
     4
 10
-638.03323499999965
 20
-832.88894100000005
 30
0.0
 40
64.0
  1
4-φ8
 41
0.9
  0
LINE
  5
65A
  8
NOTE
  6
CONTINUOUS
 62
     4
 10
-369.80605400000002
 20
-864.54697499999975
 30
0.0
 11
-663.35995000000003
 21
-864.54697499999975
 31
0.0
  0
TEXT
  5
65B
  8
NOTE
  6
CONTINUOUS
 62
     4
 10
452.09207199999992
 20
39.707321999999998
 30
0.0
 40
64.0
  1
AH 2×2-φ25
 41
0.9
  0
LINE
  5
65C
  8
NOTE
  6
CONTINUOUS
 62
     4
 10
421.00367899999998
 20
3.5055699999999992
 30
0.0
 11
1024.415978
 21
3.5055699999999992
 31
0.0
  0
LINE
  5
65D
  8
NOTE
  6
CONTINUOUS
 62
     4
 10
-186.0
 20
-300.0
 30
0.0
 11
-116.5607899999999
 21
-526.41268400000001
 31
0.0
  0
LINE
  5
65E
  8
NOTE
  6
CONTINUOUS
 62
     4
 10
-183.91128643511999
 20
-343.79917506216202
 30
0.0
 11
-186.0
 21
-300.0
 31
0.0
  0
LINE
  5
65F
  8
NOTE
  6
CONTINUOUS
 62
     4
 10
-186.0
 20
-300.0
 30
0.0
 11
-160.10325743280731
 21
-339.03943716225223
 31
0.0
  0
LINE
  5
660
  8
NOTE
  6
CONTINUOUS
 62
     4
 10
240.0
 20
-300.0
 30
0.0
 11
421.00367899999998
 21
3.5055699999999992
 31
0.0
  0
LINE
  5
661
  8
NOTE
  6
CONTINUOUS
 62
     4
 10
256.923137
 20
-263.75627700000001
 30
0.0
 11
240.0
 21
-300.0
 31
0.0
  0
LINE
  5
662
  8
NOTE
  6
CONTINUOUS
 62
     4
 10
240.0
 20
-300.0
 30
0.0
 11
272.77772799999991
 21
-277.07358399999993
 31
0.0
  0
POINT
  5
663
  8
ARRANGE
  6
CONTINUOUS
 62
     1
 10
0.0
 20
0.0
 30
0.0
  0
CIRCLE
  5
664
  8
ARRANGE
  6
CONTINUOUS
 62
     1
 10
0.0
 20
0.0
 30
0.0
 40
40.0
  0
CIRCLE
  5
665
  8
DETAIL
  6
CONTINUOUS
 62
     5
 10
-240.0
 20
-360.0
 30
0.0
 40
4.0
  0
CIRCLE
  5
666
  8
DETAIL
  6
CONTINUOUS
 62
     5
 10
-240.0
 20
-595.0
 30
0.0
 40
4.0
  0
CIRCLE
  5
667
  8
DETAIL
  6
CONTINUOUS
 62
     5
 10
240.0
 20
-360.0
 30
0.0
 40
4.0
  0
CIRCLE
  5
668
  8
DETAIL
  6
CONTINUOUS
 62
     5
 10
240.0
 20
-595.0
 30
0.0
 40
4.0
  0
LINE
  5
669
  8
DETAIL
  6
CONTINOUS
 62
     5
 10
-280.0
 20
-300.0
 30
0.0
 11
0.0
 21
-300.0
 31
0.0
  0
LINE
  5
66A
  8
DETAIL
  6
CONTINOUS
 62
     5
 10
280.0
 20
-300.0
 30
0.0
 11
0.0
 21
-300.0
 31
0.0
  0
LINE
  5
66B
  8
DETAIL
  6
CONTINOUS
 62
     5
 10
-285.0
 20
-300.0
 30
0.0
 11
-285.0
 21
0.0
 31
0.0
  0
LINE
  5
66C
  8
DETAIL
  6
CONTINUOUS
 62
     5
 10
285.0
 20
-300.0
 30
0.0
 11
285.0
 21
0.0
 31
0.0
  0
LINE
  5
66D
  8
DETAIL
  6
CONTINOUS
 62
     5
 10
280.0
 20
-700.0
 30
0.0
 11
280.0
 21
-300.0
 31
0.0
  0
LINE
  5
66E
  8
DETAIL
  6
CONTINOUS
 62
     5
 10
-280.0
 20
-700.0
 30
0.0
 11
-280.0
 21
-300.0
 31
0.0
  0
LINE
  5
66F
  8
NOTE
  6
CONTINUOUS
 62
     4
 10
-240.0
 20
-595.0
 30
0.0
 11
-369.80605400000002
 21
-864.54697499999975
 31
0.0
  0
LINE
  5
670
  8
NOTE
  6
CONTINUOUS
 62
     4
 10
-248.50191799999999
 20
-634.08602499999995
 30
0.0
 11
-240.0
 21
-595.0
 31
0.0
  0
LINE
  5
671
  8
NOTE
  6
CONTINUOUS
 62
     4
 10
-240.0
 20
-595.0
 30
0.0
 11
-266.90589
 21
-624.59853199999986
 31
0.0
  0
LINE
  5
672
  8
DETAIL
  6
CONTINUOUS
 62
     5
 10
130.0
 20
-297.0
 30
0.0
 11
130.0
 21
-300.0
 31
0.0
  0
ARC
  5
673
  8
DETAIL
  6
CONTINUOUS
 62
     5
 10
-129.0
 20
-296.0
 30
0.0
 40
1.0
 50
90.0
 51
180.0
  0
LINE
  5
674
  8
DETAIL
  6
CONTINUOUS
 62
     5
 10
-73.999591000000024
 20
-245.0
 30
0.0
 11
74.000408999999976
 21
-245.0
 31
0.0
  0
LINE
  5
675
  8
DETAIL
  6
CONTINUOUS
 62
     5
 10
130.0
 20
-297.0
 30
0.0
 11
130.0
 21
-296.0
 31
0.0
  0
LINE
  5
676
  8
DETAIL
  6
CONTINUOUS
 62
     5
 10
129.0
 20
-295.0
 30
0.0
 11
-119.715074
 21
-295.0
 31
0.0
  0
ARC
  5
677
  8
DETAIL
  6
CONTINUOUS
 62
     5
 10
129.0
 20
-296.0
 30
0.0
 40
1.0
 50
0.0
 51
90.0
  0
LINE
  5
678
  8
DETAIL
  6
CONTINUOUS
 62
     5
 10
77.000408999999976
 20
-289.39999999999992
 30
0.0
 11
77.000408999999976
 21
-286.64705900000001
 31
0.0
  0
LINE
  5
679
  8
DETAIL
  6
CONTINUOUS
 62
     5
 10
74.000408999999976
 20
-283.976471
 30
0.0
 11
74.000408999999976
 21
-245.0
 31
0.0
  0
LINE
  5
67A
  8
DETAIL
  6
CONTINUOUS
 62
     5
 10
-73.999591000000024
 20
-285.0
 30
0.0
 11
75.125408999999976
 21
-285.0
 31
0.0
  0
LINE
  5
67B
  8
DETAIL
  6
CONTINUOUS
 62
     5
 10
-130.0
 20
-300.0
 30
0.0
 11
-130.0
 21
-296.0
 31
0.0
  0
LINE
  5
67C
  8
DETAIL
  6
CONTINUOUS
 62
     5
 10
-119.715074
 20
-295.0
 30
0.0
 11
-129.0
 21
-295.0
 31
0.0
  0
ARC
  5
67D
  8
DETAIL
  6
CONTINUOUS
 62
     5
 10
75.000408999999976
 20
-283.976471
 30
0.0
 40
1.0
 50
180.0
 51
262.84733099999988
  0
ARC
  5
67E
  8
DETAIL
  6
CONTINUOUS
 62
     5
 10
75.400408999999982
 20
-286.64705900000001
 30
0.0
 40
1.6000000000000001
 50
0.0
 51
82.847331000000025
  0
LINE
  5
67F
  8
DETAIL
  6
CONTINUOUS
 62
     5
 10
74.875895
 20
-284.96868899999998
 30
0.0
 11
75.599630000000005
 21
-285.05950999999982
 31
0.0
  0
ARC
  5
680
  8
DETAIL
  6
CONTINUOUS
 62
     5
 10
87.000408999999948
 20
-289.39999999999992
 30
0.0
 40
10.0
 50
180.0
 51
214.05579800000001
  0
LINE
  5
681
  8
DETAIL
  6
CONTINUOUS
 62
     5
 10
-73.999591000000024
 20
-283.976471
 30
0.0
 11
-73.999591000000024
 21
-245.0
 31
0.0
  0
LINE
  5
682
  8
DETAIL
  6
CONTINUOUS
 62
     5
 10
-74.875078000000002
 20
-284.96868899999998
 30
0.0
 11
-75.598813000000007
 21
-285.05950999999982
 31
0.0
  0
ARC
  5
683
  8
DETAIL
  6
CONTINUOUS
 62
     5
 10
-74.999591000000024
 20
-283.976471
 30
0.0
 40
1.0
 50
277.15266899999989
 51
0.0
  0
LINE
  5
684
  8
DETAIL
  6
CONTINUOUS
 62
     5
 10
-76.999590999999981
 20
-289.39999999999992
 30
0.0
 11
-76.999590999999981
 21
-286.64705900000001
 31
0.0
  0
ARC
  5
685
  8
DETAIL
  6
CONTINUOUS
 62
     5
 10
-86.999590999999995
 20
-289.39999999999992
 30
0.0
 40
10.0
 50
325.94420200000002
 51
0.0
  0
ARC
  5
686
  8
DETAIL
  6
CONTINUOUS
 62
     5
 10
-75.399591000000001
 20
-286.64705900000001
 30
0.0
 40
1.6000000000000001
 50
97.152669000000003
 51
180.0
  0
LINE
  5
687
  8
BASIS
  6
DASHDOT
 62
     6
 10
-10.0
 20
-327.60526900000002
 30
0.0
 11
-10.0
 21
-206.66336699999991
 31
0.0
  0
LINE
  5
688
  8
BASIS
  6
DASHDOT
 62
     6
 10
10.0
 20
-327.60526900000002
 30
0.0
 11
10.0
 21
-206.66336699999991
 31
0.0
  0
TEXT
  5
689
  8
NOTE
  6
CONTINUOUS
 62
     4
 10
-711.57028000000003
 20
267.810474
 30
0.0
 40
64.0
  1
ダクト接続口可動寸法
 41
0.9
  0
LINE
  5
68A
  8
SIZE
  6
CONTINUOUS
 62
    30
 10
300.0
 20
-720.0
 30
0.0
 11
300.0
 21
-1095.455089999999
 31
0.0
  0
LINE
  5
68B
  8
SIZE
  6
CONTINUOUS
 62
    30
 10
-300.0
 20
-720.0
 30
0.0
 11
-300.0
 21
-1095.455089999999
 31
0.0
  0
LINE
  5
68C
  8
SIZE
  6
CONTINUOUS
 62
    30
 10
288.0
 20
-1075.455089999999
 30
0.0
 11
-288.0
 21
-1075.455089999999
 31
0.0
  0
CIRCLE
  5
68D
  8
SIZE
  6
CONTINUOUS
 62
    30
 10
300.0
 20
-1075.455089999999
 30
0.0
 40
6.0
  0
LINE
  5
68E
  8
SIZE
  6
CONTINUOUS
 62
    30
 10
300.0
 20
-1075.455089999999
 30
0.0
 11
288.0
 21
-1075.455089999999
 31
0.0
  0
CIRCLE
  5
68F
  8
SIZE
  6
CONTINUOUS
 62
    30
 10
-300.0
 20
-1075.455089999999
 30
0.0
 40
6.0
  0
LINE
  5
690
  8
SIZE
  6
CONTINUOUS
 62
    30
 10
-300.0
 20
-1075.455089999999
 30
0.0
 11
-288.0
 21
-1075.455089999999
 31
0.0
  0
TEXT
  5
691
  8
SIZE
  6
CONTINUOUS
 62
    30
 10
-74.05714285714285
 20
-1050.4550899999999
 30
0.0
 40
64.0
  1
600
 41
0.9
 72
     1
 11
0.0
 21
-1050.4550899999999
 31
0.0
  0
LINE
  5
692
  8
SIZE
  6
CONTINUOUS
 62
    30
 10
240.0
 20
-635.0
 30
0.0
 11
240.0
 21
-968.01833999999997
 31
0.0
  0
LINE
  5
693
  8
SIZE
  6
CONTINUOUS
 62
    30
 10
-240.0
 20
-635.0
 30
0.0
 11
-240.0
 21
-968.01833999999997
 31
0.0
  0
LINE
  5
694
  8
SIZE
  6
CONTINUOUS
 62
    30
 10
228.0
 20
-948.01833999999985
 30
0.0
 11
-228.0
 21
-948.01833999999985
 31
0.0
  0
CIRCLE
  5
695
  8
SIZE
  6
CONTINUOUS
 62
    30
 10
240.0
 20
-948.01833999999985
 30
0.0
 40
6.0
  0
LINE
  5
696
  8
SIZE
  6
CONTINUOUS
 62
    30
 10
240.0
 20
-948.01833999999985
 30
0.0
 11
228.0
 21
-948.01833999999985
 31
0.0
  0
CIRCLE
  5
697
  8
SIZE
  6
CONTINUOUS
 62
    30
 10
-240.0
 20
-948.01833999999985
 30
0.0
 40
6.0
  0
LINE
  5
698
  8
SIZE
  6
CONTINUOUS
 62
    30
 10
-240.0
 20
-948.01833999999985
 30
0.0
 11
-228.0
 21
-948.01833999999985
 31
0.0
  0
TEXT
  5
699
  8
SIZE
  6
CONTINUOUS
 62
    30
 10
-74.057142857142836
 20
-923.01833999999985
 30
0.0
 40
64.0
  1
480
 41
0.9
 72
     1
 11
0.0
 21
-923.01833999999985
 31
0.0
  0
LINE
  5
69A
  8
SIZE
  6
CONTINUOUS
 62
    30
 10
280.0
 20
-360.0
 30
0.0
 11
662.56543899999997
 21
-360.0
 31
0.0
  0
LINE
  5
69B
  8
SIZE
  6
CONTINUOUS
 62
    30
 10
320.0
 20
-700.0
 30
0.0
 11
662.56543899999997
 21
-700.0
 31
0.0
  0
LINE
  5
69C
  8
SIZE
  6
CONTINUOUS
 62
    30
 10
642.56543899999997
 20
-372.0
 30
0.0
 11
642.56543899999997
 21
-688.0
 31
0.0
  0
CIRCLE
  5
69D
  8
SIZE
  6
CONTINUOUS
 62
    30
 10
642.56543899999997
 20
-360.0
 30
0.0
 40
6.0
  0
LINE
  5
69E
  8
SIZE
  6
CONTINUOUS
 62
    30
 10
642.56543899999997
 20
-360.0
 30
0.0
 11
642.56543899999997
 21
-372.0
 31
0.0
  0
CIRCLE
  5
69F
  8
SIZE
  6
CONTINUOUS
 62
    30
 10
642.56543899999997
 20
-700.0
 30
0.0
 40
6.0
  0
LINE
  5
6A0
  8
SIZE
  6
CONTINUOUS
 62
    30
 10
642.56543899999997
 20
-700.0
 30
0.0
 11
642.56543899999997
 21
-688.0
 31
0.0
  0
TEXT
  5
6A1
  8
SIZE
  6
CONTINUOUS
 62
    30
 10
617.56543899999997
 20
-604.05714285714282
 30
0.0
 40
64.0
  1
340
 50
90.0
 41
0.9
 72
     1
 11
617.56543899999997
 21
-530.0
 31
0.0
  0
LINE
  5
6A2
  8
SIZE
  6
CONTINUOUS
 62
    30
 10
320.0
 20
-700.0
 30
0.0
 11
526.85730299999966
 21
-700.0
 31
0.0
  0
LINE
  5
6A3
  8
SIZE
  6
CONTINUOUS
 62
    30
 10
280.0
 20
-595.0
 30
0.0
 11
526.85730299999966
 21
-595.0
 31
0.0
  0
LINE
  5
6A4
  8
SIZE
  6
CONTINUOUS
 62
    30
 10
506.857303
 20
-688.0
 30
0.0
 11
506.857303
 21
-607.0
 31
0.0
  0
LINE
  5
6A5
  8
SIZE
  6
CONTINUOUS
 62
    30
 10
506.857303
 20
-909.57207499999993
 30
0.0
 11
506.857303
 21
-700.0
 31
0.0
  0
TEXT
  5
6A6
  8
SIZE
  6
CONTINUOUS
 62
    30
 10
481.857303
 20
-884.57207457142852
 30
0.0
 40
64.0
  1
105
 50
90.0
 41
0.9
 72
     1
 11
481.857303
 21
-816.00064599999985
 31
0.0
  0
CIRCLE
  5
6A7
  8
SIZE
  6
CONTINUOUS
 62
    30
 10
506.857303
 20
-700.0
 30
0.0
 40
6.0
  0
LINE
  5
6A8
  8
SIZE
  6
CONTINUOUS
 62
    30
 10
506.857303
 20
-700.0
 30
0.0
 11
506.857303
 21
-688.0
 31
0.0
  0
CIRCLE
  5
6A9
  8
SIZE
  6
CONTINUOUS
 62
    30
 10
506.857303
 20
-595.0
 30
0.0
 40
6.0
  0
LINE
  5
6AA
  8
SIZE
  6
CONTINUOUS
 62
    30
 10
506.857303
 20
-595.0
 30
0.0
 11
506.857303
 21
-607.0
 31
0.0
  0
LINE
  5
6AB
  8
SIZE
  6
CONTINUOUS
 62
    30
 10
-320.0
 20
0.0
 30
0.0
 11
-694.98952599999996
 21
0.0
 31
0.0
  0
LINE
  5
6AC
  8
SIZE
  6
CONTINUOUS
 62
    30
 10
-320.0
 20
-700.0
 30
0.0
 11
-694.98952599999996
 21
-700.0
 31
0.0
  0
LINE
  5
6AD
  8
SIZE
  6
CONTINUOUS
 62
    30
 10
-674.98952599999996
 20
-12.0
 30
0.0
 11
-674.98952599999996
 21
-688.0
 31
0.0
  0
CIRCLE
  5
6AE
  8
SIZE
  6
CONTINUOUS
 62
    30
 10
-674.98952599999996
 20
0.0
 30
0.0
 40
6.0
  0
LINE
  5
6AF
  8
SIZE
  6
CONTINUOUS
 62
    30
 10
-674.98952599999996
 20
0.0
 30
0.0
 11
-674.98952599999996
 21
-12.0
 31
0.0
  0
CIRCLE
  5
6B0
  8
SIZE
  6
CONTINUOUS
 62
    30
 10
-674.98952599999996
 20
-700.0
 30
0.0
 40
6.0
  0
LINE
  5
6B1
  8
SIZE
  6
CONTINUOUS
 62
    30
 10
-674.98952599999996
 20
-700.0
 30
0.0
 11
-674.98952599999996
 21
-688.0
 31
0.0
  0
TEXT
  5
6B2
  8
SIZE
  6
CONTINUOUS
 62
    30
 10
-699.98952599999996
 20
-424.05714285714288
 30
0.0
 40
64.0
  1
700
 50
90.0
 41
0.9
 72
     1
 11
-699.98952599999996
 21
-350.0
 31
0.0
  0
LINE
  5
6B3
  8
SIZE
  6
CONTINUOUS
 62
    30
 10
-320.0
 20
-700.0
 30
0.0
 11
-574.70431399999995
 21
-700.0
 31
0.0
  0
LINE
  5
6B4
  8
SIZE
  6
CONTINUOUS
 62
    30
 10
-320.0
 20
-300.0
 30
0.0
 11
-574.70431399999995
 21
-300.0
 31
0.0
  0
LINE
  5
6B5
  8
SIZE
  6
CONTINUOUS
 62
    30
 10
-554.70431399999995
 20
-688.0
 30
0.0
 11
-554.70431399999995
 21
-312.0
 31
0.0
  0
CIRCLE
  5
6B6
  8
SIZE
  6
CONTINUOUS
 62
    30
 10
-554.70431399999995
 20
-700.0
 30
0.0
 40
6.0
  0
LINE
  5
6B7
  8
SIZE
  6
CONTINUOUS
 62
    30
 10
-554.70431399999995
 20
-700.0
 30
0.0
 11
-554.70431399999995
 21
-688.0
 31
0.0
  0
CIRCLE
  5
6B8
  8
SIZE
  6
CONTINUOUS
 62
    30
 10
-554.70431399999995
 20
-300.0
 30
0.0
 40
6.0
  0
LINE
  5
6B9
  8
SIZE
  6
CONTINUOUS
 62
    30
 10
-554.70431399999995
 20
-300.0
 30
0.0
 11
-554.70431399999995
 21
-312.0
 31
0.0
  0
TEXT
  5
6BA
  8
SIZE
  6
CONTINUOUS
 62
    30
 10
-579.70431399999995
 20
-574.05714285714282
 30
0.0
 40
64.0
  1
400
 50
90.0
 41
0.9
 72
     1
 11
-579.70431399999995
 21
-500.0
 31
0.0
  0
LINE
  5
6BB
  8
SIZE
  6
CONTINUOUS
 62
    30
 10
-320.0
 20
-300.0
 30
0.0
 11
-574.70431399999995
 21
-300.0
 31
0.0
  0
LINE
  5
6BC
  8
SIZE
  6
CONTINUOUS
 62
    30
 10
-93.999591000000024
 20
-245.0
 30
0.0
 11
-574.70431399999995
 21
-245.0
 31
0.0
  0
LINE
  5
6BD
  8
SIZE
  6
CONTINUOUS
 62
    30
 10
-554.70431399999995
 20
-312.0
 30
0.0
 11
-554.70431399999995
 21
-324.0
 31
0.0
  0
LINE
  5
6BE
  8
SIZE
  6
CONTINUOUS
 62
    30
 10
-554.70431399999995
 20
-233.0
 30
0.0
 11
-554.70431399999995
 21
-221.0
 31
0.0
  0
LINE
  5
6BF
  8
SIZE
  6
CONTINUOUS
 62
    30
 10
-554.70431399999995
 20
-300.0
 30
0.0
 11
-554.70431399999995
 21
-245.0
 31
0.0
  0
CIRCLE
  5
6C0
  8
SIZE
  6
CONTINUOUS
 62
    30
 10
-554.70431399999995
 20
-300.0
 30
0.0
 40
6.0
  0
LINE
  5
6C1
  8
SIZE
  6
CONTINUOUS
 62
    30
 10
-554.70431399999995
 20
-300.0
 30
0.0
 11
-554.70431399999995
 21
-312.0
 31
0.0
  0
CIRCLE
  5
6C2
  8
SIZE
  6
CONTINUOUS
 62
    30
 10
-554.70431399999995
 20
-245.0
 30
0.0
 40
6.0
  0
LINE
  5
6C3
  8
SIZE
  6
CONTINUOUS
 62
    30
 10
-554.70431399999995
 20
-245.0
 30
0.0
 11
-554.70431399999995
 21
-233.0
 31
0.0
  0
TEXT
  5
6C4
  8
SIZE
  6
CONTINUOUS
 62
    30
 10
-579.70431399999995
 20
-319.12857142857138
 30
0.0
 40
64.0
  1
55
 50
90.0
 41
0.9
 72
     1
 11
-579.70431399999995
 21
-272.5
 31
0.0
  0
LINE
  5
6C5
  8
SIZE
  6
CONTINUOUS
 62
    30
 10
-320.0
 20
-300.0
 30
0.0
 11
-438.95830999999998
 21
-300.0
 31
0.0
  0
LINE
  5
6C6
  8
SIZE
  6
CONTINUOUS
 62
    30
 10
-93.999591000000024
 20
-285.0
 30
0.0
 11
-438.95830999999998
 21
-285.0
 31
0.0
  0
LINE
  5
6C7
  8
SIZE
  6
CONTINUOUS
 62
    30
 10
-418.95830999999998
 20
-312.0
 30
0.0
 11
-418.95830999999998
 21
-324.0
 31
0.0
  0
LINE
  5
6C8
  8
SIZE
  6
CONTINUOUS
 62
    30
 10
-418.95830999999998
 20
-273.0
 30
0.0
 11
-418.95830999999998
 21
-261.0
 31
0.0
  0
LINE
  5
6C9
  8
SIZE
  6
CONTINUOUS
 62
    30
 10
-418.95830999999998
 20
-118.86956600000001
 30
0.0
 11
-418.95830999999998
 21
-285.0
 31
0.0
  0
TEXT
  5
6CA
  8
SIZE
  6
CONTINUOUS
 62
    30
 10
-443.95830999999998
 20
-226.15528014285701
 30
0.0
 40
64.0
  1
15
 50
90.0
 41
0.9
 72
     1
 11
-443.95830999999998
 21
-185.0124229999999
 31
0.0
  0
LINE
  5
6CB
  8
SIZE
  6
CONTINUOUS
 62
    30
 10
-418.95830999999998
 20
-300.0
 30
0.0
 11
-418.95830999999998
 21
-285.0
 31
0.0
  0
LINE
  5
6CC
  8
SIZE
  6
CONTINUOUS
 62
    30
 10
-418.95830999999998
 20
-300.0
 30
0.0
 11
-418.95830999999998
 21
-285.0
 31
0.0
  0
CIRCLE
  5
6CD
  8
SIZE
  6
CONTINUOUS
 62
    30
 10
-418.95830999999998
 20
-300.0
 30
0.0
 40
6.0
  0
LINE
  5
6CE
  8
SIZE
  6
CONTINUOUS
 62
    30
 10
-418.95830999999998
 20
-300.0
 30
0.0
 11
-418.95830999999998
 21
-312.0
 31
0.0
  0
CIRCLE
  5
6CF
  8
SIZE
  6
CONTINUOUS
 62
    30
 10
-418.95830999999998
 20
-285.0
 30
0.0
 40
6.0
  0
LINE
  5
6D0
  8
SIZE
  6
CONTINUOUS
 62
    30
 10
-418.95830999999998
 20
-285.0
 30
0.0
 11
-418.95830999999998
 21
-273.0
 31
0.0
  0
LINE
  5
6D1
  8
SIZE
  6
CONTINUOUS
 62
    30
 10
240.0
 20
-260.0
 30
0.0
 11
240.0
 21
500.46223499999991
 31
0.0
  0
LINE
  5
6D2
  8
SIZE
  6
CONTINUOUS
 62
    30
 10
-240.0
 20
-260.0
 30
0.0
 11
-240.0
 21
500.46223499999991
 31
0.0
  0
LINE
  5
6D3
  8
SIZE
  6
CONTINUOUS
 62
    30
 10
228.0
 20
480.46223499999979
 30
0.0
 11
-228.0
 21
480.46223499999979
 31
0.0
  0
CIRCLE
  5
6D4
  8
SIZE
  6
CONTINUOUS
 62
    30
 10
240.0
 20
480.46223499999979
 30
0.0
 40
6.0
  0
LINE
  5
6D5
  8
SIZE
  6
CONTINUOUS
 62
    30
 10
240.0
 20
480.46223499999979
 30
0.0
 11
228.0
 21
480.46223499999979
 31
0.0
  0
CIRCLE
  5
6D6
  8
SIZE
  6
CONTINUOUS
 62
    30
 10
-240.0
 20
480.46223499999979
 30
0.0
 40
6.0
  0
LINE
  5
6D7
  8
SIZE
  6
CONTINUOUS
 62
    30
 10
-240.0
 20
480.46223499999979
 30
0.0
 11
-228.0
 21
480.46223499999979
 31
0.0
  0
TEXT
  5
6D8
  8
SIZE
  6
CONTINUOUS
 62
    30
 10
-74.057142857142836
 20
505.46223499999979
 30
0.0
 40
64.0
  1
480
 41
0.9
 72
     1
 11
0.0
 21
505.46223499999979
 31
0.0
  0
LINE
  5
6D9
  8
SIZE
  6
CONTINUOUS
 62
    30
 10
10.0
 20
-186.66336699999991
 30
0.0
 11
10.0
 21
377.05212999999992
 31
0.0
  0
LINE
  5
6DA
  8
SIZE
  6
CONTINUOUS
 62
    30
 10
-10.0
 20
-186.66336699999991
 30
0.0
 11
-10.0
 21
377.05212999999992
 31
0.0
  0
LINE
  5
6DB
  8
SIZE
  6
CONTINUOUS
 62
    30
 10
22.0
 20
357.05212999999992
 30
0.0
 11
34.0
 21
357.05212999999992
 31
0.0
  0
LINE
  5
6DC
  8
SIZE
  6
CONTINUOUS
 62
    30
 10
-22.0
 20
357.05212999999992
 30
0.0
 11
-34.0
 21
357.05212999999992
 31
0.0
  0
LINE
  5
6DD
  8
SIZE
  6
CONTINUOUS
 62
    30
 10
-426.15802499999972
 20
357.05212999999992
 30
0.0
 11
-10.0
 21
357.05212999999992
 31
0.0
  0
TEXT
  5
6DE
  8
SIZE
  6
CONTINUOUS
 62
    30
 10
-401.15802542857119
 20
382.05212999999992
 30
0.0
 40
64.0
  1
20
 41
0.9
 72
     1
 11
-354.52945399999982
 21
382.05212999999992
 31
0.0
  0
LINE
  5
6DF
  8
SIZE
  6
CONTINUOUS
 62
    30
 10
10.0
 20
357.05212999999992
 30
0.0
 11
-10.0
 21
357.05212999999992
 31
0.0
  0
LINE
  5
6E0
  8
SIZE
  6
CONTINUOUS
 62
    30
 10
10.0
 20
357.05212999999992
 30
0.0
 11
-10.0
 21
357.05212999999992
 31
0.0
  0
CIRCLE
  5
6E1
  8
SIZE
  6
CONTINUOUS
 62
    30
 10
10.0
 20
357.05212999999992
 30
0.0
 40
6.0
  0
LINE
  5
6E2
  8
SIZE
  6
CONTINUOUS
 62
    30
 10
10.0
 20
357.05212999999992
 30
0.0
 11
22.0
 21
357.05212999999992
 31
0.0
  0
CIRCLE
  5
6E3
  8
SIZE
  6
CONTINUOUS
 62
    30
 10
-10.0
 20
357.05212999999992
 30
0.0
 40
6.0
  0
LINE
  5
6E4
  8
SIZE
  6
CONTINUOUS
 62
    30
 10
-10.0
 20
357.05212999999992
 30
0.0
 11
-22.0
 21
357.05212999999992
 31
0.0
  0
LINE
  5
6E5
  8
SIZE
  6
CONTINUOUS
 62
    30
 10
74.000408999999976
 20
-225.0
 30
0.0
 11
74.000408999999976
 21
181.86678900000001
 31
0.0
  0
LINE
  5
6E6
  8
SIZE
  6
CONTINUOUS
 62
    30
 10
-73.999591000000024
 20
-225.0
 30
0.0
 11
-73.999591000000024
 21
181.86678900000001
 31
0.0
  0
LINE
  5
6E7
  8
SIZE
  6
CONTINUOUS
 62
    30
 10
62.000408999999998
 20
161.8667889999999
 30
0.0
 11
-61.999591000000002
 21
161.8667889999999
 31
0.0
  0
LINE
  5
6E8
  8
SIZE
  6
CONTINUOUS
 62
    30
 10
485.76482499999992
 20
161.8667889999999
 30
0.0
 11
74.000408999999976
 21
161.8667889999999
 31
0.0
  0
TEXT
  5
6E9
  8
SIZE
  6
CONTINUOUS
 62
    30
 10
257.2448254285714
 20
186.8667889999999
 30
0.0
 40
64.0
  1
φ148
 41
0.9
 72
     1
 11
366.13625400000001
 21
186.8667889999999
 31
0.0
  0
CIRCLE
  5
6EA
  8
SIZE
  6
CONTINUOUS
 62
    30
 10
74.000408999999976
 20
161.8667889999999
 30
0.0
 40
6.0
  0
LINE
  5
6EB
  8
SIZE
  6
CONTINUOUS
 62
    30
 10
74.000408999999976
 20
161.8667889999999
 30
0.0
 11
62.000408999999998
 21
161.8667889999999
 31
0.0
  0
CIRCLE
  5
6EC
  8
SIZE
  6
CONTINUOUS
 62
    30
 10
-73.999591000000024
 20
161.8667889999999
 30
0.0
 40
6.0
  0
LINE
  5
6ED
  8
SIZE
  6
CONTINUOUS
 62
    30
 10
-73.999591000000024
 20
161.8667889999999
 30
0.0
 11
-61.999591000000002
 21
161.8667889999999
 31
0.0
  0
LINE
  5
6EE
  8
SIZE
  6
CONTINUOUS
 62
    30
 39
50.0
 10
-426.15802499999972
 20
357.05212999999992
 30
0.0
 11
-712.15302899999995
 21
357.05212999999992
 31
0.0
  0
LINE
  5
6EF
  8
NOTE
  6
CONTINUOUS
 62
     4
 10
-186.0
 20
-320.0
 30
0.0
 11
-186.0
 21
-280.0
 31
0.0
  0
LINE
  5
6F0
  8
SIZE
  6
CONTINUOUS
 10
-186.0
 20
-240.0
 30
0.0
 11
-185.99999999999989
 21
181.92298040122839
 31
0.0
  0
LINE
  5
6F1
  8
SIZE
  6
CONTINUOUS
 10
-185.99999999999989
 20
161.92298040122839
 30
0.0
 11
-197.99999999999969
 21
161.92298040122839
 31
0.0
  0
LINE
  5
6F2
  8
SIZE
  6
CONTINUOUS
 10
-186.0
 20
-260.0
 30
0.0
 11
-185.99999999999989
 21
181.92298040122839
 31
0.0
  0
LINE
  5
6F3
  8
SIZE
  6
CONTINUOUS
 10
-300.0
 20
20.0
 30
0.0
 11
-300.0
 21
181.92298040122839
 31
0.0
  0
LINE
  5
6F4
  8
SIZE
  6
CONTINUOUS
 10
-185.909133280471
 20
161.92298040122839
 30
0.0
 11
-490.9142857142856
 21
161.92298040122839
 31
0.0
  0
TEXT
  5
6F5
  8
SIZE
  6
CONTINUOUS
 10
-465.9142857142856
 20
186.92298040122839
 30
0.0
 40
64.0
  1
114
 41
0.9
  0
CIRCLE
  5
6F6
  8
SIZE
  6
CONTINUOUS
 62
    30
 39
50.0
 10
-300.0
 20
161.92298040122839
 30
0.0
 40
6.0
  0
CIRCLE
  5
6F7
  8
SIZE
  6
CONTINUOUS
 62
    30
 39
50.0
 10
-185.99999999999989
 20
161.92298040122839
 30
0.0
 40
6.0
  0
TEXT
  5
6F8
  8
ETC
  6
CONTINUOUS
 62
    61
 10
830.21746508565946
 20
443.60670185453449
 30
0.0
 40
50.0
  1
V-6047KL6-BL
 41
0.9
  0
TEXT
  5
6F9
  8
ETC
  6
CONTINUOUS
 62
    61
 10
827.65001846398252
 20
518.03355672964244
 30
0.0
 40
50.0
  1
V-6037KL6-BL
 41
0.9
  0
TEXT
  5
6FA
  8
ETC
  6
CONTINUOUS
 62
    61
 10
830.21746508565946
 20
597.59329701128638
 30
0.0
 40
50.0
  1
V-6027KL6-BL
 41
0.9
  0
TEXT
  5
6FB
  8
ETC
  6
CONTINUOUS
 62
    61
 10
693.5029529582954
 20
787.64020986558614
 30
0.0
 40
64.0
  1
V-6027KL6-BL_3
 41
0.9
  0
TEXT
  5
6FC
  8
ETC
  6
CONTINUOUS
 62
    61
 10
698.04765995829541
 20
678.33757986558624
 30
0.0
 40
64.0
  1
換気扇
 41
0.9
  0
ENDSEC
  0
EOF
