  0
SECTION
  2
HEADER
  9
$ACADVER
  1
AC1009
  9
$INSBASE
 10
0.0
 20
0.0
 30
0.0
  9
$EXTMIN
 10
-664.35245099999997
 20
-1371.12936080036
 30
0.0
  9
$EXTMAX
 10
1872.076150774099
 20
874.64886116730702
 30
50.0
  9
$LIMMIN
 10
-2970.0
 20
-2100.0
  9
$LIMMAX
 10
2970.0
 20
2100.0
  9
$ORTHOMODE
 70
     1
  9
$REGENMODE
 70
     0
  9
$FILLMODE
 70
     1
  9
$QTEXTMODE
 70
     0
  9
$MIRRTEXT
 70
     0
  9
$DRAGMODE
 70
     2
  9
$LTSCALE
 40
20.0
  9
$OSMODE
 70
   175
  9
$ATTMODE
 70
     1
  9
$TEXTSIZE
 40
64.0
  9
$TRACEWID
 40
0.05
  9
$TEXTSTYLE
  7
STANDARD
  9
$CLAYER
  8
NOTE
  9
$CELTYPE
  6
CONTINUOUS
  9
$CECOLOR
 62
     4
  9
$DIMSCALE
 40
1.0
  9
$DIMASZ
 40
12.0
  9
$DIMEXO
 40
20.0
  9
$DIMDLI
 40
200.0
  9
$DIMRND
 40
0.0
  9
$DIMDLE
 40
0.0
  9
$DIMEXE
 40
20.0
  9
$DIMTP
 40
0.0
  9
$DIMTM
 40
0.0
  9
$DIMTXT
 40
64.0
  9
$DIMCEN
 40
0.09
  9
$DIMTSZ
 40
0.0
  9
$DIMTOL
 70
     0
  9
$DIMLIM
 70
     0
  9
$DIMTIH
 70
     0
  9
$DIMTOH
 70
     0
  9
$DIMSE1
 70
     0
  9
$DIMSE2
 70
     0
  9
$DIMTAD
 70
     1
  9
$DIMZIN
 70
     8
  9
$DIMBLK
  1
NONE
  9
$DIMASO
 70
     1
  9
$DIMSHO
 70
     0
  9
$DIMPOST
  1

  9
$DIMAPOST
  1

  9
$DIMALT
 70
     0
  9
$DIMALTD
 70
     2
  9
$DIMALTF
 40
25.399999999999999
  9
$DIMLFAC
 40
1.0
  9
$DIMTOFL
 70
     1
  9
$DIMTVP
 40
0.0
  9
$DIMTIX
 70
     1
  9
$DIMSOXD
 70
     0
  9
$DIMSAH
 70
     0
  9
$DIMBLK1
  1
NONE
  9
$DIMBLK2
  1
ORIGIN
  9
$DIMSTYLE
  2
STANDARD
  9
$DIMCLRD
 70
   256
  9
$DIMCLRE
 70
   256
  9
$DIMCLRT
 70
   256
  9
$DIMTFAC
 40
1.0
  9
$DIMGAP
 40
25.0
  9
$LUNITS
 70
     2
  9
$LUPREC
 70
     4
  9
$SKETCHINC
 40
0.1
  9
$FILLETRAD
 40
4.0
  9
$AUNITS
 70
     1
  9
$AUPREC
 70
     3
  9
$MENU
  1
ACAD
  9
$ELEVATION
 40
0.0
  9
$PELEVATION
 40
0.0
  9
$THICKNESS
 40
50.0
  9
$LIMCHECK
 70
     0
  9
$BLIPMODE
 70
     0
  9
$CHAMFERA
 40
0.0
  9
$CHAMFERB
 40
0.0
  9
$SKPOLY
 70
     0
  9
$TDCREATE
 40
2453091.3854939458
  9
$TDUPDATE
 40
2453793.7759230318
  9
$TDINDWG
 40
0.0484407292
  9
$TDUSRTIMER
 40
0.0484407292
  9
$USRTIMER
 70
     1
  9
$ANGBASE
 50
0.0
  9
$ANGDIR
 70
     0
  9
$PDMODE
 70
     3
  9
$PDSIZE
 40
-2.0
  9
$PLINEWID
 40
0.0
  9
$COORDS
 70
     2
  9
$SPLFRAME
 70
     0
  9
$SPLINETYPE
 70
     6
  9
$SPLINESEGS
 70
     8
  9
$ATTDIA
 70
     0
  9
$ATTREQ
 70
     1
  9
$HANDLING
 70
 22529
  9
$HANDSEED
  5
6EE
  9
$SURFTAB1
 70
     6
  9
$SURFTAB2
 70
     6
  9
$SURFTYPE
 70
     6
  9
$SURFU
 70
     6
  9
$SURFV
 70
     6
  9
$UCSNAME
  2

  9
$UCSORG
 10
0.0
 20
0.0
 30
0.0
  9
$UCSXDIR
 10
1.0
 20
0.0
 30
0.0
  9
$UCSYDIR
 10
0.0
 20
1.0
 30
0.0
  9
$PUCSNAME
  2

  9
$PUCSORG
 10
0.0
 20
0.0
 30
0.0
  9
$PUCSXDIR
 10
1.0
 20
0.0
 30
0.0
  9
$PUCSYDIR
 10
0.0
 20
1.0
 30
0.0
  9
$USERI1
 70
     0
  9
$USERI2
 70
     0
  9
$USERI3
 70
     0
  9
$USERI4
 70
     0
  9
$USERI5
 70
     0
  9
$USERR1
 40
20.0
  9
$USERR2
 40
0.0
  9
$USERR3
 40
0.0
  9
$USERR4
 40
0.0
  9
$USERR5
 40
0.0
  9
$WORLDVIEW
 70
     1
  9
$SHADEDGE
 70
     3
  9
$SHADEDIF
 70
    70
  9
$TILEMODE
 70
     1
  9
$MAXACTVP
 70
    48
  9
$PLIMCHECK
 70
     0
  9
$PEXTMIN
 10
-1.0000000000000000E+020
 20
-1.0000000000000000E+020
 30
-1.0000000000000000E+020
  9
$PEXTMAX
 10
1.0000000000000000E+020
 20
1.0000000000000000E+020
 30
1.0000000000000000E+020
  9
$PLIMMIN
 10
0.0
 20
0.0
  9
$PLIMMAX
 10
12.0
 20
9.0
  9
$UNITMODE
 70
     0
  9
$VISRETAIN
 70
     0
  9
$PLINEGEN
 70
     0
  9
$PSLTSCALE
 70
     0
  0
ENDSEC
  0
SECTION
  2
TABLES
  0
TABLE
  2
VPORT
 70
     3
  0
VPORT
  2
*ACTIVE
 70
     0
 10
0.0
 20
0.0
 11
1.0
 21
1.0
 12
336.91522303788543
 22
-277.31100281395629
 13
0.0
 23
0.0
 14
1.0
 24
1.0
 15
0.0
 25
0.0
 16
0.0
 26
0.0
 36
1.0
 17
0.0
 27
0.0
 37
0.0
 40
2554.4281611357751
 41
1.447268106734434
 42
50.0
 43
0.0
 44
0.0
 50
0.0
 51
0.0
 71
     0
 72
  1000
 73
     1
 74
     0
 75
     0
 76
     0
 77
     0
 78
     0
  0
ENDTAB
  0
TABLE
  2
LTYPE
 70
     3
  0
LTYPE
  2
CONTINUOUS
 70
     0
  3
実線
 72
    65
 73
     0
 40
0.0
  0
LTYPE
  2
DASHDOT
 70
     0
  3
____ _ ____ _ ____ _ ____ _ ____ _ ____ _ ____
 72
    65
 73
     4
 40
5.5
 49
4.0
 49
-0.6
 49
0.3
 49
-0.6
  0
LTYPE
  2
CONTINOUS
 70
     0
  3
Solid line
 72
    65
 73
     0
 40
0.0
  0
ENDTAB
  0
TABLE
  2
LAYER
 70
    12
  0
LAYER
  2
0
 70
     0
 62
     7
  6
CONTINUOUS
  0
LAYER
  2
NOTE
 70
     0
 62
     4
  6
CONTINUOUS
  0
LAYER
  2
SIZE
 70
     0
 62
    30
  6
CONTINUOUS
  0
LAYER
  2
BASIS
 70
     0
 62
     6
  6
DASHDOT
  0
LAYER
  2
OUTLINE
 70
     0
 62
     3
  6
CONTINUOUS
  0
LAYER
  2
DETAIL
 70
     0
 62
     5
  6
CONTINUOUS
  0
LAYER
  2
ARRANGE
 70
     0
 62
     1
  6
CONTINUOUS
  0
LAYER
  2
DEFPOINTS
 70
     0
 62
     7
  6
CONTINUOUS
  0
LAYER
  2
ETC
 70
     0
 62
    61
  6
CONTINUOUS
  0
LAYER
  2
FIX
 70
     0
 62
    11
  6
CONTINUOUS
  0
LAYER
  2
SERVICESPACE
 70
     0
 62
     2
  6
DASHDOT
  0
LAYER
  2
SYMBOLLINE
 70
     0
 62
    15
  6
CONTINUOUS
  0
ENDTAB
  0
TABLE
  2
STYLE
 70
     1
  0
STYLE
  2
STANDARD
 70
     0
 40
64.0
 41
0.9
 50
0.0
 71
     0
 42
64.0
  3
SIMPLEX.shx
  4
BIGFONT.shx
  0
ENDTAB
  0
TABLE
  2
VIEW
 70
     1
  0
VIEW
  2
ALL
 70
     0
 40
4282.6198079999967
 10
0.0
 20
41.309903999999989
 41
5940.0
 11
0.0
 21
0.0
 31
1.0
 12
0.0
 22
0.0
 32
0.0
 42
50.0
 43
0.0
 44
0.0
 50
0.0
 71
     0
  0
ENDTAB
  0
TABLE
  2
UCS
 70
     0
  0
ENDTAB
  0
TABLE
  2
APPID
 70
     2
  0
APPID
  2
ACAD
 70
     0
  0
APPID
  2
AUTOCAD_POSTSCRIPT_FIGURE
 70
     0
  0
ENDTAB
  0
TABLE
  2
DIMSTYLE
 70
     1
  0
DIMSTYLE
  2
STANDARD
 70
     0
  3

  4

  5

  6

  7

 40
1.0
 41
0.18
 42
0.0625
 43
0.38
 44
0.18
 45
0.0
 46
0.0
 47
0.0
 48
0.0
140
0.18
141
0.09
142
0.0
143
25.399999999999999
144
1.0
145
0.0
146
1.0
147
0.09
 71
     0
 72
     0
 73
     1
 74
     1
 75
     0
 76
     0
 77
     0
 78
     0
170
     0
171
     2
172
     0
173
     0
174
     0
175
     0
176
     7
177
     7
178
     7
  0
ENDTAB
  0
ENDSEC
  0
SECTION
  2
BLOCKS
  0
BLOCK
  8
0
  2
$MODEL_SPACE
 70
     0
 10
0.0
 20
0.0
 30
0.0
  3
$MODEL_SPACE
  1

  0
ENDBLK
  5
574
  8
0
  0
BLOCK
 67
     1
  8
0
  2
$PAPER_SPACE
 70
     0
 10
0.0
 20
0.0
 30
0.0
  3
$PAPER_SPACE
  1

  0
ENDBLK
  5
570
 67
     1
  8
0
  0
BLOCK
  8
0
  2
DOT1
 70
     0
 10
0.0
 20
0.0
 30
0.0
  3
DOT1
  1

  0
CIRCLE
  5
591
  8
SIZE
  6
CONTINUOUS
 62
     7
 10
0.0
 20
0.0
 30
0.0
 40
3.0
  0
ENDBLK
  5
592
  8
0
  0
BLOCK
  8
0
  2
_ORIGIN
 70
     0
 10
0.0
 20
0.0
 30
0.0
  3
_ORIGIN
  1

  0
CIRCLE
  5
595
  8
0
  6
CONTINUOUS
 62
     7
 10
0.0
 20
0.0
 30
0.0
 40
0.5
  0
LINE
  5
596
  8
0
  6
CONTINUOUS
 62
     7
 10
0.0
 20
0.0
 30
0.0
 11
-1.0
 21
0.0
 31
0.0
  0
ENDBLK
  5
597
  8
0
  0
BLOCK
  8
0
 62
    30
  2
_NONE
 70
     0
 10
0.0
 20
0.0
 30
0.0
  3
_NONE
  1

  0
ENDBLK
  5
59A
  8
0
 62
    30
  0
BLOCK
  8
0
 62
    30
  2
_OPEN30
 70
     0
 10
0.0
 20
0.0
 30
0.0
  3
_OPEN30
  1

  0
LINE
  5
59D
  8
0
  6
BYBLOCK
 62
     0
 10
-1.0
 20
0.26794919
 30
0.0
 11
0.0
 21
0.0
 31
0.0
  0
LINE
  5
59E
  8
0
  6
BYBLOCK
 62
     0
 10
0.0
 20
0.0
 30
0.0
 11
-1.0
 21
-0.26794919
 31
0.0
  0
LINE
  5
59F
  8
0
  6
BYBLOCK
 62
     0
 10
0.0
 20
0.0
 30
0.0
 11
-1.0
 21
0.0
 31
0.0
  0
ENDBLK
  5
5A0
  8
0
 62
    30
  0
BLOCK
  8
0
 62
    30
  2
_BOXBLANK
 70
     0
 10
0.0
 20
0.0
 30
0.0
  3
_BOXBLANK
  1

  0
LINE
  5
5A3
  8
0
  6
BYBLOCK
 62
     0
 10
-0.5
 20
-0.5
 30
0.0
 11
0.5
 21
-0.5
 31
0.0
  0
LINE
  5
5A4
  8
0
  6
BYBLOCK
 62
     0
 10
0.5
 20
-0.5
 30
0.0
 11
0.5
 21
0.5
 31
0.0
  0
LINE
  5
5A5
  8
0
  6
BYBLOCK
 62
     0
 10
0.5
 20
0.5
 30
0.0
 11
-0.5
 21
0.5
 31
0.0
  0
LINE
  5
5A6
  8
0
  6
BYBLOCK
 62
     0
 10
-0.5
 20
0.5
 30
0.0
 11
-0.5
 21
-0.5
 31
0.0
  0
LINE
  5
5A7
  8
0
  6
BYBLOCK
 62
     0
 10
-0.5
 20
0.0
 30
0.0
 11
-1.0
 21
0.0
 31
0.0
  0
ENDBLK
  5
5A8
  8
0
 62
    30
  0
BLOCK
  8
0
 62
    30
  2
*D7
 70
     1
 10
0.0
 20
0.0
 30
0.0
  3
*D7
  1

  0
LINE
  5
5AB
  8
SIZE
  6
CONTINUOUS
 10
207.999999
 20
-340.0
 30
0.0
 11
207.99999899999969
 21
-862.85560727268785
 31
0.0
  0
LINE
  5
5AC
  8
SIZE
  6
CONTINUOUS
 10
-0.0000010000000012
 20
-720.0
 30
0.0
 11
-0.00000100000001
 21
-862.85560727268785
 31
0.0
  0
LINE
  5
5AD
  8
SIZE
  6
CONTINUOUS
 10
207.99999899999969
 20
-842.85560727268785
 30
0.0
 11
-0.0000010000000087
 21
-842.85560727268785
 31
0.0
  0
TEXT
  5
5AE
  8
NOTE
  6
CONTINUOUS
 10
29.942856142857131
 20
-817.85560727268785
 30
0.0
 40
64.0
  1
208
 41
0.9
  0
POINT
  5
5AF
  8
DEFPOINTS
  6
CONTINUOUS
 62
     0
 10
207.999999
 20
-320.0
 30
0.0
  0
POINT
  5
5B0
  8
DEFPOINTS
  6
CONTINUOUS
 62
     0
 10
-0.000001
 20
-700.0
 30
0.0
  0
POINT
  5
5B1
  8
DEFPOINTS
  6
CONTINUOUS
 62
     0
 10
-0.0000010000000087
 20
-842.85560727268785
 30
0.0
  0
ENDBLK
  5
5B2
  8
0
 62
    30
  0
ENDSEC
  0
SECTION
  2
ENTITIES
  0
LINE
  5
5B3
  8
NOTE
  6
CONTINUOUS
 62
     4
 10
546.03808440495141
 20
54.885682657203681
 30
0.0
 11
254.999999
 21
-300.0
 31
0.0
  0
LINE
  5
5B4
  8
NOTE
  6
CONTINUOUS
 62
     4
 10
296.78580935805059
 20
-275.28506022331538
 30
0.0
 11
254.999999
 21
-300.0
 31
0.0
  0
LINE
  5
5B5
  8
NOTE
  6
CONTINUOUS
 62
     4
 10
254.999999
 20
-300.0
 30
0.0
 11
270.84356416030801
 21
-259.88789078951231
 31
0.0
  0
LINE
  5
5B6
  8
NOTE
  6
CONTINUOUS
 62
     4
 10
-3.7037589999999989
 20
-320.17184199999991
 30
0.0
 11
-0.000001
 21
-360.0
 31
0.0
  0
LINE
  5
5B7
  8
NOTE
  6
CONTINUOUS
 62
     4
 10
-0.000001
 20
-360.0
 30
0.0
 11
-23.121628999999999
 21
-327.35968300000002
 31
0.0
  0
LINE
  5
5B8
  8
NOTE
  6
CONTINUOUS
 62
     4
 10
-0.000001
 20
-360.0
 30
0.0
 11
-59.866495999999991
 21
-205.96904900000001
 31
0.0
  0
LINE
  5
5B9
  8
NOTE
  6
CONTINUOUS
 62
     4
 10
-59.866495999999991
 20
-205.96904900000001
 30
0.0
 11
-324.31849899999992
 21
-205.96904900000001
 31
0.0
  0
TEXT
  5
5BA
  8
NOTE
  6
CONTINUOUS
 62
     4
 10
-309.72952199999992
 20
-184.05081699999991
 30
0.0
 40
64.0
  1
4-φ8
 41
0.9
  0
POINT
  5
5BB
  8
ARRANGE
  6
CONTINUOUS
 62
     1
 10
0.0
 20
0.0
 30
0.0
  0
LINE
  5
5BC
  8
DETAIL
  6
CONTINUOUS
 62
     5
 10
219.999999
 20
-285.0
 30
0.0
 11
69.999999000000003
 21
-285.0
 31
0.0
  0
TEXT
  5
5BD
  8
NOTE
  6
CONTINUOUS
 62
     4
 10
584.94465859108175
 20
74.331342971789127
 30
0.0
 40
64.0
  1
AH 2×2-φ25
 41
0.9
  0
LINE
  5
5BE
  8
DETAIL
  6
CONTINOUS
 62
     5
 10
369.999999
 20
-700.0
 30
0.0
 11
369.999999
 21
-300.0
 31
0.0
  0
LINE
  5
5BF
  8
BASIS
  6
DASHDOT
 62
     6
 10
144.999999
 20
-320.65042799999992
 30
0.0
 11
144.999999
 21
-209.12141800000001
 31
0.0
  0
LINE
  5
5C0
  8
DETAIL
  6
CONTINOUS
 62
     5
 10
344.999999
 20
-300.0
 30
0.0
 11
344.999999
 21
0.0
 31
0.0
  0
LINE
  5
5C1
  8
DETAIL
  6
CONTINOUS
 62
     5
 10
399.999999
 20
-300.0
 30
0.0
 11
399.999999
 21
0.0
 31
0.0
  0
LINE
  5
5C2
  8
DETAIL
  6
CONTINOUS
 62
     5
 10
399.999999
 20
0.0
 30
0.0
 11
344.999999
 21
0.0
 31
0.0
  0
LINE
  5
5C3
  8
DETAIL
  6
CONTINOUS
 62
     5
 10
464.35512499999987
 20
-300.0
 30
0.0
 11
-0.000001
 21
-300.0
 31
0.0
  0
LINE
  5
5C4
  8
DETAIL
  6
CONTINOUS
 62
     5
 10
-0.000001
 20
-700.0
 30
0.0
 11
372.95429100000001
 21
-700.0
 31
0.0
  0
LINE
  5
5C5
  8
DETAIL
  6
CONTINOUS
 62
     5
 10
-0.000001
 20
-700.0
 30
0.0
 11
-0.000001
 21
-300.0
 31
0.0
  0
ARC
  5
5C6
  8
DETAIL
  6
CONTINOUS
 62
     5
 10
384.55407599999972
 20
-49.0
 30
0.0
 40
650.0
 50
271.3616449999999
 51
291.64304800000002
  0
LINE
  5
5C7
  8
DETAIL
  6
CONTINOUS
 62
     5
 10
646.21892700000001
 20
-559.31670099999997
 30
0.0
 11
480.20377699999989
 21
-311.41966899999989
 31
0.0
  0
LINE
  5
5C8
  8
DETAIL
  6
CONTINOUS
 62
     5
 10
633.84268699999996
 20
-642.44387500000005
 30
0.0
 11
649.999999
 21
-582.14396500000021
 31
0.0
  0
ARC
  5
5C9
  8
DETAIL
  6
CONTINOUS
 62
     5
 10
456.93892599999998
 20
-327.0
 30
0.0
 40
28.0
 50
33.809981999999998
 51
74.641114000000002
  0
ARC
  5
5CA
  8
DETAIL
  6
CONTINOUS
 62
     5
 10
622.95407599999987
 20
-574.89703199999985
 30
0.0
 40
28.0
 50
345.0
 51
33.809981999999998
  0
ARC
  5
5CB
  8
DETAIL
  6
CONTINOUS
 62
     5
 10
618.3878739999999
 20
-638.30277000000001
 30
0.0
 40
16.0
 50
291.64304800000002
 51
345.0
  0
LINE
  5
5CC
  8
DETAIL
  6
CONTINUOUS
 62
     5
 10
55.499590000000012
 20
-297.0
 30
0.0
 11
55.499590000000012
 21
-300.0
 31
0.0
  0
ARC
  5
5CD
  8
DETAIL
  6
CONTINUOUS
 62
     5
 10
232.9995899999999
 20
-296.0
 30
0.0
 40
1.0
 50
0.0
 51
90.0
  0
LINE
  5
5CE
  8
DETAIL
  6
CONTINUOUS
 62
     5
 10
218.9995899999999
 20
-245.0
 30
0.0
 11
70.999589999999998
 21
-245.0
 31
0.0
  0
LINE
  5
5CF
  8
DETAIL
  6
CONTINUOUS
 62
     5
 10
55.499590000000012
 20
-297.0
 30
0.0
 11
55.499590000000012
 21
-296.0
 31
0.0
  0
LINE
  5
5D0
  8
DETAIL
  6
CONTINUOUS
 62
     5
 10
56.499589999999991
 20
-295.0
 30
0.0
 11
223.714664
 21
-295.0
 31
0.0
  0
ARC
  5
5D1
  8
DETAIL
  6
CONTINUOUS
 62
     5
 10
56.499589999999991
 20
-296.0
 30
0.0
 40
1.0
 50
90.0
 51
180.0
  0
LINE
  5
5D2
  8
DETAIL
  6
CONTINUOUS
 62
     5
 10
67.999589999999998
 20
-289.39999999999992
 30
0.0
 11
67.999589999999998
 21
-286.64705900000001
 31
0.0
  0
LINE
  5
5D3
  8
DETAIL
  6
CONTINUOUS
 62
     5
 10
70.999589999999998
 20
-283.97646999999989
 30
0.0
 11
70.999589999999998
 21
-245.0
 31
0.0
  0
LINE
  5
5D4
  8
DETAIL
  6
CONTINUOUS
 62
     5
 10
233.9995899999999
 20
-300.0
 30
0.0
 11
233.9995899999999
 21
-296.0
 31
0.0
  0
LINE
  5
5D5
  8
DETAIL
  6
CONTINUOUS
 62
     5
 10
223.714664
 20
-295.0
 30
0.0
 11
232.9995899999999
 21
-295.0
 31
0.0
  0
ARC
  5
5D6
  8
DETAIL
  6
CONTINUOUS
 62
     5
 10
69.999589999999998
 20
-283.97646999999989
 30
0.0
 40
1.0
 50
277.15266899999989
 51
0.0
  0
ARC
  5
5D7
  8
DETAIL
  6
CONTINUOUS
 62
     5
 10
69.599590000000006
 20
-286.64705900000001
 30
0.0
 40
1.6000000000000001
 50
97.152669000000003
 51
180.0
  0
LINE
  5
5D8
  8
DETAIL
  6
CONTINUOUS
 62
     5
 10
70.124104000000003
 20
-284.96868799999982
 30
0.0
 11
69.400368999999984
 21
-285.05950999999982
 31
0.0
  0
ARC
  5
5D9
  8
DETAIL
  6
CONTINUOUS
 62
     5
 10
57.999590000000012
 20
-289.39999999999992
 30
0.0
 40
10.0
 50
325.94420200000002
 51
0.0
  0
LINE
  5
5DA
  8
DETAIL
  6
CONTINUOUS
 62
     5
 10
218.9995899999999
 20
-283.97646999999989
 30
0.0
 11
218.9995899999999
 21
-245.0
 31
0.0
  0
LINE
  5
5DB
  8
DETAIL
  6
CONTINUOUS
 62
     5
 10
219.875077
 20
-284.96868799999982
 30
0.0
 11
220.59881200000001
 21
-285.05950999999982
 31
0.0
  0
ARC
  5
5DC
  8
DETAIL
  6
CONTINUOUS
 62
     5
 10
219.9995899999999
 20
-283.97646999999989
 30
0.0
 40
1.0
 50
180.0
 51
262.84733099999988
  0
LINE
  5
5DD
  8
DETAIL
  6
CONTINUOUS
 62
     5
 10
221.9995899999999
 20
-289.39999999999992
 30
0.0
 11
221.9995899999999
 21
-286.64705900000001
 31
0.0
  0
ARC
  5
5DE
  8
DETAIL
  6
CONTINUOUS
 62
     5
 10
231.9995899999999
 20
-289.39999999999992
 30
0.0
 40
10.0
 50
180.0
 51
214.05579800000001
  0
ARC
  5
5DF
  8
DETAIL
  6
CONTINUOUS
 62
     5
 10
220.3995899999999
 20
-286.64705900000001
 30
0.0
 40
1.6000000000000001
 50
0.0
 51
82.847331000000025
  0
CIRCLE
  5
5E0
  8
ARRANGE
  6
CONTINUOUS
 62
     1
 10
0.0
 20
0.0
 30
0.0
 40
40.0
  0
LINE
  5
5E1
  8
NOTE
  6
CONTINUOUS
 62
     4
 10
-0.000001
 20
-380.0
 30
0.0
 11
-0.000001
 21
-340.0
 31
0.0
  0
LINE
  5
5E2
  8
NOTE
  6
CONTINUOUS
 62
     4
 10
19.999998999999981
 20
-360.0
 30
0.0
 11
-20.000001000000001
 21
-360.0
 31
0.0
  0
LINE
  5
5E3
  8
NOTE
  6
CONTINUOUS
 62
     4
 10
-0.000001
 20
-615.0
 30
0.0
 11
-0.000001
 21
-575.0
 31
0.0
  0
LINE
  5
5E4
  8
NOTE
  6
CONTINUOUS
 62
     4
 10
19.999998999999981
 20
-595.0
 30
0.0
 11
-20.000001000000001
 21
-595.0
 31
0.0
  0
LINE
  5
5E5
  8
NOTE
  6
CONTINUOUS
 62
     4
 10
254.999999
 20
-320.0
 30
0.0
 11
254.999999
 21
-280.0
 31
0.0
  0
LINE
  5
5E6
  8
NOTE
  6
CONTINUOUS
 62
     4
 10
274.999999
 20
-300.0
 30
0.0
 11
234.999999
 21
-300.0
 31
0.0
  0
LINE
  5
5E7
  8
NOTE
  6
CONTINUOUS
 62
     4
 10
289.99999899999989
 20
-320.0
 30
0.0
 11
289.99999899999989
 21
-280.0
 31
0.0
  0
LINE
  5
5E8
  8
NOTE
  6
CONTINUOUS
 62
     4
 10
309.999999
 20
-300.0
 30
0.0
 11
269.999999
 21
-300.0
 31
0.0
  0
LINE
  5
5E9
  8
NOTE
  6
CONTINUOUS
 62
     4
 10
289.99999899999989
 20
-320.0
 30
0.0
 11
289.99999899999989
 21
-280.0
 31
0.0
  0
LINE
  5
5EA
  8
NOTE
  6
CONTINUOUS
 62
     4
 10
309.999999
 20
-300.0
 30
0.0
 11
269.999999
 21
-300.0
 31
0.0
  0
CIRCLE
  5
5EB
  8
FIX
  6
CONTINUOUS
 62
    11
 10
-0.000001
 20
-360.0
 30
0.0
 40
4.0
  0
CIRCLE
  5
5EC
  8
FIX
  6
CONTINUOUS
 62
    11
 10
-0.000001
 20
-595.0
 30
0.0
 40
4.0
  0
CIRCLE
  5
5ED
  8
FIX
  6
CONTINUOUS
 62
    11
 10
289.99999899999989
 20
-300.0
 30
0.0
 40
12.5
  0
CIRCLE
  5
5EE
  8
FIX
  6
CONTINUOUS
 62
    11
 10
254.999999
 20
-300.0
 30
0.0
 40
12.5
  0
LINE
  5
5EF
  8
BASIS
  6
DASHDOT
 62
     6
 10
151.999999
 20
-313.65235699999999
 30
0.0
 11
151.999999
 21
-221.53725399999999
 31
0.0
  0
LINE
  5
5F0
  8
BASIS
  6
DASHDOT
 62
     6
 10
144.999999
 20
-320.65042799999992
 30
0.0
 11
144.999999
 21
-201.08692099999999
 31
0.0
  0
LINE
  5
5F1
  8
BASIS
  6
DASHDOT
 62
     6
 10
137.99999899999969
 20
-313.65235699999999
 30
0.0
 11
137.99999899999969
 21
-221.53725399999999
 31
0.0
  0
TEXT
  5
5F2
  8
NOTE
  6
CONTINUOUS
 62
     4
 10
-544.92370199999993
 20
66.962050000000005
 30
0.0
 40
64.0
  1
ダクト接続口可動寸法
 41
0.9
  0
TEXT
  5
5F3
  8
NOTE
  6
CONTINUOUS
 62
     4
 10
101.0496959999997
 20
-185.4648949999999
 30
0.0
 40
64.0
  1
EA
 41
0.9
  0
LINE
  5
5F4
  8
DETAIL
  6
CONTINUOUS
 62
     5
 10
372.95429100000001
 20
-700.0
 30
0.0
 11
399.999999
 21
-698.81645400000002
 31
0.0
  0
LINE
  5
5F5
  8
SIZE
  6
CONTINUOUS
 62
    30
 10
419.999999
 20
0.0
 30
0.0
 11
892.30590500000005
 21
0.0
 31
0.0
  0
LINE
  5
5F6
  8
SIZE
  6
CONTINUOUS
 62
    30
 10
392.95429100000001
 20
-700.0
 30
0.0
 11
892.30590500000005
 21
-700.0
 31
0.0
  0
LINE
  5
5F7
  8
SIZE
  6
CONTINUOUS
 62
    30
 10
872.30590500000005
 20
-12.0
 30
0.0
 11
872.30590500000005
 21
-688.0
 31
0.0
  0
CIRCLE
  5
5F8
  8
SIZE
  6
CONTINUOUS
 62
    30
 10
872.30590500000005
 20
0.0
 30
0.0
 40
6.0
  0
LINE
  5
5F9
  8
SIZE
  6
CONTINUOUS
 62
    30
 10
872.30590500000005
 20
0.0
 30
0.0
 11
872.30590500000005
 21
-12.0
 31
0.0
  0
CIRCLE
  5
5FA
  8
SIZE
  6
CONTINUOUS
 62
    30
 10
872.30590500000005
 20
-700.0
 30
0.0
 40
6.0
  0
LINE
  5
5FB
  8
SIZE
  6
CONTINUOUS
 62
    30
 10
872.30590500000005
 20
-700.0
 30
0.0
 11
872.30590500000005
 21
-688.0
 31
0.0
  0
TEXT
  5
5FC
  8
SIZE
  6
CONTINUOUS
 62
    30
 10
847.30590499999983
 20
-424.05714285714288
 30
0.0
 40
64.0
  1
700
 50
90.0
 41
0.9
 72
     1
 11
847.30590499999983
 21
-350.0
 31
0.0
  0
LINE
  5
5FD
  8
SIZE
  6
CONTINUOUS
 62
    30
 10
-20.000001000000001
 20
-700.0
 30
0.0
 11
-410.18732499999987
 21
-700.0
 31
0.0
  0
LINE
  5
5FE
  8
SIZE
  6
CONTINUOUS
 62
    30
 10
-40.000000999999997
 20
-360.0
 30
0.0
 11
-410.18732499999987
 21
-360.0
 31
0.0
  0
LINE
  5
5FF
  8
SIZE
  6
CONTINUOUS
 62
    30
 10
-390.18732499999987
 20
-688.0
 30
0.0
 11
-390.18732499999987
 21
-372.0
 31
0.0
  0
CIRCLE
  5
600
  8
SIZE
  6
CONTINUOUS
 62
    30
 10
-390.18732499999987
 20
-700.0
 30
0.0
 40
6.0
  0
LINE
  5
601
  8
SIZE
  6
CONTINUOUS
 62
    30
 10
-390.18732499999987
 20
-700.0
 30
0.0
 11
-390.18732499999987
 21
-688.0
 31
0.0
  0
CIRCLE
  5
602
  8
SIZE
  6
CONTINUOUS
 62
    30
 10
-390.18732499999987
 20
-360.0
 30
0.0
 40
6.0
  0
LINE
  5
603
  8
SIZE
  6
CONTINUOUS
 62
    30
 10
-390.18732499999987
 20
-360.0
 30
0.0
 11
-390.18732499999987
 21
-372.0
 31
0.0
  0
TEXT
  5
604
  8
SIZE
  6
CONTINUOUS
 62
    30
 10
-415.18732499999987
 20
-604.05714285714282
 30
0.0
 40
64.0
  1
340
 50
90.0
 41
0.9
 72
     1
 11
-415.18732499999987
 21
-530.0
 31
0.0
  0
LINE
  5
605
  8
SIZE
  6
CONTINUOUS
 62
    30
 10
-20.000001000000001
 20
-700.0
 30
0.0
 11
-275.94392599999992
 21
-700.0
 31
0.0
  0
LINE
  5
606
  8
SIZE
  6
CONTINUOUS
 62
    30
 10
-40.000000999999997
 20
-595.0
 30
0.0
 11
-275.94392599999992
 21
-595.0
 31
0.0
  0
LINE
  5
607
  8
SIZE
  6
CONTINUOUS
 62
    30
 10
-255.94392599999989
 20
-688.0
 30
0.0
 11
-255.94392599999989
 21
-607.0
 31
0.0
  0
LINE
  5
608
  8
SIZE
  6
CONTINUOUS
 62
    30
 10
-255.94392599999989
 20
-906.56023799999991
 30
0.0
 11
-255.94392599999989
 21
-700.0
 31
0.0
  0
TEXT
  5
609
  8
SIZE
  6
CONTINUOUS
 62
    30
 10
-280.94392599999992
 20
-881.56023757142816
 30
0.0
 40
64.0
  1
105
 50
90.0
 41
0.9
 72
     1
 11
-280.94392599999992
 21
-812.98880899999972
 31
0.0
  0
CIRCLE
  5
60A
  8
SIZE
  6
CONTINUOUS
 62
    30
 10
-255.94392599999989
 20
-700.0
 30
0.0
 40
6.0
  0
LINE
  5
60B
  8
SIZE
  6
CONTINUOUS
 62
    30
 10
-255.94392599999989
 20
-700.0
 30
0.0
 11
-255.94392599999989
 21
-688.0
 31
0.0
  0
CIRCLE
  5
60C
  8
SIZE
  6
CONTINUOUS
 62
    30
 10
-255.94392599999989
 20
-595.0
 30
0.0
 40
6.0
  0
LINE
  5
60D
  8
SIZE
  6
CONTINUOUS
 62
    30
 10
-255.94392599999989
 20
-595.0
 30
0.0
 11
-255.94392599999989
 21
-607.0
 31
0.0
  0
LINE
  5
60E
  8
SIZE
  6
CONTINUOUS
 62
    30
 10
-20.000001000000001
 20
-700.0
 30
0.0
 11
-595.35245099999997
 21
-700.0
 31
0.0
  0
LINE
  5
60F
  8
SIZE
  6
CONTINUOUS
 62
    30
 10
-20.000001000000001
 20
-300.0
 30
0.0
 11
-595.35245099999997
 21
-300.0
 31
0.0
  0
LINE
  5
610
  8
SIZE
  6
CONTINUOUS
 62
    30
 10
-575.35245099999997
 20
-688.0
 30
0.0
 11
-575.35245099999997
 21
-312.0
 31
0.0
  0
CIRCLE
  5
611
  8
SIZE
  6
CONTINUOUS
 62
    30
 10
-575.35245099999997
 20
-700.0
 30
0.0
 40
6.0
  0
LINE
  5
612
  8
SIZE
  6
CONTINUOUS
 62
    30
 10
-575.35245099999997
 20
-700.0
 30
0.0
 11
-575.35245099999997
 21
-688.0
 31
0.0
  0
CIRCLE
  5
613
  8
SIZE
  6
CONTINUOUS
 62
    30
 10
-575.35245099999997
 20
-300.0
 30
0.0
 40
6.0
  0
LINE
  5
614
  8
SIZE
  6
CONTINUOUS
 62
    30
 10
-575.35245099999997
 20
-300.0
 30
0.0
 11
-575.35245099999997
 21
-312.0
 31
0.0
  0
TEXT
  5
615
  8
SIZE
  6
CONTINUOUS
 62
    30
 10
-600.35245099999997
 20
-574.05714285714282
 30
0.0
 40
64.0
  1
400
 50
90.0
 41
0.9
 72
     1
 11
-600.35245099999997
 21
-500.0
 31
0.0
  0
LINE
  5
616
  8
SIZE
  6
CONTINUOUS
 62
    30
 10
-20.000001000000001
 20
-300.0
 30
0.0
 11
-595.35245099999997
 21
-300.0
 31
0.0
  0
LINE
  5
617
  8
SIZE
  6
CONTINUOUS
 62
    30
 10
50.999590000000012
 20
-245.0
 30
0.0
 11
-595.35245099999997
 21
-245.0
 31
0.0
  0
LINE
  5
618
  8
SIZE
  6
CONTINUOUS
 62
    30
 10
-575.35245099999997
 20
-312.0
 30
0.0
 11
-575.35245099999997
 21
-324.0
 31
0.0
  0
LINE
  5
619
  8
SIZE
  6
CONTINUOUS
 62
    30
 10
-575.35245099999997
 20
-233.0
 30
0.0
 11
-575.35245099999997
 21
-221.0
 31
0.0
  0
LINE
  5
61A
  8
SIZE
  6
CONTINUOUS
 62
    30
 10
-575.35245099999997
 20
23.049503999999999
 30
0.0
 11
-575.35245099999997
 21
-245.0
 31
0.0
  0
TEXT
  5
61B
  8
SIZE
  6
CONTINUOUS
 62
    30
 10
-600.35245099999997
 20
-95.207639428571426
 30
0.0
 40
64.0
  1
55
 50
90.0
 41
0.9
 72
     1
 11
-600.35245099999997
 21
-48.579067999999999
 31
0.0
  0
LINE
  5
61C
  8
SIZE
  6
CONTINUOUS
 62
    30
 10
-575.35245099999997
 20
-300.0
 30
0.0
 11
-575.35245099999997
 21
-245.0
 31
0.0
  0
LINE
  5
61D
  8
SIZE
  6
CONTINUOUS
 62
    30
 10
-575.35245099999997
 20
-300.0
 30
0.0
 11
-575.35245099999997
 21
-245.0
 31
0.0
  0
CIRCLE
  5
61E
  8
SIZE
  6
CONTINUOUS
 62
    30
 10
-575.35245099999997
 20
-300.0
 30
0.0
 40
6.0
  0
LINE
  5
61F
  8
SIZE
  6
CONTINUOUS
 62
    30
 10
-575.35245099999997
 20
-300.0
 30
0.0
 11
-575.35245099999997
 21
-312.0
 31
0.0
  0
CIRCLE
  5
620
  8
SIZE
  6
CONTINUOUS
 62
    30
 10
-575.35245099999997
 20
-245.0
 30
0.0
 40
6.0
  0
LINE
  5
621
  8
SIZE
  6
CONTINUOUS
 62
    30
 10
-575.35245099999997
 20
-245.0
 30
0.0
 11
-575.35245099999997
 21
-233.0
 31
0.0
  0
LINE
  5
622
  8
SIZE
  6
CONTINUOUS
 62
    30
 10
-20.000001000000001
 20
-300.0
 30
0.0
 11
-471.40994999999992
 21
-300.0
 31
0.0
  0
LINE
  5
623
  8
SIZE
  6
CONTINUOUS
 62
    30
 10
49.999999000000003
 20
-285.0
 30
0.0
 11
-471.40994999999992
 21
-285.0
 31
0.0
  0
LINE
  5
624
  8
SIZE
  6
CONTINUOUS
 62
    30
 10
-451.40994999999992
 20
-312.0
 30
0.0
 11
-451.40994999999992
 21
-324.0
 31
0.0
  0
LINE
  5
625
  8
SIZE
  6
CONTINUOUS
 62
    30
 10
-451.40994999999992
 20
-273.0
 30
0.0
 11
-451.40994999999992
 21
-261.0
 31
0.0
  0
LINE
  5
626
  8
SIZE
  6
CONTINUOUS
 62
    30
 10
-451.40994999999992
 20
-113.435097
 30
0.0
 11
-451.40994999999992
 21
-285.0
 31
0.0
  0
TEXT
  5
627
  8
SIZE
  6
CONTINUOUS
 62
    30
 10
-476.40994999999992
 20
-220.72081114285709
 30
0.0
 40
64.0
  1
15
 50
90.0
 41
0.9
 72
     1
 11
-476.40994999999992
 21
-179.57795400000001
 31
0.0
  0
LINE
  5
628
  8
SIZE
  6
CONTINUOUS
 62
    30
 10
-451.40994999999992
 20
-300.0
 30
0.0
 11
-451.40994999999992
 21
-285.0
 31
0.0
  0
LINE
  5
629
  8
SIZE
  6
CONTINUOUS
 62
    30
 10
-451.40994999999992
 20
-300.0
 30
0.0
 11
-451.40994999999992
 21
-285.0
 31
0.0
  0
CIRCLE
  5
62A
  8
SIZE
  6
CONTINUOUS
 62
    30
 10
-451.40994999999992
 20
-300.0
 30
0.0
 40
6.0
  0
LINE
  5
62B
  8
SIZE
  6
CONTINUOUS
 62
    30
 10
-451.40994999999992
 20
-300.0
 30
0.0
 11
-451.40994999999992
 21
-312.0
 31
0.0
  0
CIRCLE
  5
62C
  8
SIZE
  6
CONTINUOUS
 62
    30
 10
-451.40994999999992
 20
-285.0
 30
0.0
 40
6.0
  0
LINE
  5
62D
  8
SIZE
  6
CONTINUOUS
 62
    30
 10
-451.40994999999992
 20
-285.0
 30
0.0
 11
-451.40994999999992
 21
-273.0
 31
0.0
  0
LINE
  5
62E
  8
SIZE
  6
CONTINUOUS
 62
    30
 10
-0.000001
 20
-280.0
 30
0.0
 11
-0.000001
 21
666.47351900000001
 31
0.0
  0
LINE
  5
62F
  8
SIZE
  6
CONTINUOUS
 62
    30
 10
399.999999
 20
20.0
 30
0.0
 11
399.999999
 21
666.47351900000001
 31
0.0
  0
LINE
  5
630
  8
SIZE
  6
CONTINUOUS
 62
    30
 10
-0.000001
 20
646.47351899999978
 30
0.0
 11
399.999999
 21
646.47351899999978
 31
0.0
  0
CIRCLE
  5
631
  8
SIZE
  6
CONTINUOUS
 62
    30
 10
-0.000001
 20
646.47351899999978
 30
0.0
 40
6.0
  0
CIRCLE
  5
632
  8
SIZE
  6
CONTINUOUS
 62
    30
 10
399.999999
 20
646.47351899999978
 30
0.0
 40
6.0
  0
TEXT
  5
633
  8
SIZE
  6
CONTINUOUS
 62
    30
 10
9.0971418571428444
 20
671.47351899999978
 30
0.0
 40
64.0
  1
400～450
 41
0.9
 72
     1
 11
199.999999
 21
671.47351899999978
 31
0.0
  0
TEXT
  5
634
  8
SIZE
  6
CONTINUOUS
 62
    30
 10
-115.860851
 20
553.53505199999995
 30
0.0
 40
64.0
  1
（350～375も可能）
 41
0.9
  0
LINE
  5
635
  8
SIZE
  6
CONTINUOUS
 62
    30
 10
-0.000001
 20
-280.0
 30
0.0
 11
-0.000001
 21
423.022783
 31
0.0
  0
LINE
  5
636
  8
SIZE
  6
CONTINUOUS
 62
    30
 10
144.999999
 20
-181.0869209999999
 30
0.0
 11
144.999999
 21
423.022783
 31
0.0
  0
LINE
  5
637
  8
SIZE
  6
CONTINUOUS
 62
    30
 10
-0.000001
 20
403.022783
 30
0.0
 11
144.999999
 21
403.022783
 31
0.0
  0
CIRCLE
  5
638
  8
SIZE
  6
CONTINUOUS
 62
    30
 10
-0.000001
 20
403.022783
 30
0.0
 40
6.0
  0
CIRCLE
  5
639
  8
SIZE
  6
CONTINUOUS
 62
    30
 10
144.999999
 20
403.022783
 30
0.0
 40
6.0
  0
TEXT
  5
63A
  8
SIZE
  6
CONTINUOUS
 62
    30
 10
3.9285704285714331
 20
428.022783
 30
0.0
 40
64.0
  1
145
 41
0.9
 72
     1
 11
72.499999000000003
 21
428.022783
 31
0.0
  0
LINE
  5
63B
  8
SIZE
  6
CONTINUOUS
 62
    30
 10
344.999999
 20
20.0
 30
0.0
 11
344.999999
 21
423.51239500000003
 31
0.0
  0
LINE
  5
63C
  8
SIZE
  6
CONTINUOUS
 62
    30
 10
399.999999
 20
20.0
 30
0.0
 11
399.999999
 21
423.51239500000003
 31
0.0
  0
LINE
  5
63D
  8
SIZE
  6
CONTINUOUS
 62
    30
 10
332.999999
 20
403.51239500000003
 30
0.0
 11
320.999999
 21
403.51239500000003
 31
0.0
  0
LINE
  5
63E
  8
SIZE
  6
CONTINUOUS
 62
    30
 10
411.999999
 20
403.51239500000003
 30
0.0
 11
423.999999
 21
403.51239500000003
 31
0.0
  0
LINE
  5
63F
  8
SIZE
  6
CONTINUOUS
 62
    30
 10
580.25835800000004
 20
403.51239500000003
 30
0.0
 11
399.999999
 21
403.51239500000003
 31
0.0
  0
TEXT
  5
640
  8
SIZE
  6
CONTINUOUS
 62
    30
 10
462.00121557142847
 20
428.51239500000003
 30
0.0
 40
64.0
  1
55
 41
0.9
 72
     1
 11
508.62978700000002
 21
428.51239500000003
 31
0.0
  0
LINE
  5
641
  8
SIZE
  6
CONTINUOUS
 62
    30
 10
344.999999
 20
403.51239500000003
 30
0.0
 11
399.999999
 21
403.51239500000003
 31
0.0
  0
LINE
  5
642
  8
SIZE
  6
CONTINUOUS
 62
    30
 10
344.999999
 20
403.51239500000003
 30
0.0
 11
399.999999
 21
403.51239500000003
 31
0.0
  0
CIRCLE
  5
643
  8
SIZE
  6
CONTINUOUS
 62
    30
 10
344.999999
 20
403.51239500000003
 30
0.0
 40
6.0
  0
LINE
  5
644
  8
SIZE
  6
CONTINUOUS
 62
    30
 10
344.999999
 20
403.51239500000003
 30
0.0
 11
332.999999
 21
403.51239500000003
 31
0.0
  0
CIRCLE
  5
645
  8
SIZE
  6
CONTINUOUS
 62
    30
 10
399.999999
 20
403.51239500000003
 30
0.0
 40
6.0
  0
LINE
  5
646
  8
SIZE
  6
CONTINUOUS
 62
    30
 10
399.999999
 20
403.51239500000003
 30
0.0
 11
411.999999
 21
403.51239500000003
 31
0.0
  0
LINE
  5
647
  8
SIZE
  6
CONTINUOUS
 62
    30
 10
70.999589999999998
 20
-225.0
 30
0.0
 11
70.999589999999998
 21
307.30102299999982
 31
0.0
  0
LINE
  5
648
  8
SIZE
  6
CONTINUOUS
 62
    30
 10
218.9995899999999
 20
-225.0
 30
0.0
 11
218.9995899999999
 21
307.30102299999982
 31
0.0
  0
LINE
  5
649
  8
SIZE
  6
CONTINUOUS
 62
    30
 10
82.999589999999984
 20
287.30102299999982
 30
0.0
 11
206.9995899999999
 21
287.30102299999982
 31
0.0
  0
LINE
  5
64A
  8
SIZE
  6
CONTINUOUS
 62
    30
 10
-233.879931
 20
287.30102299999982
 30
0.0
 11
70.999589999999998
 21
287.30102299999982
 31
0.0
  0
TEXT
  5
64B
  8
SIZE
  6
CONTINUOUS
 62
    30
 10
-223.1427885714285
 20
312.30102299999982
 30
0.0
 40
64.0
  1
φ148
 41
0.9
 72
     1
 11
-114.25136000000001
 21
312.30102299999982
 31
0.0
  0
CIRCLE
  5
64C
  8
SIZE
  6
CONTINUOUS
 62
    30
 10
70.999589999999998
 20
287.30102299999982
 30
0.0
 40
6.0
  0
LINE
  5
64D
  8
SIZE
  6
CONTINUOUS
 62
    30
 10
70.999589999999998
 20
287.30102299999982
 30
0.0
 11
82.999589999999984
 21
287.30102299999982
 31
0.0
  0
CIRCLE
  5
64E
  8
SIZE
  6
CONTINUOUS
 62
    30
 10
218.9995899999999
 20
287.30102299999982
 30
0.0
 40
6.0
  0
LINE
  5
64F
  8
SIZE
  6
CONTINUOUS
 62
    30
 10
218.9995899999999
 20
287.30102299999982
 30
0.0
 11
206.9995899999999
 21
287.30102299999982
 31
0.0
  0
LINE
  5
650
  8
SIZE
  6
CONTINUOUS
 62
    30
 10
137.99999899999969
 20
-201.5372539999999
 30
0.0
 11
137.99999899999969
 21
175.87384
 31
0.0
  0
LINE
  5
651
  8
SIZE
  6
CONTINUOUS
 62
    30
 10
151.999999
 20
-201.5372539999999
 30
0.0
 11
151.999999
 21
175.87384
 31
0.0
  0
LINE
  5
652
  8
SIZE
  6
CONTINUOUS
 62
    30
 10
125.999999
 20
155.87384
 30
0.0
 11
113.9999989999999
 21
155.87384
 31
0.0
  0
LINE
  5
653
  8
SIZE
  6
CONTINUOUS
 62
    30
 10
163.99999899999969
 20
155.87384
 30
0.0
 11
175.999999
 21
155.87384
 31
0.0
  0
LINE
  5
654
  8
SIZE
  6
CONTINUOUS
 62
    30
 10
-257.06537099999991
 20
155.87384
 30
0.0
 11
137.99999899999969
 21
155.87384
 31
0.0
  0
TEXT
  5
655
  8
SIZE
  6
CONTINUOUS
 62
    30
 10
-232.06537071428551
 20
180.87384
 30
0.0
 40
64.0
  1
14
 41
0.9
 72
     1
 11
-189.5510849999998
 21
180.87384
 31
0.0
  0
LINE
  5
656
  8
SIZE
  6
CONTINUOUS
 62
    30
 10
137.99999899999969
 20
155.87384
 30
0.0
 11
151.999999
 21
155.87384
 31
0.0
  0
LINE
  5
657
  8
SIZE
  6
CONTINUOUS
 62
    30
 10
137.99999899999969
 20
155.87384
 30
0.0
 11
151.999999
 21
155.87384
 31
0.0
  0
CIRCLE
  5
658
  8
SIZE
  6
CONTINUOUS
 62
    30
 10
137.99999899999969
 20
155.87384
 30
0.0
 40
6.0
  0
LINE
  5
659
  8
SIZE
  6
CONTINUOUS
 62
    30
 10
137.99999899999969
 20
155.87384
 30
0.0
 11
125.999999
 21
155.87384
 31
0.0
  0
CIRCLE
  5
65A
  8
SIZE
  6
CONTINUOUS
 62
    30
 10
151.999999
 20
155.87384
 30
0.0
 40
6.0
  0
LINE
  5
65B
  8
SIZE
  6
CONTINUOUS
 62
    30
 10
151.999999
 20
155.87384
 30
0.0
 11
163.99999899999969
 21
155.87384
 31
0.0
  0
LINE
  5
65C
  8
SIZE
  6
CONTINUOUS
 62
    30
 39
50.0
 10
-257.06537099999991
 20
155.87384
 30
0.0
 11
-561.19258300000001
 21
155.87384
 31
0.0
  0
LINE
  5
65D
  8
SIZE
  6
CONTINUOUS
 62
    30
 10
-0.000001
 20
-720.0
 30
0.0
 11
-0.000001
 21
-1367.888416616689
 31
0.0
  0
LINE
  5
65E
  8
SIZE
  6
CONTINUOUS
 62
    30
 10
649.999999
 20
-602.14396500000021
 30
0.0
 11
649.999999
 21
-1371.12936080036
 31
0.0
  0
LINE
  5
65F
  8
SIZE
  6
CONTINUOUS
 62
    30
 10
11.99999899999994
 20
-1338.6886739999991
 30
0.0
 11
637.99999899999989
 21
-1338.6886739999991
 31
0.0
  0
CIRCLE
  5
660
  8
SIZE
  6
CONTINUOUS
 62
    30
 10
-0.0000010000000543
 20
-1338.6886739999991
 30
0.0
 40
6.0
  0
LINE
  5
661
  8
SIZE
  6
CONTINUOUS
 62
    30
 10
-0.0000010000000543
 20
-1338.6886739999991
 30
0.0
 11
11.99999899999994
 21
-1338.6886739999991
 31
0.0
  0
CIRCLE
  5
662
  8
SIZE
  6
CONTINUOUS
 62
    30
 10
649.99999899999989
 20
-1338.6886739999991
 30
0.0
 40
6.0
  0
LINE
  5
663
  8
SIZE
  6
CONTINUOUS
 62
    30
 10
649.99999899999989
 20
-1338.6886739999991
 30
0.0
 11
637.99999899999989
 21
-1338.6886739999991
 31
0.0
  0
TEXT
  5
664
  8
SIZE
  6
CONTINUOUS
 62
    30
 10
250.94285614285701
 20
-1313.6886739999991
 30
0.0
 40
64.0
  1
650
 41
0.9
 72
     1
 11
324.99999899999989
 21
-1313.6886739999991
 31
0.0
  0
LINE
  5
665
  8
SIZE
  6
CONTINUOUS
 62
    30
 10
-0.000001
 20
-720.0
 30
0.0
 11
-0.000001
 21
-1094.512684
 31
0.0
  0
LINE
  5
666
  8
SIZE
  6
CONTINUOUS
 62
    30
 10
369.999999
 20
-720.0
 30
0.0
 11
369.999999
 21
-1231.7687992020419
 31
0.0
  0
LINE
  5
667
  8
SIZE
  6
CONTINUOUS
 62
    30
 10
11.99999899999994
 20
-1206.6006789999999
 30
0.0
 11
357.99999899999972
 21
-1206.6006789999999
 31
0.0
  0
CIRCLE
  5
668
  8
SIZE
  6
CONTINUOUS
 62
    30
 10
-0.0000010000000543
 20
-1206.6006789999999
 30
0.0
 40
6.0
  0
LINE
  5
669
  8
SIZE
  6
CONTINUOUS
 62
    30
 10
-0.0000010000000543
 20
-1206.6006789999999
 30
0.0
 11
11.99999899999994
 21
-1206.6006789999999
 31
0.0
  0
CIRCLE
  5
66A
  8
SIZE
  6
CONTINUOUS
 62
    30
 10
369.99999899999989
 20
-1206.6006789999999
 30
0.0
 40
6.0
  0
LINE
  5
66B
  8
SIZE
  6
CONTINUOUS
 62
    30
 10
369.99999899999989
 20
-1206.6006789999999
 30
0.0
 11
357.99999899999972
 21
-1206.6006789999999
 31
0.0
  0
TEXT
  5
66C
  8
SIZE
  6
CONTINUOUS
 62
    30
 10
110.9428561428569
 20
-1181.600678999999
 30
0.0
 40
64.0
  1
370
 41
0.9
 72
     1
 11
184.9999989999998
 21
-1181.600678999999
 31
0.0
  0
LINE
  5
66D
  8
SIZE
  6
CONTINUOUS
 62
    30
 10
-0.000001
 20
-720.0
 30
0.0
 11
-0.000001
 21
-972.60021600000005
 31
0.0
  0
LINE
  5
66E
  8
SIZE
  6
CONTINUOUS
 62
    30
 10
289.99999899999989
 20
-340.0
 30
0.0
 11
289.99999899999989
 21
-1111.853897918309
 31
0.0
  0
LINE
  5
66F
  8
SIZE
  6
CONTINUOUS
 62
    30
 10
11.99999899999994
 20
-1084.6882109999999
 30
0.0
 11
277.99999899999972
 21
-1084.6882109999999
 31
0.0
  0
CIRCLE
  5
670
  8
SIZE
  6
CONTINUOUS
 62
    30
 10
-0.0000010000000543
 20
-1084.6882109999999
 30
0.0
 40
6.0
  0
LINE
  5
671
  8
SIZE
  6
CONTINUOUS
 62
    30
 10
-0.0000010000000543
 20
-1084.6882109999999
 30
0.0
 11
11.99999899999994
 21
-1084.6882109999999
 31
0.0
  0
CIRCLE
  5
672
  8
SIZE
  6
CONTINUOUS
 62
    30
 10
289.99999899999989
 20
-1084.6882109999999
 30
0.0
 40
6.0
  0
LINE
  5
673
  8
SIZE
  6
CONTINUOUS
 62
    30
 10
289.99999899999989
 20
-1084.6882109999999
 30
0.0
 11
277.99999899999972
 21
-1084.6882109999999
 31
0.0
  0
TEXT
  5
674
  8
SIZE
  6
CONTINUOUS
 62
    30
 10
70.942856142856954
 20
-1059.6882109999981
 30
0.0
 40
64.0
  1
290
 41
0.9
 72
     1
 11
144.9999989999998
 21
-1059.6882109999981
 31
0.0
  0
LINE
  5
675
  8
SIZE
  6
CONTINUOUS
 62
    30
 10
-0.000001
 20
-720.0
 30
0.0
 11
-0.000001
 21
-853.72500500000001
 31
0.0
  0
LINE
  5
676
  8
SIZE
  6
CONTINUOUS
 62
    30
 10
254.999999
 20
-340.0
 30
0.0
 11
254.999999
 21
-995.17994081824679
 31
0.0
  0
LINE
  5
677
  8
SIZE
  6
CONTINUOUS
 62
    30
 10
11.99999899999994
 20
-965.81299999999965
 30
0.0
 11
242.9999989999998
 21
-965.81299999999965
 31
0.0
  0
CIRCLE
  5
678
  8
SIZE
  6
CONTINUOUS
 62
    30
 10
-0.0000010000000543
 20
-965.81299999999965
 30
0.0
 40
6.0
  0
LINE
  5
679
  8
SIZE
  6
CONTINUOUS
 62
    30
 10
-0.0000010000000543
 20
-965.81299999999965
 30
0.0
 11
11.99999899999994
 21
-965.81299999999965
 31
0.0
  0
CIRCLE
  5
67A
  8
SIZE
  6
CONTINUOUS
 62
    30
 10
254.9999989999998
 20
-965.81299999999965
 30
0.0
 40
6.0
  0
LINE
  5
67B
  8
SIZE
  6
CONTINUOUS
 62
    30
 10
254.9999989999998
 20
-965.81299999999965
 30
0.0
 11
242.9999989999998
 21
-965.81299999999965
 31
0.0
  0
TEXT
  5
67C
  8
SIZE
  6
CONTINUOUS
 62
    30
 10
53.44285614285706
 20
-940.81299999999965
 30
0.0
 40
64.0
  1
255
 41
0.9
 72
     1
 11
127.4999989999999
 21
-940.81299999999965
 31
0.0
  0
ARC
  5
680
  8
DETAIL
  6
CONTINUOUS
 62
     5
 10
649.5506059999999
 20
-597.34393599999999
 30
0.0
 40
0.5
 50
344.99985199999992
 51
358.16383400000001
  0
ARC
  5
681
  8
DETAIL
  6
CONTINUOUS
 62
     5
 10
646.08210699999995
 20
-628.4487069999999
 30
0.0
 40
0.5
 50
254.99985199999989
 51
323.96262999999999
  0
ARC
  5
682
  8
DETAIL
  6
CONTINUOUS
 62
     5
 10
649.70560899999998
 20
-614.92575499999975
 30
0.0
 40
0.5
 50
6.0370729999999986
 51
74.999852000000004
  0
ARC
  5
683
  8
DETAIL
  6
CONTINUOUS
 62
     5
 10
630.31375500000001
 20
-616.97660800000017
 30
0.0
 40
20.0
 50
323.96262999999999
 51
6.0370729999999986
  0
ARC
  5
684
  8
DETAIL
  6
CONTINUOUS
 62
     5
 10
640.39215299999978
 20
-631.52339600000005
 30
0.0
 40
0.5
 50
331.83587
 51
344.99985199999992
  0
LINE
  5
685
  8
DETAIL
  6
CONTINUOUS
 62
     5
 10
640.87511500000005
 20
-631.65280700000017
 30
0.0
 11
650.03356900000006
 21
-597.47334699999999
 31
0.0
  0
LINE
  5
686
  8
DETAIL
  6
CONTINUOUS
 62
     5
 10
641.89554599999985
 20
-627.84454800000003
 30
0.0
 11
645.95269699999994
 21
-628.93166900000006
 31
0.0
  0
LINE
  5
687
  8
DETAIL
  6
CONTINUOUS
 62
     5
 10
645.77786900000001
 20
-613.35567000000003
 30
0.0
 11
649.83501999999987
 21
-614.44279200000005
 31
0.0
  0
LINE
  5
688
  8
DETAIL
  6
CONTINUOUS
 62
     5
 10
648.73960899999975
 20
-590.33790599999975
 30
0.0
 11
647.8670639999998
 21
-590.10410599999977
 31
0.0
  0
ARC
  5
689
  8
DETAIL
  6
CONTINUOUS
 62
     5
 10
648.48078799999985
 20
-591.30383099999995
 30
0.0
 40
1.0
 50
12.64806499999999
 51
74.999852000000004
  0
ARC
  5
68A
  8
DETAIL
  6
CONTINUOUS
 62
     5
 10
625.0631860000002
 20
-596.55891599999995
 30
0.0
 40
25.0
 50
358.16383400000001
 51
12.64806499999999
  0
ARC
  5
68B
  8
DETAIL
  6
CONTINUOUS
 62
     5
 10
618.79297400000019
 20
-619.95942200000002
 30
0.0
 40
25.0
 50
317.35163899999992
 51
331.83587
  0
ARC
  5
68C
  8
DETAIL
  6
CONTINUOUS
 62
     5
 10
636.44558600000005
 20
-636.21935099999985
 30
0.0
 40
1.0
 50
254.99985199999989
 51
317.35163899999992
  0
LINE
  5
68D
  8
DETAIL
  6
CONTINUOUS
 62
     5
 10
635.31421899999975
 20
-636.95147599999984
 30
0.0
 11
636.18676500000004
 21
-637.18527599999982
 31
0.0
  0
LINE
  5
690
  8
NOTE
  6
CONTINUOUS
 62
     4
 39
50.0
 10
546.03808440495141
 20
54.885682657203681
 30
0.0
 11
1181.5121871844301
 21
54.885682657203681
 31
0.0
  0
LINE
  5
694
  8
SIZE
  6
CONTINUOUS
 10
-0.0000010000000012
 20
-720.0
 30
0.0
 11
-0.00000100000001
 21
-862.85560727268785
 31
0.0
  0
TEXT
  5
697
  8
ETC
  6
CONTINUOUS
 62
    61
 10
1224.3335200443189
 20
466.61535315625491
 30
0.0
 40
50.0
  1
V-6047KL6-BL
 41
0.9
  0
TEXT
  5
698
  8
ETC
  6
CONTINUOUS
 62
    61
 10
1221.766073422644
 20
541.04220803136286
 30
0.0
 40
50.0
  1
V-6037KL6-BL
 41
0.9
  0
TEXT
  5
699
  8
ETC
  6
CONTINUOUS
 62
    61
 10
1224.3335200443189
 20
620.60194831300635
 30
0.0
 40
50.0
  1
V-6027KL6-BL
 41
0.9
  0
TEXT
  5
69A
  8
ETC
  6
CONTINUOUS
 62
    61
 10
1087.6190079169551
 20
810.64886116730656
 30
0.0
 40
64.0
  1
V-6027KL6-BL_5
 41
0.9
  0
TEXT
  5
69B
  8
ETC
  6
CONTINUOUS
 62
    61
 10
1092.163714916956
 20
701.34623116730666
 30
0.0
 40
64.0
  1
換気扇
 41
0.9
  0
LINE
  5
69E
  8
OUTLINE
  6
CONTINOUS
 62
     3
 10
646.21892700000012
 20
-559.31670099999997
 30
0.0
 11
480.20377699999989
 21
-311.41966899999989
 31
0.0
  0
ARC
  5
69F
  8
OUTLINE
  6
CONTINOUS
 62
     3
 10
384.55407599999978
 20
-49.0
 30
0.0
 40
650.0
 50
271.3616449999999
 51
291.64304800000002
  0
LINE
  5
6A0
  8
OUTLINE
  6
CONTINOUS
 62
     3
 10
-0.0000010000001112
 20
-700.0
 30
0.0
 11
-0.0000010000001112
 21
-300.0
 31
0.0
  0
LINE
  5
6A1
  8
OUTLINE
  6
CONTINOUS
 62
     3
 10
-0.0000010000001112
 20
-700.0
 30
0.0
 11
372.95429100000001
 21
-700.0
 31
0.0
  0
LINE
  5
6A2
  8
OUTLINE
  6
CONTINUOUS
 62
     3
 10
372.95429100000001
 20
-700.0
 30
0.0
 11
399.99999899999989
 21
-698.81645400000002
 31
0.0
  0
LINE
  5
6A3
  8
OUTLINE
  6
CONTINOUS
 62
     3
 10
424.99999899999989
 20
-300.0
 30
0.0
 11
-0.0000010000001112
 21
-300.0
 31
0.0
  0
LINE
  5
6A4
  8
OUTLINE
  6
CONTINOUS
 62
     3
 10
399.99999899999989
 20
-300.0
 30
0.0
 11
399.99999899999989
 21
0.0
 31
0.0
  0
LINE
  5
6A5
  8
OUTLINE
  6
CONTINOUS
 62
     3
 10
344.99999899999978
 20
-300.0
 30
0.0
 11
344.99999899999978
 21
0.0
 31
0.0
  0
LINE
  5
6A6
  8
OUTLINE
  6
CONTINOUS
 62
     3
 10
464.35512499999982
 20
-300.0
 30
0.0
 11
399.99999899999989
 21
-300.0
 31
0.0
  0
ARC
  5
6A7
  8
OUTLINE
  6
CONTINOUS
 62
     3
 10
456.93892599999998
 20
-327.0
 30
0.0
 40
28.0
 50
33.809981999999998
 51
74.641114000000002
  0
LINE
  5
6A8
  8
OUTLINE
  6
CONTINOUS
 62
     3
 10
399.99999899999989
 20
0.0
 30
0.0
 11
344.99999899999978
 21
0.0
 31
0.0
  0
ARC
  5
6A9
  8
OUTLINE
  6
CONTINOUS
 62
     3
 10
622.95407599999976
 20
-574.89703199999985
 30
0.0
 40
28.0
 50
345.0
 51
33.809981999999998
  0
ARC
  5
6AA
  8
OUTLINE
  6
CONTINOUS
 62
     3
 10
618.38787399999978
 20
-638.30277000000001
 30
0.0
 40
16.0
 50
291.64304800000002
 51
345.0
  0
LINE
  5
6AB
  8
OUTLINE
  6
CONTINOUS
 62
     3
 10
633.84268700000007
 20
-642.44387500000005
 30
0.0
 11
649.99999899999989
 21
-582.14396500000021
 31
0.0
  0
ENDSEC
  0
EOF
