  0
SECTION
  2
HEADER
  9
$ACADVER
  1
AC1009
  9
$DWGCODEPAGE
  3
dos932
  9
$INSBASE
 10
0.0
 20
0.0
 30
0.0
  9
$EXTMIN
 10
-1107.586653923601
 20
-876.70897317201525
 30
-0.0015258207003583
  9
$EXTMAX
 10
1265.295422001851
 20
860.04639505413979
 30
0.0000000349246037
  9
$LIMMIN
 10
-2970.0
 20
-2100.0
  9
$LIMMAX
 10
2970.0
 20
2100.0
  9
$ORTHOMODE
 70
     1
  9
$REGENMODE
 70
     1
  9
$FILLMODE
 70
     1
  9
$QTEXTMODE
 70
     0
  9
$MIRRTEXT
 70
     0
  9
$LTSCALE
 40
20.0
  9
$ATTMODE
 70
     1
  9
$TEXTSIZE
 40
64.0
  9
$TRACEWID
 40
0.05
  9
$TEXTSTYLE
  7
STANDARD
  9
$CLAYER
  8
SIZE
  9
$CELTYPE
  6
CONTINUOUS
  9
$CECOLOR
 62
     7
  9
$DIMSCALE
 40
1.0
  9
$DIMASZ
 40
12.0
  9
$DIMEXO
 40
20.0
  9
$DIMDLI
 40
200.0
  9
$DIMRND
 40
0.0
  9
$DIMDLE
 40
0.0
  9
$DIMEXE
 40
20.0
  9
$DIMTP
 40
0.0
  9
$DIMTM
 40
0.0
  9
$DIMTXT
 40
64.0
  9
$DIMCEN
 40
0.09
  9
$DIMTSZ
 40
0.0
  9
$DIMTOL
 70
     0
  9
$DIMLIM
 70
     0
  9
$DIMTIH
 70
     0
  9
$DIMTOH
 70
     0
  9
$DIMSE1
 70
     0
  9
$DIMSE2
 70
     0
  9
$DIMTAD
 70
     1
  9
$DIMZIN
 70
     8
  9
$DIMBLK
  1

  9
$DIMASO
 70
     1
  9
$DIMSHO
 70
     0
  9
$DIMPOST
  1

  9
$DIMAPOST
  1

  9
$DIMALT
 70
     0
  9
$DIMALTD
 70
     2
  9
$DIMALTF
 40
25.399999999999999
  9
$DIMLFAC
 40
1.0
  9
$DIMTOFL
 70
     1
  9
$DIMTVP
 40
0.0
  9
$DIMTIX
 70
     1
  9
$DIMSOXD
 70
     0
  9
$DIMSAH
 70
     0
  9
$DIMBLK1
  1

  9
$DIMBLK2
  1

  9
$DIMSTYLE
  2
STANDARD
  9
$DIMCLRD
 70
     7
  9
$DIMCLRE
 70
     7
  9
$DIMCLRT
 70
     7
  9
$DIMTFAC
 40
1.0
  9
$DIMGAP
 40
25.0
  9
$LUNITS
 70
     2
  9
$LUPREC
 70
     4
  9
$SKETCHINC
 40
0.1
  9
$FILLETRAD
 40
3.0
  9
$AUNITS
 70
     1
  9
$AUPREC
 70
     3
  9
$MENU
  1
ACAD
  9
$ELEVATION
 40
0.0
  9
$PELEVATION
 40
0.0
  9
$THICKNESS
 40
0.0
  9
$LIMCHECK
 70
     0
  9
$CHAMFERA
 40
0.0
  9
$CHAMFERB
 40
0.0
  9
$SKPOLY
 70
     0
  9
$TDCREATE
 40
2453019.62301037
  9
$TDUPDATE
 40
2459025.588866296
  9
$TDINDWG
 40
1.7144025579
  9
$TDUSRTIMER
 40
1.7144025579
  9
$USRTIMER
 70
     1
  9
$ANGBASE
 50
0.0
  9
$ANGDIR
 70
     0
  9
$PDMODE
 70
     3
  9
$PDSIZE
 40
-2.0
  9
$PLINEWID
 40
0.0
  9
$SPLFRAME
 70
     0
  9
$SPLINETYPE
 70
     6
  9
$SPLINESEGS
 70
     8
  9
$SURFTAB1
 70
     6
  9
$SURFTAB2
 70
     6
  9
$SURFTYPE
 70
     6
  9
$SURFU
 70
     6
  9
$SURFV
 70
     6
  9
$UCSNAME
  2

  9
$UCSORG
 10
0.0
 20
0.0
 30
0.0
  9
$UCSXDIR
 10
1.0
 20
0.0
 30
0.0
  9
$UCSYDIR
 10
0.0
 20
1.0
 30
0.0
  9
$PUCSNAME
  2

  9
$PUCSORG
 10
0.0
 20
0.0
 30
0.0
  9
$PUCSXDIR
 10
1.0
 20
0.0
 30
0.0
  9
$PUCSYDIR
 10
0.0
 20
1.0
 30
0.0
  9
$USERI1
 70
     0
  9
$USERI2
 70
     0
  9
$USERI3
 70
     0
  9
$USERI4
 70
     0
  9
$USERI5
 70
     0
  9
$USERR1
 40
20.0
  9
$USERR2
 40
0.0
  9
$USERR3
 40
0.0
  9
$USERR4
 40
0.0
  9
$USERR5
 40
0.0
  9
$WORLDVIEW
 70
     1
  9
$SHADEDGE
 70
     3
  9
$SHADEDIF
 70
    70
  9
$TILEMODE
 70
     1
  9
$MAXACTVP
 70
    48
  9
$PINSBASE
 10
0.0
 20
0.0
 30
0.0
  9
$PLIMCHECK
 70
     0
  9
$PEXTMIN
 10
-100000000000000000000.0
 20
-100000000000000000000.0
 30
-100000000000000000000.0
  9
$PEXTMAX
 10
100000000000000000000.0
 20
100000000000000000000.0
 30
100000000000000000000.0
  9
$PLIMMIN
 10
0.0
 20
0.0
  9
$PLIMMAX
 10
12.0
 20
9.0
  9
$UNITMODE
 70
     0
  9
$VISRETAIN
 70
     0
  9
$PLINEGEN
 70
     0
  9
$PSLTSCALE
 70
     0
  9
$TREEDEPTH
 70
  3020
  9
$ATTDIA
 70
     0
  9
$ATTREQ
 70
     1
  9
$BLIPMODE
 70
     1
  9
$COORDS
 70
     1
  9
$DRAGMODE
 70
     2
  9
$OSMODE
 70
     0
  9
$HANDLING
 70
     0
  9
$HANDSEED
  5
EF84
  0
ENDSEC
  0
SECTION
  2
TABLES
  0
TABLE
  2
LTYPE
 70
     3
  0
LTYPE
  2
CONTINUOUS
 70
     0
  3
実線
 72
    65
 73
     0
 40
0.0
  0
LTYPE
  2
DASHDOT
 70
     0
  3
____ _ ____ _ ____ _ ____ _ ____ _ ____ _ ____
 72
    65
 73
     4
 40
5.5
 49
4.0
 49
-0.6
 49
0.3
 49
-0.6
  0
LTYPE
  2
DASHED
 70
     0
  3
-- -- -- -- -- -- -- -- -- -- -- -- -- -- --
 72
    65
 73
     2
 40
0.75
 49
0.5
 49
-0.25
  0
ENDTAB
  0
TABLE
  2
LAYER
 70
    12
  0
LAYER
  2
0
 70
     0
 62
     7
  6
CONTINUOUS
  0
LAYER
  2
BASIS
 70
     0
 62
     6
  6
DASHDOT
  0
LAYER
  2
OUTLINE
 70
     0
 62
     3
  6
CONTINUOUS
  0
LAYER
  2
DETAIL
 70
     0
 62
     5
  6
CONTINUOUS
  0
LAYER
  2
SIZE
 70
     0
 62
    30
  6
CONTINUOUS
  0
LAYER
  2
ARRANGE
 70
     0
 62
     1
  6
CONTINUOUS
  0
LAYER
  2
DEFPOINTS
 70
     0
 62
     7
  6
CONTINUOUS
  0
LAYER
  2
ETC
 70
     0
 62
    61
  6
CONTINUOUS
  0
LAYER
  2
FIX
 70
     0
 62
    11
  6
CONTINUOUS
  0
LAYER
  2
NOTE
 70
     0
 62
     4
  6
CONTINUOUS
  0
LAYER
  2
SERVICESPACE
 70
    64
 62
     2
  6
DASHDOT
  0
LAYER
  2
SYMBOLLINE
 70
    64
 62
    15
  6
CONTINUOUS
  0
ENDTAB
  0
TABLE
  2
STYLE
 70
     1
  0
STYLE
  2
STANDARD
 70
     0
 40
64.0
 41
0.9
 50
0.0
 71
     0
 42
64.0
  3
SIMPLEX.shx
  4
BIGFONT.shx
  0
ENDTAB
  0
TABLE
  2
APPID
 70
    19
  0
APPID
  2
ACAD
 70
     0
  0
APPID
  2
AUTOCAD_POSTSCRIPT_FIGURE
 70
     0
  0
APPID
  2
ACAD_EXEMPT_FROM_CAD_STANDARDS
 70
     0
  0
APPID
  2
ACAD_PSEXT
 70
     0
  0
APPID
  2
ACAUTHENVIRON
 70
     0
  0
APPID
  2
GENIUS_GENOENT_13
 70
     0
  0
APPID
  2
GENIUS_GENCFG_13
 70
     0
  0
APPID
  2
GENIUS_GENCFG0_13
 70
     0
  0
APPID
  2
GENIUS_GENCFG1_13
 70
     0
  0
APPID
  2
GENIUS_GENCFG2_13
 70
     0
  0
APPID
  2
GENIUS_GENCFG3_13
 70
     0
  0
APPID
  2
GENIUS_GENCFG4_13
 70
     0
  0
APPID
  2
GENIUS_GEVCFG0_13
 70
     0
  0
APPID
  2
CONTENTBLOCKICON
 70
     0
  0
APPID
  2
CONTENTBLOCKDESCRIPTION
 70
     0
  0
APPID
  2
ACAD_NAV_VCDISPLAY
 70
     0
  0
APPID
  2
ACAD_MLEADERVER
 70
     0
  0
APPID
  2
ACDBDYNAMICBLOCKTRUENAME
 70
     0
  0
APPID
  2
ACDBDYNAMICBLOCKGUID
 70
     0
  0
ENDTAB
  0
TABLE
  2
DIMSTYLE
 70
     1
  0
DIMSTYLE
  2
STANDARD
 70
     0
  3

  4

  5
_ORIGIN
  6

  7

 40
1.0
 41
12.0
 42
20.0
 43
200.0
 44
20.0
 45
0.0
 46
0.0
 47
0.0
 48
0.0
140
64.0
141
0.09
142
0.0
143
25.399999999999999
144
1.0
145
0.0
146
1.0
147
25.0
 71
     0
 72
     0
 73
     0
 74
     0
 75
     0
 76
     0
 77
     1
 78
     8
170
     0
171
     2
172
     1
173
     0
174
     1
175
     0
176
     7
177
     7
178
     7
  0
ENDTAB
  0
TABLE
  2
VIEW
 70
     1
  0
VIEW
  2
ALL
 70
     0
 40
4282.6198079999986
 10
0.0
 20
41.309904000000003
 41
5940.0
 11
0.0
 21
0.0
 31
1.0
 12
0.0
 22
0.0
 32
0.0
 42
50.0
 43
0.0
 44
0.0
 50
0.0
 71
     0
  0
ENDTAB
  0
TABLE
  2
UCS
 70
     0
  0
ENDTAB
  0
TABLE
  2
VPORT
 70
     1
  0
VPORT
  2
*ACTIVE
 70
     0
 10
0.0
 20
0.0
 11
1.0
 21
1.0
 12
78.854384039124739
 22
-8.3312890589377275
 13
0.0
 23
0.0
 14
1.0
 24
1.0
 15
0.0
 25
0.0
 16
0.0
 26
0.0
 36
1.0
 17
0.0
 27
0.0
 37
0.0
 40
1748.2697684574889
 41
1.747787610619469
 42
50.0
 43
0.0
 44
0.0
 50
0.0
 51
0.0
 71
     0
 72
  1000
 73
     1
 74
     3
 75
     0
 76
     0
 77
     0
 78
     0
  0
ENDTAB
  0
ENDSEC
  0
SECTION
  2
BLOCKS
  0
BLOCK
  8
0
  2
_ORIGIN
 70
     0
 10
0.0
 20
0.0
 30
0.0
  3
_ORIGIN
  1
_ORIGIN
  0
CIRCLE
  8
0
  6
CONTINUOUS
 62
     7
 10
0.0
 20
0.0
 30
0.0
 40
0.5
  0
LINE
  8
0
  6
CONTINUOUS
 62
     7
 10
0.0
 20
0.0
 30
0.0
 11
-1.0
 21
0.0
 31
0.0
  0
ENDBLK
  8
0
  0
ENDSEC
  0
SECTION
  2
ENTITIES
  0
TEXT
  8
ETC
  6
CONTINUOUS
 62
    61
 10
645.15844100000004
 20
681.86240499999985
 30
0.0
 40
64.0
  1
V-602K9-M_1
 41
0.9
  0
TEXT
  8
ETC
  6
CONTINUOUS
 62
    61
 10
640.9724470000001
 20
563.90709500000003
 30
0.0
 40
64.0
  1
換気扇
 41
0.9
  0
CIRCLE
  8
ARRANGE
  6
CONTINUOUS
 62
     1
 10
0.0
 20
0.0
 30
0.0
 40
40.0
  0
POINT
  8
ARRANGE
  6
CONTINUOUS
 62
     1
 10
0.0
 20
0.0
 30
0.0
  0
TEXT
  8
ETC
  6
CONTINUOUS
 62
    61
 10
691.57994899999994
 20
480.78542599999992
 30
0.0
 40
40.0
  1
V-602K9-M
 41
0.9
  0
LINE
  8
BASIS
  6
DASHDOT
 62
     6
 10
0.0
 20
-623.49793399999999
 30
0.0
 11
0.0
 21
21.725316000000021
 31
0.0
  0
TEXT
  8
NOTE
  6
CONTINUOUS
 62
     4
 10
-117.5866679999999
 20
605.04103499999997
 30
0.0
 40
64.0
  1
4-φ8取付用穴
 41
0.9
  0
TEXT
  8
NOTE
  6
CONTINUOUS
 62
     4
 10
-993.63880300000005
 20
-862.414266
 30
0.0
 40
64.0
  1
右・左配管の場合
 41
0.9
  0
LINE
  8
NOTE
  6
CONTINUOUS
 62
     4
 10
414.8330619999997
 20
588.52674200000001
 30
0.0
 11
-137.17541600000001
 21
588.52674200000001
 31
0.0
  0
LINE
  8
NOTE
  6
CONTINUOUS
 62
     4
 10
-430.65307899999971
 20
-876.63188200000013
 30
0.0
 11
-1005.218389
 21
-876.63188200000013
 31
0.0
  0
TEXT
  8
NOTE
  6
CONTINUOUS
 62
     4
 10
-1016.670552
 20
-732.56795899999997
 30
0.0
 40
64.0
  1
後・上配管の場合
 41
0.9
  0
LINE
  8
NOTE
  6
CONTINUOUS
 62
     4
 10
-456.02293500000002
 20
-746.67845899999998
 30
0.0
 11
-1029.979754
 21
-746.67845899999998
 31
0.0
  0
TEXT
  8
ETC
  6
CONTINUOUS
 62
    61
 10
691.57994899999994
 20
412.13511799999992
 30
0.0
 40
40.0
  1
V-602K9-BK-M
 41
0.9
  0
LINE
  8
OUTLINE
  6
CONTINUOUS
 62
     3
 10
-300.0
 20
0.0
 30
0.0
 11
300.0
 21
0.0
 31
0.0
  0
LINE
  8
OUTLINE
  6
CONTINUOUS
 62
     3
 10
-278.0
 20
-599.30192999999997
 30
0.0
 11
278.0
 21
-599.30192999999997
 31
0.0
  0
LINE
  8
OUTLINE
  6
CONTINUOUS
 62
     3
 10
-300.0
 20
-589.39999999999998
 30
0.0
 11
-300.0
 21
0.0
 31
0.0
  0
ARC
  8
OUTLINE
  6
CONTINUOUS
 62
     3
 10
-292.0
 20
-589.39999999999998
 30
0.0
 40
8.0
 50
180.0
 51
270.0
  0
ARC
  8
OUTLINE
  6
CONTINUOUS
 62
     3
 10
-278.0
 20
-597.30192999999997
 30
0.0
 40
2.0
 50
180.0
 51
270.0
  0
LINE
  8
OUTLINE
  6
CONTINUOUS
 62
     3
 10
-282.0
 20
-597.39999999999998
 30
0.0
 11
-292.0
 21
-597.39999999999998
 31
0.0
  0
ARC
  8
OUTLINE
  6
CONTINUOUS
 62
     3
 10
-282.0
 20
-595.39999999999998
 30
0.0
 40
2.0
 50
270.0
 51
0.0
  0
LINE
  8
NOTE
  6
CONTINUOUS
 62
     4
 10
-240.0
 20
-231.90000000000001
 30
0.0
 11
-240.0
 21
-311.89999999999998
 31
0.0
  0
LINE
  8
NOTE
  6
CONTINUOUS
 62
     4
 10
-262.5
 20
-289.39999999999998
 30
0.0
 11
-217.5
 21
-289.39999999999998
 31
0.0
  0
LINE
  8
NOTE
  6
CONTINUOUS
 62
     4
 10
-262.5
 20
-254.40000000000001
 30
0.0
 11
-217.5
 21
-254.40000000000001
 31
0.0
  0
LINE
  8
NOTE
  6
CONTINUOUS
 62
     4
 10
192.0002300000001
 20
-96.154300000000035
 30
0.0
 11
192.0002300000001
 21
-225.71798999999999
 31
0.0
  0
LINE
  8
NOTE
  6
CONTINUOUS
 62
     4
 10
174.53359
 20
-216.58437000000001
 30
0.0
 11
215.92734000000021
 21
-216.58437000000001
 31
0.0
  0
LINE
  8
NOTE
  6
CONTINUOUS
 62
     4
 10
-104.5
 20
-207.80000000000001
 30
0.0
 11
-104.5
 21
-231.0
 31
0.0
  0
LINE
  8
NOTE
  6
CONTINUOUS
 62
     4
 10
-116.09999999999989
 20
-219.40000000000001
 30
0.0
 11
-92.900000000000091
 21
-219.40000000000001
 31
0.0
  0
LINE
  8
NOTE
  6
CONTINUOUS
 62
     4
 10
104.5
 20
-207.80000000000001
 30
0.0
 11
104.5
 21
-231.0
 31
0.0
  0
LINE
  8
NOTE
  6
CONTINUOUS
 62
     4
 10
116.09999999999989
 20
-219.40000000000001
 30
0.0
 11
92.900000000000091
 21
-219.40000000000001
 31
0.0
  0
LINE
  8
OUTLINE
  6
CONTINUOUS
 62
     3
 10
300.0
 20
-589.39999999999998
 30
0.0
 11
300.0
 21
0.0
 31
0.0
  0
ARC
  8
OUTLINE
  6
CONTINUOUS
 62
     3
 10
278.0
 20
-597.30192999999997
 30
0.0
 40
2.0
 50
270.0
 51
0.0
  0
ARC
  8
OUTLINE
  6
CONTINUOUS
 62
     3
 10
282.0
 20
-595.39999999999998
 30
0.0
 40
2.0
 50
180.0
 51
270.0
  0
ARC
  8
OUTLINE
  6
CONTINUOUS
 62
     3
 10
292.0
 20
-589.39999999999998
 30
0.0
 40
8.0
 50
270.0
 51
0.0
  0
LINE
  8
OUTLINE
  6
CONTINUOUS
 62
     3
 10
282.0
 20
-597.39999999999998
 30
0.0
 11
292.0
 21
-597.39999999999998
 31
0.0
  0
LINE
  8
NOTE
  6
CONTINUOUS
 62
     4
 10
240.0
 20
-231.90000000000001
 30
0.0
 11
240.0
 21
-311.89999999999998
 31
0.0
  0
LINE
  8
NOTE
  6
CONTINUOUS
 62
     4
 10
262.5
 20
-289.39999999999998
 30
0.0
 11
217.5
 21
-289.39999999999998
 31
0.0
  0
LINE
  8
NOTE
  6
CONTINUOUS
 62
     4
 10
262.5
 20
-254.40000000000001
 30
0.0
 11
217.5
 21
-254.40000000000001
 31
0.0
  0
LINE
  8
BASIS
  6
DASHDOT
 62
     6
 10
-103.39494999999989
 20
-144.40000000000001
 30
0.0
 11
103.39494999999989
 21
-144.40000000000001
 31
0.0
  0
LINE
  8
NOTE
  6
CONTINUOUS
 62
     4
 10
-116.09999999999989
 20
-144.40000000000001
 30
0.0
 11
-92.900000000000091
 21
-144.40000000000001
 31
0.0
  0
LINE
  8
NOTE
  6
CONTINUOUS
 62
     4
 10
-104.5
 20
-132.80000000000001
 30
0.0
 11
-104.5
 21
-156.0
 31
0.0
  0
LINE
  8
NOTE
  6
CONTINUOUS
 62
     4
 10
-116.09999999999989
 20
-69.399999999999977
 30
0.0
 11
-92.900000000000091
 21
-69.399999999999977
 31
0.0
  0
LINE
  8
NOTE
  6
CONTINUOUS
 62
     4
 10
-104.5
 20
-57.799999999999947
 30
0.0
 11
-104.5
 21
-81.0
 31
0.0
  0
LINE
  8
NOTE
  6
CONTINUOUS
 62
     4
 10
20.230319999999669
 20
-137.40000000000001
 30
0.0
 11
-20.46262999999999
 21
-137.40000000000001
 31
0.0
  0
LINE
  8
NOTE
  6
CONTINUOUS
 62
     4
 10
20.230319999999669
 20
-151.40000000000001
 30
0.0
 11
-19.932520000000299
 21
-151.40000000000001
 31
0.0
  0
LINE
  8
NOTE
  6
CONTINUOUS
 62
     4
 10
-10.0
 20
-160.88465999999991
 30
0.0
 11
-10.0
 21
-121.74348000000001
 31
0.0
  0
LINE
  8
NOTE
  6
CONTINUOUS
 62
     4
 10
10.0
 20
-160.88465999999991
 30
0.0
 11
10.0
 21
-121.74348000000001
 31
0.0
  0
LINE
  8
NOTE
  6
CONTINUOUS
 62
     4
 10
116.09999999999989
 20
-69.399999999999977
 30
0.0
 11
92.900000000000091
 21
-69.399999999999977
 31
0.0
  0
LINE
  8
NOTE
  6
CONTINUOUS
 62
     4
 10
104.5
 20
-57.799999999999947
 30
0.0
 11
104.5
 21
-81.0
 31
0.0
  0
LINE
  8
SIZE
  6
CONTINUOUS
 62
    30
 10
-10.0
 20
-101.74348000000001
 30
0.0
 11
-10.0
 21
225.812197
 31
0.0
  0
LINE
  8
SIZE
  6
CONTINUOUS
 62
    30
 10
10.0
 20
-101.74348000000001
 30
0.0
 11
10.0
 21
225.812197
 31
0.0
  0
LINE
  8
SIZE
  6
CONTINUOUS
 62
    30
 10
-22.0
 20
205.812197
 30
0.0
 11
-34.0
 21
205.812197
 31
0.0
  0
LINE
  8
SIZE
  6
CONTINUOUS
 62
    30
 10
22.0
 20
205.812197
 30
0.0
 11
1101.8667250000001
 21
205.812197
 31
0.0
  0
LINE
  8
SIZE
  6
CONTINUOUS
 62
    30
 10
-10.0
 20
205.812197
 30
0.0
 11
10.0
 21
205.812197
 31
0.0
  0
CIRCLE
  8
SIZE
  6
CONTINUOUS
 62
    30
 10
-10.0
 20
205.812197
 30
0.0
 40
6.0
  0
LINE
  8
SIZE
  6
CONTINUOUS
 62
    30
 10
-10.0
 20
205.812197
 30
0.0
 11
-22.0
 21
205.812197
 31
0.0
  0
CIRCLE
  8
SIZE
  6
CONTINUOUS
 62
    30
 10
10.0
 20
205.812197
 30
0.0
 40
6.0
  0
LINE
  8
SIZE
  6
CONTINUOUS
 62
    30
 10
10.0
 20
205.812197
 30
0.0
 11
22.0
 21
205.812197
 31
0.0
  0
TEXT
  8
SIZE
  6
CONTINUOUS
 62
    30
 10
287.74672514285749
 20
230.812197
 30
0.0
 40
64.0
  1
20ダクト接続口可動寸法
 41
0.9
 72
     1
 11
680.52386800000022
 21
230.812197
 31
0.0
  0
POINT
  8
DEFPOINTS
  6
CONTINUOUS
 62
    30
 10
-10.0
 20
-121.74348000000001
 30
0.0
  0
POINT
  8
DEFPOINTS
  6
CONTINUOUS
 62
    30
 10
10.0
 20
-121.74348000000001
 30
0.0
  0
POINT
  8
DEFPOINTS
  6
CONTINUOUS
 62
    30
 10
10.0
 20
205.812197
 30
0.0
  0
LINE
  8
SIZE
  6
CONTINUOUS
 62
    30
 10
-74.0
 20
-124.40000000000001
 30
0.0
 11
-74.0
 21
341.14578200000011
 31
0.0
  0
LINE
  8
SIZE
  6
CONTINUOUS
 62
    30
 10
74.0
 20
-124.40000000000001
 30
0.0
 11
74.0
 21
341.14578200000011
 31
0.0
  0
LINE
  8
SIZE
  6
CONTINUOUS
 62
    30
 10
-62.0
 20
321.14578200000011
 30
0.0
 11
62.0
 21
321.14578200000011
 31
0.0
  0
CIRCLE
  8
SIZE
  6
CONTINUOUS
 62
    30
 10
-74.0
 20
321.14578200000011
 30
0.0
 40
6.0
  0
LINE
  8
SIZE
  6
CONTINUOUS
 62
    30
 10
-74.0
 20
321.14578200000011
 30
0.0
 11
-62.0
 21
321.14578200000011
 31
0.0
  0
CIRCLE
  8
SIZE
  6
CONTINUOUS
 62
    30
 10
74.0
 20
321.14578200000011
 30
0.0
 40
6.0
  0
LINE
  8
SIZE
  6
CONTINUOUS
 62
    30
 10
74.0
 20
321.14578200000011
 30
0.0
 11
62.0
 21
321.14578200000011
 31
0.0
  0
TEXT
  8
SIZE
  6
CONTINUOUS
 62
    30
 10
-108.89142857142861
 20
346.14578200000011
 30
0.0
 40
64.0
  1
φ148
 41
0.9
 72
     1
 11
0.0
 21
346.14578200000011
 31
0.0
  0
POINT
  8
DEFPOINTS
  6
CONTINUOUS
 62
    30
 10
-74.0
 20
-144.40000000000001
 30
0.0
  0
POINT
  8
DEFPOINTS
  6
CONTINUOUS
 62
    30
 10
74.0
 20
-144.40000000000001
 30
0.0
  0
POINT
  8
DEFPOINTS
  6
CONTINUOUS
 62
    30
 10
74.0
 20
321.14578200000011
 30
0.0
  0
LINE
  8
SIZE
  6
CONTINUOUS
 62
    30
 10
192.0002300000001
 20
-76.154300000000035
 30
0.0
 11
192.0002300000001
 21
110.478611
 31
0.0
  0
LINE
  8
SIZE
  6
CONTINUOUS
 62
    30
 10
300.0
 20
10.297050000000009
 30
0.0
 11
300.0
 21
110.478611
 31
0.0
  0
LINE
  8
SIZE
  6
CONTINUOUS
 62
    30
 10
204.0002300000001
 20
90.478611000000001
 30
0.0
 11
288.0
 21
90.478611000000001
 31
0.0
  0
LINE
  8
SIZE
  6
CONTINUOUS
 62
    30
 10
300.0
 20
90.478611000000001
 30
0.0
 11
499.14285699999982
 21
90.478611000000001
 31
0.0
  0
CIRCLE
  8
SIZE
  6
CONTINUOUS
 62
    30
 10
192.0002300000001
 20
90.478611000000001
 30
0.0
 40
6.0
  0
LINE
  8
SIZE
  6
CONTINUOUS
 62
    30
 10
192.0002300000001
 20
90.478611000000001
 30
0.0
 11
204.0002300000001
 21
90.478611000000001
 31
0.0
  0
CIRCLE
  8
SIZE
  6
CONTINUOUS
 62
    30
 10
300.0
 20
90.478611000000001
 30
0.0
 40
6.0
  0
LINE
  8
SIZE
  6
CONTINUOUS
 62
    30
 10
300.0
 20
90.478611000000001
 30
0.0
 11
288.0
 21
90.478611000000001
 31
0.0
  0
TEXT
  8
SIZE
  6
CONTINUOUS
 62
    30
 10
337.00000042857152
 20
115.478611
 30
0.0
 40
64.0
  1
108
 41
0.9
 72
     1
 11
405.57142900000008
 21
115.478611
 31
0.0
  0
POINT
  8
DEFPOINTS
  6
CONTINUOUS
 62
    30
 10
192.0002300000001
 20
-96.154300000000035
 30
0.0
  0
POINT
  8
DEFPOINTS
  6
CONTINUOUS
 62
    30
 10
300.0
 20
-9.7029499999999871
 30
0.0
  0
POINT
  8
DEFPOINTS
  6
CONTINUOUS
 62
    30
 10
300.0
 20
90.478611000000001
 30
0.0
  0
LINE
  8
SIZE
  6
CONTINUOUS
 62
    30
 10
-240.0
 20
33.355106999999983
 30
0.0
 11
-240.0
 21
479.81345400000009
 31
0.0
  0
LINE
  8
SIZE
  6
CONTINUOUS
 62
    30
 10
240.0
 20
33.355106999999983
 30
0.0
 11
240.0
 21
479.81345400000009
 31
0.0
  0
LINE
  8
SIZE
  6
CONTINUOUS
 62
    30
 10
-228.0
 20
459.81345400000009
 30
0.0
 11
228.0
 21
459.81345400000009
 31
0.0
  0
CIRCLE
  8
SIZE
  6
CONTINUOUS
 62
    30
 10
-240.0
 20
459.81345400000009
 30
0.0
 40
6.0
  0
LINE
  8
SIZE
  6
CONTINUOUS
 62
    30
 10
-240.0
 20
459.81345400000009
 30
0.0
 11
-228.0
 21
459.81345400000009
 31
0.0
  0
CIRCLE
  8
SIZE
  6
CONTINUOUS
 62
    30
 10
240.0
 20
459.81345400000009
 30
0.0
 40
6.0
  0
LINE
  8
SIZE
  6
CONTINUOUS
 62
    30
 10
240.0
 20
459.81345400000009
 30
0.0
 11
228.0
 21
459.81345400000009
 31
0.0
  0
TEXT
  8
SIZE
  6
CONTINUOUS
 62
    30
 10
-74.057142857142836
 20
484.81345400000009
 30
0.0
 40
64.0
  1
480
 41
0.9
 72
     1
 11
0.0
 21
484.81345400000009
 31
0.0
  0
POINT
  8
DEFPOINTS
  6
CONTINUOUS
 62
    30
 10
-240.0
 20
13.355106999999981
 30
0.0
  0
POINT
  8
DEFPOINTS
  6
CONTINUOUS
 62
    30
 10
240.0
 20
13.355106999999981
 30
0.0
  0
POINT
  8
DEFPOINTS
  6
CONTINUOUS
 62
    30
 10
240.0
 20
459.81345400000009
 30
0.0
  0
LINE
  8
SIZE
  6
CONTINUOUS
 62
    30
 10
-40.46262999999999
 20
-137.40000000000001
 30
0.0
 11
-420.8661360000001
 21
-137.40000000000001
 31
0.0
  0
LINE
  8
SIZE
  6
CONTINUOUS
 62
    30
 10
-40.46262999999999
 20
-151.40000000000001
 30
0.0
 11
-420.8661360000001
 21
-151.40000000000001
 31
0.0
  0
LINE
  8
SIZE
  6
CONTINUOUS
 62
    30
 10
-400.8661360000001
 20
-163.40000000000001
 30
0.0
 11
-400.8661360000001
 21
-175.40000000000001
 31
0.0
  0
LINE
  8
SIZE
  6
CONTINUOUS
 62
    30
 10
-400.8661360000001
 20
-125.40000000000001
 30
0.0
 11
-400.8661360000001
 21
859.82261500000004
 31
0.0
  0
LINE
  8
SIZE
  6
CONTINUOUS
 62
    30
 10
-400.8661360000001
 20
-151.40000000000001
 30
0.0
 11
-400.8661360000001
 21
-137.40000000000001
 31
0.0
  0
CIRCLE
  8
SIZE
  6
CONTINUOUS
 62
    30
 10
-400.8661360000001
 20
-151.40000000000001
 30
0.0
 40
6.0
  0
LINE
  8
SIZE
  6
CONTINUOUS
 62
    30
 10
-400.8661360000001
 20
-151.40000000000001
 30
0.0
 11
-400.8661360000001
 21
-163.40000000000001
 31
0.0
  0
CIRCLE
  8
SIZE
  6
CONTINUOUS
 62
    30
 10
-400.8661360000001
 20
-137.40000000000001
 30
0.0
 40
6.0
  0
LINE
  8
SIZE
  6
CONTINUOUS
 62
    30
 10
-400.8661360000001
 20
-137.40000000000001
 30
0.0
 11
-400.8661360000001
 21
-125.40000000000001
 31
0.0
  0
TEXT
  8
SIZE
  6
CONTINUOUS
 62
    30
 10
-425.8661360000001
 20
56.674044428571563
 30
0.0
 40
64.0
  1
14ダクト接続口可動寸法
 50
90.0
 41
0.9
 72
     1
 11
-425.8661360000001
 21
443.96547299999997
 31
0.0
  0
POINT
  8
DEFPOINTS
  6
CONTINUOUS
 62
    30
 10
-20.46262999999999
 20
-137.40000000000001
 30
0.0
  0
POINT
  8
DEFPOINTS
  6
CONTINUOUS
 62
    30
 10
-20.46262999999999
 20
-151.40000000000001
 30
0.0
  0
POINT
  8
DEFPOINTS
  6
CONTINUOUS
 62
    30
 10
-400.8661360000001
 20
-151.40000000000001
 30
0.0
  0
LINE
  8
SIZE
  6
CONTINUOUS
 62
    30
 10
-318.80000000000018
 20
0.6000000000000227
 30
0.0
 11
-674.56466799999998
 21
0.6000000000000227
 31
0.0
  0
LINE
  8
SIZE
  6
CONTINUOUS
 62
    30
 10
-282.5
 20
-254.40000000000001
 30
0.0
 11
-674.56466799999998
 21
-254.40000000000001
 31
0.0
  0
LINE
  8
SIZE
  6
CONTINUOUS
 62
    30
 10
-654.56466799999998
 20
-11.399999999999981
 30
0.0
 11
-654.56466799999998
 21
-242.40000000000001
 31
0.0
  0
CIRCLE
  8
SIZE
  6
CONTINUOUS
 62
    30
 10
-654.56466799999998
 20
0.6000000000000227
 30
0.0
 40
6.0
  0
LINE
  8
SIZE
  6
CONTINUOUS
 62
    30
 10
-654.56466799999998
 20
0.6000000000000227
 30
0.0
 11
-654.56466799999998
 21
-11.399999999999981
 31
0.0
  0
CIRCLE
  8
SIZE
  6
CONTINUOUS
 62
    30
 10
-654.56466799999998
 20
-254.40000000000001
 30
0.0
 40
6.0
  0
LINE
  8
SIZE
  6
CONTINUOUS
 62
    30
 10
-654.56466799999998
 20
-254.40000000000001
 30
0.0
 11
-654.56466799999998
 21
-242.40000000000001
 31
0.0
  0
TEXT
  8
SIZE
  6
CONTINUOUS
 62
    30
 10
-679.56466799999998
 20
-200.9571428571428
 30
0.0
 40
64.0
  1
255
 50
90.0
 41
0.9
 72
     1
 11
-679.56466799999998
 21
-126.90000000000001
 31
0.0
  0
POINT
  8
DEFPOINTS
  6
CONTINUOUS
 62
    30
 10
-262.5
 20
-254.40000000000001
 30
0.0
  0
POINT
  8
DEFPOINTS
  6
CONTINUOUS
 62
    30
 10
-654.56466799999998
 20
-254.40000000000001
 30
0.0
  0
LINE
  8
SIZE
  6
CONTINUOUS
 62
    30
 10
-318.80000000000018
 20
0.6000000000000227
 30
0.0
 11
-798.24270699999988
 21
0.6000000000000227
 31
0.0
  0
LINE
  8
SIZE
  6
CONTINUOUS
 62
    30
 10
-282.5
 20
-289.39999999999998
 30
0.0
 11
-798.24270699999988
 21
-289.39999999999998
 31
0.0
  0
LINE
  8
SIZE
  6
CONTINUOUS
 62
    30
 10
-778.24270699999988
 20
-11.399999999999981
 30
0.0
 11
-778.24270699999988
 21
-277.39999999999998
 31
0.0
  0
CIRCLE
  8
SIZE
  6
CONTINUOUS
 62
    30
 10
-778.24270699999988
 20
0.6000000000000227
 30
0.0
 40
6.0
  0
LINE
  8
SIZE
  6
CONTINUOUS
 62
    30
 10
-778.24270699999988
 20
0.6000000000000227
 30
0.0
 11
-778.24270699999988
 21
-11.399999999999981
 31
0.0
  0
CIRCLE
  8
SIZE
  6
CONTINUOUS
 62
    30
 10
-778.24270699999988
 20
-289.39999999999998
 30
0.0
 40
6.0
  0
LINE
  8
SIZE
  6
CONTINUOUS
 62
    30
 10
-778.24270699999988
 20
-289.39999999999998
 30
0.0
 11
-778.24270699999988
 21
-277.39999999999998
 31
0.0
  0
TEXT
  8
SIZE
  6
CONTINUOUS
 62
    30
 10
-803.24270699999988
 20
-218.4571428571428
 30
0.0
 40
64.0
  1
290
 50
90.0
 41
0.9
 72
     1
 11
-803.24270699999988
 21
-144.40000000000001
 31
0.0
  0
POINT
  8
DEFPOINTS
  6
CONTINUOUS
 62
    30
 10
-262.5
 20
-289.39999999999998
 30
0.0
  0
POINT
  8
DEFPOINTS
  6
CONTINUOUS
 62
    30
 10
-778.24270699999988
 20
-289.39999999999998
 30
0.0
  0
LINE
  8
SIZE
  6
CONTINUOUS
 62
    30
 10
-318.98995699999978
 20
0.5848700000000235
 30
0.0
 11
-1038.2427070000001
 21
0.5848700000000235
 31
0.0
  0
LINE
  8
SIZE
  6
CONTINUOUS
 62
    30
 10
-298.0
 20
-599.30192999999997
 30
0.0
 11
-1038.2427070000001
 21
-599.30192999999997
 31
0.0
  0
LINE
  8
SIZE
  6
CONTINUOUS
 62
    30
 10
-1018.242707
 20
-11.41512999999998
 30
0.0
 11
-1018.242707
 21
-587.30192999999997
 31
0.0
  0
CIRCLE
  8
SIZE
  6
CONTINUOUS
 62
    30
 10
-1018.242707
 20
0.5848700000000235
 30
0.0
 40
6.0
  0
LINE
  8
SIZE
  6
CONTINUOUS
 62
    30
 10
-1018.242707
 20
0.5848700000000235
 30
0.0
 11
-1018.242707
 21
-11.41512999999998
 31
0.0
  0
CIRCLE
  8
SIZE
  6
CONTINUOUS
 62
    30
 10
-1018.242707
 20
-599.30192999999997
 30
0.0
 40
6.0
  0
LINE
  8
SIZE
  6
CONTINUOUS
 62
    30
 10
-1018.242707
 20
-599.30192999999997
 30
0.0
 11
-1018.242707
 21
-587.30192999999997
 31
0.0
  0
TEXT
  8
SIZE
  6
CONTINUOUS
 62
    30
 10
-1043.2427070000001
 20
-373.41567285714279
 30
0.0
 40
64.0
  1
600
 50
90.0
 41
0.9
 72
     1
 11
-1043.2427070000001
 21
-299.35852999999997
 31
0.0
  0
POINT
  8
DEFPOINTS
  6
CONTINUOUS
 62
    30
 10
-278.0
 20
-599.30192999999997
 30
0.0
  0
POINT
  8
DEFPOINTS
  6
CONTINUOUS
 62
    30
 10
-1018.242707
 20
-599.30192999999997
 30
0.0
  0
LINE
  8
SIZE
  6
CONTINUOUS
 62
    30
 10
318.80000000000018
 20
0.6000000000000227
 30
0.0
 11
618.07183900000018
 21
0.6000000000000227
 31
0.0
  0
LINE
  8
SIZE
  6
CONTINUOUS
 62
    30
 10
235.92734000000021
 20
-216.58437000000001
 30
0.0
 11
618.07183900000018
 21
-216.58437000000001
 31
0.0
  0
LINE
  8
SIZE
  6
CONTINUOUS
 62
    30
 10
598.07183900000018
 20
-11.399999999999981
 30
0.0
 11
598.07183900000018
 21
-204.58437000000001
 31
0.0
  0
CIRCLE
  8
SIZE
  6
CONTINUOUS
 62
    30
 10
598.07183900000018
 20
0.6000000000000227
 30
0.0
 40
6.0
  0
LINE
  8
SIZE
  6
CONTINUOUS
 62
    30
 10
598.07183900000018
 20
0.6000000000000227
 30
0.0
 11
598.07183900000018
 21
-11.399999999999981
 31
0.0
  0
CIRCLE
  8
SIZE
  6
CONTINUOUS
 62
    30
 10
598.07183900000018
 20
-216.58437000000001
 30
0.0
 40
6.0
  0
LINE
  8
SIZE
  6
CONTINUOUS
 62
    30
 10
598.07183900000018
 20
-216.58437000000001
 30
0.0
 11
598.07183900000018
 21
-204.58437000000001
 31
0.0
  0
TEXT
  8
SIZE
  6
CONTINUOUS
 62
    30
 10
573.07183900000018
 20
-176.5636135714287
 30
0.0
 40
64.0
  1
217
 50
90.0
 41
0.9
 72
     1
 11
573.07183900000018
 21
-107.99218500000021
 31
0.0
  0
POINT
  8
DEFPOINTS
  6
CONTINUOUS
 62
    30
 10
298.80000000000018
 20
0.6000000000000227
 30
0.0
  0
POINT
  8
DEFPOINTS
  6
CONTINUOUS
 62
    30
 10
215.92734000000021
 20
-216.58437000000001
 30
0.0
  0
POINT
  8
DEFPOINTS
  6
CONTINUOUS
 62
    30
 10
598.07183900000018
 20
-216.58437000000001
 30
0.0
  0
TEXT
  8
NOTE
  6
CONTINUOUS
 62
     4
 10
404.26447100000001
 20
-748.22974299999987
 30
0.0
 40
64.0
  1
2×2-φ25天吊用穴
 41
0.9
  0
LINE
  8
NOTE
  6
CONTINUOUS
 62
     4
 10
1104.759474
 20
-764.74403600000005
 30
0.0
 11
384.67572200000001
 21
-764.74403600000005
 31
0.0
  0
TEXT
  8
NOTE
  6
CONTINUOUS
 62
     4
 10
-168.11981800000009
 20
725.87520900000004
 30
0.0
 40
64.0
  1
2-本体仮止穴
 41
0.9
  0
LINE
  8
NOTE
  6
CONTINUOUS
 62
     4
 10
310.38896999999997
 20
709.36091600000009
 30
0.0
 11
-187.7085670000001
 21
709.36091600000009
 31
0.0
  0
LINE
  8
NOTE
  6
CONTINUOUS
 62
     4
 10
-240.0
 20
13.355106999999981
 30
0.0
 11
-240.0
 21
-12.93694900000003
 31
0.0
  0
LINE
  8
NOTE
  6
CONTINUOUS
 62
     4
 10
240.0
 20
13.355106999999981
 30
0.0
 11
240.0
 21
-12.93694900000003
 31
0.0
  0
CIRCLE
  8
FIX
  6
CONTINUOUS
 62
    11
 10
-240.0
 20
0.0
 30
0.0
 40
4.0
  0
CIRCLE
  8
FIX
  6
CONTINUOUS
 62
    11
 10
240.0
 20
0.0
 30
0.0
 40
4.0
  0
LINE
  8
SIZE
  6
CONTINUOUS
 62
    30
 10
-300.0
 20
-609.39999999999998
 30
0.0
 11
-300.0
 21
-809.25377600000002
 31
0.0
  0
LINE
  8
SIZE
  6
CONTINUOUS
 62
    30
 10
300.0
 20
-609.39999999999998
 30
0.0
 11
300.0
 21
-809.25377600000002
 31
0.0
  0
LINE
  8
SIZE
  6
CONTINUOUS
 62
    30
 10
-288.0
 20
-789.25377600000002
 30
0.0
 11
288.0
 21
-789.25377600000002
 31
0.0
  0
CIRCLE
  8
SIZE
  6
CONTINUOUS
 62
    30
 10
-300.0
 20
-789.25377600000002
 30
0.0
 40
6.0
  0
LINE
  8
SIZE
  6
CONTINUOUS
 62
    30
 10
-300.0
 20
-789.25377600000002
 30
0.0
 11
-288.0
 21
-789.25377600000002
 31
0.0
  0
CIRCLE
  8
SIZE
  6
CONTINUOUS
 62
    30
 10
300.0
 20
-789.25377600000002
 30
0.0
 40
6.0
  0
LINE
  8
SIZE
  6
CONTINUOUS
 62
    30
 10
300.0
 20
-789.25377600000002
 30
0.0
 11
288.0
 21
-789.25377600000002
 31
0.0
  0
TEXT
  8
SIZE
  6
CONTINUOUS
 62
    30
 10
-74.05714285714285
 20
-764.25377600000002
 30
0.0
 40
64.0
  1
600
 41
0.9
 72
     1
 11
0.0
 21
-764.25377600000002
 31
0.0
  0
POINT
  8
DEFPOINTS
  6
CONTINUOUS
 62
    30
 10
-300.0
 20
-589.39999999999998
 30
0.0
  0
POINT
  8
DEFPOINTS
  6
CONTINUOUS
 62
    30
 10
300.0
 20
-589.39999999999998
 30
0.0
  0
POINT
  8
DEFPOINTS
  6
CONTINUOUS
 62
    30
 10
300.0
 20
-789.25377600000002
 30
0.0
  0
LINE
  8
SIZE
  6
CONTINUOUS
 62
    30
 10
-136.09999999999991
 20
-144.40000000000001
 30
0.0
 11
-554.05786799999987
 21
-144.40000000000001
 31
0.0
  0
LINE
  8
SIZE
  6
CONTINUOUS
 62
    30
 10
-318.80000000000018
 20
0.6000000000000227
 30
0.0
 11
-554.05786799999987
 21
0.6000000000000227
 31
0.0
  0
LINE
  8
SIZE
  6
CONTINUOUS
 62
    30
 10
-534.05786799999987
 20
-156.40000000000001
 30
0.0
 11
-534.05786799999987
 21
-168.40000000000001
 31
0.0
  0
LINE
  8
SIZE
  6
CONTINUOUS
 62
    30
 10
-534.05786799999987
 20
12.600000000000019
 30
0.0
 11
-534.05786799999987
 21
24.600000000000019
 31
0.0
  0
LINE
  8
SIZE
  6
CONTINUOUS
 62
    30
 10
-534.05786799999987
 20
-144.40000000000001
 30
0.0
 11
-534.05786799999987
 21
0.6000000000000227
 31
0.0
  0
CIRCLE
  8
SIZE
  6
CONTINUOUS
 62
    30
 10
-534.05786799999987
 20
-144.40000000000001
 30
0.0
 40
6.0
  0
LINE
  8
SIZE
  6
CONTINUOUS
 62
    30
 10
-534.05786799999987
 20
-144.40000000000001
 30
0.0
 11
-534.05786799999987
 21
-156.40000000000001
 31
0.0
  0
CIRCLE
  8
SIZE
  6
CONTINUOUS
 62
    30
 10
-534.05786799999987
 20
0.6000000000000227
 30
0.0
 40
6.0
  0
LINE
  8
SIZE
  6
CONTINUOUS
 62
    30
 10
-534.05786799999987
 20
0.6000000000000227
 30
0.0
 11
-534.05786799999987
 21
12.600000000000019
 31
0.0
  0
TEXT
  8
SIZE
  6
CONTINUOUS
 62
    30
 10
-559.05786799999987
 20
-140.4714285714285
 30
0.0
 40
64.0
  1
145
 50
90.0
 41
0.9
 72
     1
 11
-559.05786799999987
 21
-71.899999999999977
 31
0.0
  0
POINT
  8
DEFPOINTS
  6
CONTINUOUS
 62
    30
 10
-116.09999999999989
 20
-144.40000000000001
 30
0.0
  0
POINT
  8
DEFPOINTS
  6
CONTINUOUS
 62
    30
 10
-298.80000000000018
 20
0.6000000000000227
 30
0.0
  0
POINT
  8
DEFPOINTS
  6
CONTINUOUS
 62
    30
 10
-534.05786799999987
 20
0.6000000000000227
 30
0.0
  0
LINE
  8
SIZE
  6
CONTINUOUS
 62
    30
 10
-318.98995699999978
 20
0.5848700000000235
 30
0.0
 11
-918.24270699999988
 21
0.5848700000000235
 31
0.0
  0
LINE
  8
SIZE
  6
CONTINUOUS
 62
    30
 10
-318.80000000000018
 20
-399.39999999999998
 30
0.0
 11
-918.24270699999988
 21
-399.39999999999998
 31
0.0
  0
LINE
  8
SIZE
  6
CONTINUOUS
 62
    30
 10
-898.24270699999988
 20
-387.39999999999998
 30
0.0
 11
-898.24270699999988
 21
-11.41512999999998
 31
0.0
  0
LINE
  8
SIZE
  6
CONTINUOUS
 62
    30
 10
-898.24270699999988
 20
0.5848700000000235
 30
0.0
 11
-898.24270699999988
 21
561.23629800000003
 31
0.0
  0
CIRCLE
  8
SIZE
  6
CONTINUOUS
 62
    30
 10
-898.24270699999988
 20
-399.39999999999998
 30
0.0
 40
6.0
  0
LINE
  8
SIZE
  6
CONTINUOUS
 62
    30
 10
-898.24270699999988
 20
-399.39999999999998
 30
0.0
 11
-898.24270699999988
 21
-387.39999999999998
 31
0.0
  0
CIRCLE
  8
SIZE
  6
CONTINUOUS
 62
    30
 10
-898.24270699999988
 20
0.5848700000000235
 30
0.0
 40
6.0
  0
LINE
  8
SIZE
  6
CONTINUOUS
 62
    30
 10
-898.24270699999988
 20
0.5848700000000235
 30
0.0
 11
-898.24270699999988
 21
-11.41512999999998
 31
0.0
  0
TEXT
  8
SIZE
  6
CONTINUOUS
 62
    30
 10
-923.24270699999988
 20
28.259155428571429
 30
0.0
 40
64.0
  1
（350～400）
 50
90.0
 41
0.9
 72
     1
 11
-923.24270699999988
 21
286.91058399999997
 31
0.0
  0
POINT
  8
DEFPOINTS
  6
CONTINUOUS
 62
    30
 10
-298.98995699999978
 20
0.5848700000000235
 30
0.0
  0
POINT
  8
DEFPOINTS
  6
CONTINUOUS
 62
    30
 10
-298.80000000000018
 20
-349.39999999999998
 30
0.0
  0
POINT
  8
DEFPOINTS
  6
CONTINUOUS
 62
    30
 10
-898.24270699999988
 20
-399.39999999999998
 30
0.0
  0
LINE
  8
SIZE
  6
CONTINUOUS
 62
    30
 10
316.42136900000008
 20
-399.39999999999998
 30
0.0
 11
468.37599099999989
 21
-399.39999999999998
 31
0.0
  0
LINE
  8
SIZE
  6
CONTINUOUS
 62
    30
 10
320.0
 20
-344.39999999999998
 30
0.0
 11
468.37599099999989
 21
-344.39999999999998
 31
0.0
  0
LINE
  8
SIZE
  6
CONTINUOUS
 62
    30
 10
448.37599099999989
 20
-332.39999999999998
 30
0.0
 11
448.37599099999989
 21
-320.39999999999998
 31
0.0
  0
LINE
  8
SIZE
  6
CONTINUOUS
 62
    30
 10
448.37599099999989
 20
-411.39999999999998
 30
0.0
 11
448.37599099999989
 21
-683.50285699999995
 31
0.0
  0
LINE
  8
SIZE
  6
CONTINUOUS
 62
    30
 10
448.37599099999989
 20
-344.39999999999998
 30
0.0
 11
448.37599099999989
 21
-399.39999999999998
 31
0.0
  0
CIRCLE
  8
SIZE
  6
CONTINUOUS
 62
    30
 10
448.37599099999989
 20
-344.39999999999998
 30
0.0
 40
6.0
  0
LINE
  8
SIZE
  6
CONTINUOUS
 62
    30
 10
448.37599099999989
 20
-344.39999999999998
 30
0.0
 11
448.37599099999989
 21
-332.39999999999998
 31
0.0
  0
CIRCLE
  8
SIZE
  6
CONTINUOUS
 62
    30
 10
448.37599099999989
 20
-399.39999999999998
 30
0.0
 40
6.0
  0
LINE
  8
SIZE
  6
CONTINUOUS
 62
    30
 10
448.37599099999989
 20
-399.39999999999998
 30
0.0
 11
448.37599099999989
 21
-411.39999999999998
 31
0.0
  0
TEXT
  8
SIZE
  6
CONTINUOUS
 62
    30
 10
423.37599099999989
 20
-667.82857185714283
 30
0.0
 40
64.0
  1
（55）
 50
90.0
 41
0.9
 72
     1
 11
423.37599099999989
 21
-553.45142899999996
 31
0.0
  0
POINT
  8
DEFPOINTS
  6
CONTINUOUS
 62
    30
 10
296.42136900000008
 20
-349.39999999999998
 30
0.0
  0
POINT
  8
DEFPOINTS
  6
CONTINUOUS
 62
    30
 10
300.0
 20
-294.39999999999998
 30
0.0
  0
POINT
  8
DEFPOINTS
  6
CONTINUOUS
 62
    30
 10
448.37599099999989
 20
-344.39999999999998
 30
0.0
  0
LINE
  8
NOTE
  6
CONTINUOUS
 62
     4
 10
-456.02293500000002
 20
-746.67845899999998
 30
0.0
 11
-249.14850999999999
 21
-262.91790800000001
 31
0.0
  0
LINE
  8
NOTE
  6
CONTINUOUS
 62
     4
 10
-249.14850999999999
 20
-262.91790800000001
 30
0.0
 11
-261.06486699999999
 21
-274.33634699999988
 31
0.0
  0
LINE
  8
NOTE
  6
CONTINUOUS
 62
     4
 10
-249.14850999999999
 20
-262.91790800000001
 30
0.0
 11
-249.17282100000011
 21
-279.42183799999998
 31
0.0
  0
LINE
  8
NOTE
  6
CONTINUOUS
 62
     4
 10
-430.65307899999971
 20
-876.63188200000013
 30
0.0
 11
-244.7805479999997
 21
-300.94973399999998
 31
0.0
  0
LINE
  8
NOTE
  6
CONTINUOUS
 62
     4
 10
-244.7805479999997
 20
-300.94973399999998
 30
0.0
 11
-255.66237099999989
 21
-314.26702999999998
 31
0.0
  0
LINE
  8
NOTE
  6
CONTINUOUS
 62
     4
 10
-244.7805479999997
 20
-300.94973399999998
 30
0.0
 11
-243.7410909999999
 21
-318.11609499999997
 31
0.0
  0
LINE
  8
NOTE
  6
CONTINUOUS
 62
     4
 10
384.67572200000001
 20
-764.74403600000005
 30
0.0
 11
246.29396900000029
 21
-300.19981299999989
 31
0.0
  0
LINE
  8
NOTE
  6
CONTINUOUS
 62
     4
 10
246.29396900000029
 20
-300.19981299999989
 30
0.0
 11
246.29396900000029
 21
-315.99185599999998
 31
0.0
  0
LINE
  8
NOTE
  6
CONTINUOUS
 62
     4
 10
246.29396900000029
 20
-300.19981299999989
 30
0.0
 11
254.93562999999989
 21
-313.41761600000001
 31
0.0
  0
LINE
  8
NOTE
  6
CONTINUOUS
 62
     4
 10
-137.17541600000001
 20
588.52674200000001
 30
0.0
 11
-237.54169400000001
 21
3.155429000000026
 31
0.0
  0
LINE
  8
NOTE
  6
CONTINUOUS
 62
     4
 10
-237.54169400000001
 20
3.155429000000026
 30
0.0
 11
-227.2083940000002
 21
25.59426800000006
 31
0.0
  0
LINE
  8
NOTE
  6
CONTINUOUS
 62
     4
 10
-237.54169400000001
 20
3.155429000000026
 30
0.0
 11
-239.8099259999999
 21
27.754894000000039
 31
0.0
  0
LINE
  8
NOTE
  6
CONTINUOUS
 62
     4
 10
-187.7085670000001
 20
709.36091600000009
 30
0.0
 11
-237.54169400000001
 21
3.155429000000026
 31
0.0
  0
LINE
  8
NOTE
  6
CONTINUOUS
 62
     4
 10
-237.54169400000001
 20
3.155429000000026
 30
0.0
 11
-241.54806699999969
 21
29.687176000000019
 31
0.0
  0
LINE
  8
NOTE
  6
CONTINUOUS
 62
     4
 10
-237.54169400000001
 20
3.155429000000026
 30
0.0
 11
-229.8491690000001
 21
28.861647999999949
 31
0.0
  0
LINE
  8
DETAIL
  6
CONTINUOUS
 62
     5
 10
-120.0
 20
-53.399999999999977
 30
0.0
 11
-25.0
 21
-53.399999999999977
 31
0.0
  0
LINE
  8
DETAIL
  6
CONTINUOUS
 62
     5
 10
-120.0
 20
-54.200000000000053
 30
0.0
 11
120.0
 21
-54.200000000000053
 31
0.0
  0
LINE
  8
DETAIL
  6
CONTINUOUS
 62
     5
 10
-120.0
 20
-235.40000000000001
 30
0.0
 11
-25.0
 21
-235.40000000000001
 31
0.0
  0
LINE
  8
DETAIL
  6
CONTINUOUS
 62
     5
 10
-120.0
 20
-234.59999999999999
 30
0.0
 11
120.0
 21
-234.59999999999999
 31
0.0
  0
LINE
  8
DETAIL
  6
CONTINUOUS
 62
     5
 10
-280.0
 20
0.0
 30
0.0
 11
280.0
 21
0.0
 31
0.0
  0
LINE
  8
DETAIL
  6
CONTINUOUS
 62
     5
 10
-280.0
 20
-318.80000000000001
 30
0.0
 11
280.0
 21
-318.80000000000001
 31
0.0
  0
LINE
  8
DETAIL
  6
CONTINUOUS
 62
     5
 10
-278.0
 20
-599.30192999999997
 30
0.0
 11
278.0
 21
-599.30192999999997
 31
0.0
  0
LINE
  8
DETAIL
  6
CONTINUOUS
 62
     5
 10
-278.0
 20
-420.64093000000003
 30
0.0
 11
278.0
 21
-420.64093000000003
 31
0.0
  0
LINE
  8
DETAIL
  6
CONTINUOUS
 62
     5
 10
-276.0
 20
-380.64093000000003
 30
0.0
 11
276.0
 21
-380.64093000000003
 31
0.0
  0
LINE
  8
DETAIL
  6
CONTINUOUS
 62
     5
 10
280.0
 20
-319.94092999999998
 30
0.0
 11
-280.0
 21
-319.94092999999998
 31
0.0
  0
LINE
  8
DETAIL
  6
DASHED
 62
     5
 10
285.0
 20
-344.39999999999998
 30
0.0
 11
-285.0
 21
-344.39999999999998
 31
0.0
  0
LINE
  8
DETAIL
  6
DASHED
 62
     5
 10
298.80000000000018
 20
-399.39999999999998
 30
0.0
 11
-298.80000000000018
 21
-399.39999999999998
 31
0.0
  0
LINE
  8
DETAIL
  6
CONTINUOUS
 62
     5
 10
-122.0
 20
-55.399999999999977
 30
0.0
 11
-122.0
 21
-233.40000000000001
 31
0.0
  0
LINE
  8
DETAIL
  6
CONTINUOUS
 62
     5
 10
-121.1999999999998
 20
-55.399999999999977
 30
0.0
 11
-121.1999999999998
 21
-233.40000000000001
 31
0.0
  0
LINE
  8
DETAIL
  6
CONTINUOUS
 62
     5
 10
-280.0
 20
0.6000000000000227
 30
0.0
 11
-280.0
 21
-273.80000000000001
 31
0.0
  0
LINE
  8
DETAIL
  6
CONTINUOUS
 62
     5
 10
-280.0
 20
-349.39999999999998
 30
0.0
 11
-280.0
 21
-597.30192999999997
 31
0.0
  0
LINE
  8
DETAIL
  6
CONTINUOUS
 62
     5
 10
-300.0
 20
-589.39999999999998
 30
0.0
 11
-300.0
 21
-0.6000000000000227
 31
0.0
  0
ARC
  8
DETAIL
  6
CONTINUOUS
 62
     5
 10
-292.0
 20
-589.39999999999998
 30
0.0
 40
8.0
 50
180.0
 51
270.0
  0
ARC
  8
DETAIL
  6
CONTINUOUS
 62
     5
 10
-278.0
 20
-597.30192999999997
 30
0.0
 40
2.0
 50
180.0
 51
270.0
  0
LINE
  8
DETAIL
  6
CONTINUOUS
 62
     5
 10
-282.0
 20
-597.39999999999998
 30
0.0
 11
-292.0
 21
-597.39999999999998
 31
0.0
  0
ARC
  8
DETAIL
  6
CONTINUOUS
 62
     5
 10
-282.0
 20
-595.39999999999998
 30
0.0
 40
2.0
 50
270.0
 51
0.0
  0
LINE
  8
DETAIL
  6
CONTINUOUS
 62
     5
 10
-263.80000000000018
 20
-274.80000000000001
 30
0.0
 11
-293.80000000000018
 21
-274.80000000000001
 31
0.0
  0
LINE
  8
DETAIL
  6
CONTINUOUS
 62
     5
 10
-263.80000000000018
 20
-292.80000000000001
 30
0.0
 11
-293.80000000000018
 21
-292.80000000000001
 31
0.0
  0
LINE
  8
DETAIL
  6
CONTINUOUS
 62
     5
 10
-263.80000000000018
 20
-273.80000000000001
 30
0.0
 11
-293.80000000000018
 21
-273.80000000000001
 31
0.0
  0
LINE
  8
DETAIL
  6
CONTINUOUS
 62
     5
 10
-263.80000000000018
 20
-293.80000000000001
 30
0.0
 11
-293.80000000000018
 21
-293.80000000000001
 31
0.0
  0
CIRCLE
  8
DETAIL
  6
CONTINUOUS
 62
     5
 10
-275.80000000000018
 20
-283.80000000000001
 30
0.0
 40
3.1000000000000001
  0
CIRCLE
  8
DETAIL
  6
CONTINUOUS
 62
     5
 10
-275.80000000000018
 20
-283.80000000000001
 30
0.0
 40
2.1000000000000001
  0
LINE
  8
DETAIL
  6
CONTINUOUS
 62
     5
 10
-285.0
 20
-294.39999999999998
 30
0.0
 11
-285.0
 21
-334.39999999999998
 31
0.0
  0
LINE
  8
DETAIL
  6
CONTINUOUS
 62
     5
 10
-280.0
 20
-334.39999999999998
 30
0.0
 11
-280.0
 21
-293.80000000000001
 31
0.0
  0
LINE
  8
DETAIL
  6
CONTINUOUS
 62
     5
 10
-283.39317999999997
 20
-418.33231999999998
 30
0.0
 11
-296.92074000000002
 21
-418.33231999999998
 31
0.0
  0
LINE
  8
DETAIL
  6
CONTINUOUS
 62
     5
 10
-299.64852999999988
 20
-349.04853000000003
 30
0.0
 11
-285.0
 21
-334.39999999999998
 31
0.0
  0
ARC
  8
DETAIL
  6
CONTINUOUS
 62
     5
 10
-298.80000000000018
 20
-348.19999999999999
 30
0.0
 40
1.2
 50
180.0
 51
270.0
  0
LINE
  8
DETAIL
  6
CONTINUOUS
 62
     5
 10
-282.0
 20
-216.40000000000001
 30
0.0
 11
-282.0
 21
-273.80000000000001
 31
0.0
  0
LINE
  8
DETAIL
  6
CONTINUOUS
 62
     5
 10
-280.0
 20
-319.39999999999998
 30
0.0
 11
-285.0
 21
-319.39999999999998
 31
0.0
  0
LINE
  8
DETAIL
  6
CONTINUOUS
 62
     5
 10
-300.0
 20
-294.39999999999998
 30
0.0
 11
-282.0
 21
-294.39999999999998
 31
0.0
  0
LINE
  8
DETAIL
  6
CONTINUOUS
 62
     5
 10
-282.0
 20
-293.80000000000001
 30
0.0
 11
-282.0
 21
-294.39999999999998
 31
0.0
  0
LINE
  8
DETAIL
  6
CONTINUOUS
 62
     5
 10
-293.80000000000018
 20
-293.80000000000001
 30
0.0
 11
-293.80000000000018
 21
-273.80000000000001
 31
0.0
  0
LINE
  8
DETAIL
  6
CONTINUOUS
 62
     5
 10
-298.0
 20
-214.40000000000001
 30
0.0
 11
-284.0
 21
-214.40000000000001
 31
0.0
  0
ARC
  8
DETAIL
  6
CONTINUOUS
 62
     5
 10
-298.0
 20
-216.40000000000001
 30
0.0
 40
2.0
 50
90.0
 51
180.0
  0
ARC
  8
DETAIL
  6
CONTINUOUS
 62
     5
 10
-284.0
 20
-216.40000000000001
 30
0.0
 40
2.0
 50
0.0
 51
90.0
  0
CIRCLE
  8
DETAIL
  6
CONTINUOUS
 62
     5
 10
-240.0
 20
-254.40000000000001
 30
0.0
 40
12.5
  0
CIRCLE
  8
DETAIL
  6
CONTINUOUS
 62
     5
 10
-240.0
 20
-289.39999999999998
 30
0.0
 40
12.5
  0
LINE
  8
DETAIL
  6
CONTINUOUS
 62
     5
 10
-263.80000000000018
 20
-293.80000000000001
 30
0.0
 11
-263.80000000000018
 21
-286.80000000000001
 31
0.0
  0
LINE
  8
DETAIL
  6
CONTINUOUS
 62
     5
 10
-261.80000000000018
 20
-286.80000000000001
 30
0.0
 11
-263.80000000000018
 21
-286.80000000000001
 31
0.0
  0
LINE
  8
DETAIL
  6
CONTINUOUS
 62
     5
 10
-261.80000000000018
 20
-286.80000000000001
 30
0.0
 11
-261.80000000000018
 21
-280.80000000000001
 31
0.0
  0
LINE
  8
DETAIL
  6
CONTINUOUS
 62
     5
 10
-261.80000000000018
 20
-280.80000000000001
 30
0.0
 11
-263.80000000000018
 21
-280.80000000000001
 31
0.0
  0
LINE
  8
DETAIL
  6
CONTINUOUS
 62
     5
 10
-263.80000000000018
 20
-280.80000000000001
 30
0.0
 11
-263.80000000000018
 21
-273.80000000000001
 31
0.0
  0
LINE
  8
DETAIL
  6
CONTINUOUS
 62
     5
 10
-120.0
 20
-233.40000000000001
 30
0.0
 11
-120.0
 21
-235.40000000000001
 31
0.0
  0
LINE
  8
DETAIL
  6
CONTINUOUS
 62
     5
 10
-120.0
 20
-233.40000000000001
 30
0.0
 11
-122.0
 21
-233.40000000000001
 31
0.0
  0
LINE
  8
DETAIL
  6
CONTINUOUS
 62
     5
 10
-280.0
 20
0.6000000000000227
 30
0.0
 11
-298.80000000000018
 21
0.6000000000000227
 31
0.0
  0
ARC
  8
DETAIL
  6
CONTINUOUS
 62
     5
 10
-298.80000000000018
 20
-0.6000000000000227
 30
0.0
 40
1.2
 50
90.0
 51
180.0
  0
LINE
  8
DETAIL
  6
CONTINUOUS
 62
     5
 10
-120.0
 20
-55.399999999999977
 30
0.0
 11
-122.0
 21
-55.399999999999977
 31
0.0
  0
LINE
  8
DETAIL
  6
CONTINUOUS
 62
     5
 10
-120.0
 20
-53.399999999999977
 30
0.0
 11
-120.0
 21
-55.399999999999977
 31
0.0
  0
LINE
  8
DETAIL
  6
CONTINUOUS
 62
     5
 10
122.0
 20
-55.399999999999977
 30
0.0
 11
122.0
 21
-233.40000000000001
 31
0.0
  0
LINE
  8
DETAIL
  6
CONTINUOUS
 62
     5
 10
121.1999999999998
 20
-55.399999999999977
 30
0.0
 11
121.1999999999998
 21
-233.40000000000001
 31
0.0
  0
CIRCLE
  8
DETAIL
  6
CONTINUOUS
 62
     5
 10
0.0
 20
-144.40000000000001
 30
0.0
 40
74.0
  0
CIRCLE
  8
DETAIL
  6
CONTINUOUS
 62
     5
 10
0.0
 20
-144.40000000000001
 30
0.0
 40
73.200000000000003
  0
CIRCLE
  8
DETAIL
  6
CONTINUOUS
 62
     5
 10
0.0
 20
-144.40000000000001
 30
0.0
 40
77.0
  0
ARC
  8
DETAIL
  6
CONTINUOUS
 62
     5
 10
0.0
 20
-144.40000000000001
 30
0.0
 40
72.59999999999998
 50
205.65876499999919
 51
334.34123500000072
  0
LINE
  8
DETAIL
  6
CONTINUOUS
 62
     5
 10
280.0
 20
-104.8
 30
0.0
 11
280.0
 21
-273.80000000000001
 31
0.0
  0
ARC
  8
DETAIL
  6
CONTINUOUS
 62
     5
 10
0.0
 20
-144.40000000000001
 30
0.0
 40
69.599999999999994
 50
209.84821499998921
 51
330.02368999535571
  0
LINE
  8
DETAIL
  6
CONTINUOUS
 62
     5
 10
193.8752300000001
 20
-108.55
 30
0.0
 11
193.8752300000001
 21
-199.40000000000001
 31
0.0
  0
LINE
  8
DETAIL
  6
CONTINUOUS
 62
     5
 10
190.1252300000001
 20
-108.55
 30
0.0
 11
190.1252300000001
 21
-199.40000000000001
 31
0.0
  0
CIRCLE
  8
DETAIL
  6
CONTINUOUS
 62
     5
 10
201.0002300000001
 20
-216.30000000000001
 30
0.0
 40
2.0
  0
LINE
  8
DETAIL
  6
CONTINUOUS
 62
     5
 10
187.0002300000001
 20
-211.30000000000001
 30
0.0
 11
206.0002300000001
 21
-211.30000000000001
 31
0.0
  0
LINE
  8
DETAIL
  6
CONTINUOUS
 62
     5
 10
187.0002300000001
 20
-221.30000000000001
 30
0.0
 11
206.0002300000001
 21
-221.30000000000001
 31
0.0
  0
LINE
  8
DETAIL
  6
CONTINUOUS
 62
     5
 10
144.0002300000001
 20
-281.80000000000001
 30
0.0
 11
204.0002300000001
 21
-281.80000000000001
 31
0.0
  0
LINE
  8
DETAIL
  6
CONTINUOUS
 62
     5
 10
144.0002300000001
 20
-236.80000000000001
 30
0.0
 11
204.0002300000001
 21
-236.80000000000001
 31
0.0
  0
LINE
  8
DETAIL
  6
CONTINUOUS
 62
     5
 10
25.0
 20
-235.40000000000001
 30
0.0
 11
120.0
 21
-235.40000000000001
 31
0.0
  0
LINE
  8
DETAIL
  6
CONTINUOUS
 62
     5
 10
-117.0
 20
-211.40000000000001
 30
0.0
 11
-117.0
 21
-227.40000000000001
 31
0.0
  0
LINE
  8
DETAIL
  6
CONTINUOUS
 62
     5
 10
-93.0
 20
-211.40000000000001
 30
0.0
 11
-93.0
 21
-227.40000000000001
 31
0.0
  0
LINE
  8
DETAIL
  6
CONTINUOUS
 62
     5
 10
-95.0
 20
-229.40000000000001
 30
0.0
 11
-115.0
 21
-229.40000000000001
 31
0.0
  0
ARC
  8
DETAIL
  6
CONTINUOUS
 62
     5
 10
-115.0
 20
-227.40000000000001
 30
0.0
 40
2.0
 50
180.0
 51
270.0
  0
ARC
  8
DETAIL
  6
CONTINUOUS
 62
     5
 10
-95.0
 20
-227.40000000000001
 30
0.0
 40
2.0
 50
270.0
 51
0.0
  0
LINE
  8
DETAIL
  6
CONTINUOUS
 62
     5
 10
-95.0
 20
-209.40000000000001
 30
0.0
 11
-115.0
 21
-209.40000000000001
 31
0.0
  0
ARC
  8
DETAIL
  6
CONTINUOUS
 62
     5
 10
-115.0
 20
-211.40000000000001
 30
0.0
 40
2.0
 50
90.0
 51
180.0
  0
CIRCLE
  8
DETAIL
  6
CONTINUOUS
 62
     5
 10
-104.5
 20
-219.40000000000001
 30
0.0
 40
2.3999999999999999
  0
CIRCLE
  8
DETAIL
  6
CONTINUOUS
 62
     5
 10
-104.5
 20
-219.40000000000001
 30
0.0
 40
1.6000000000000001
  0
ARC
  8
DETAIL
  6
CONTINUOUS
 62
     5
 10
-95.0
 20
-211.40000000000001
 30
0.0
 40
2.0
 50
0.0
 51
90.0
  0
LINE
  8
DETAIL
  6
CONTINUOUS
 62
     5
 10
-25.0
 20
-234.59999999999999
 30
0.0
 11
-25.0
 21
-235.40000000000001
 31
0.0
  0
LINE
  8
DETAIL
  6
CONTINUOUS
 62
     5
 10
25.0
 20
-234.59999999999999
 30
0.0
 11
25.0
 21
-235.40000000000001
 31
0.0
  0
LINE
  8
DETAIL
  6
CONTINUOUS
 62
     5
 10
120.0
 20
-233.40000000000001
 30
0.0
 11
122.0
 21
-233.40000000000001
 31
0.0
  0
LINE
  8
DETAIL
  6
CONTINUOUS
 62
     5
 10
117.0
 20
-211.40000000000001
 30
0.0
 11
117.0
 21
-227.40000000000001
 31
0.0
  0
LINE
  8
DETAIL
  6
CONTINUOUS
 62
     5
 10
93.0
 20
-211.40000000000001
 30
0.0
 11
93.0
 21
-227.40000000000001
 31
0.0
  0
LINE
  8
DETAIL
  6
CONTINUOUS
 62
     5
 10
95.0
 20
-229.40000000000001
 30
0.0
 11
115.0
 21
-229.40000000000001
 31
0.0
  0
ARC
  8
DETAIL
  6
CONTINUOUS
 62
     5
 10
95.0
 20
-227.40000000000001
 30
0.0
 40
2.0
 50
180.0
 51
270.0
  0
LINE
  8
DETAIL
  6
CONTINUOUS
 62
     5
 10
120.0
 20
-233.40000000000001
 30
0.0
 11
120.0
 21
-235.40000000000001
 31
0.0
  0
ARC
  8
DETAIL
  6
CONTINUOUS
 62
     5
 10
115.0
 20
-227.40000000000001
 30
0.0
 40
2.0
 50
270.0
 51
0.0
  0
LINE
  8
DETAIL
  6
CONTINUOUS
 62
     5
 10
95.0
 20
-209.40000000000001
 30
0.0
 11
115.0
 21
-209.40000000000001
 31
0.0
  0
ARC
  8
DETAIL
  6
CONTINUOUS
 62
     5
 10
95.0
 20
-211.40000000000001
 30
0.0
 40
2.0
 50
90.0
 51
180.0
  0
ARC
  8
DETAIL
  6
CONTINUOUS
 62
     5
 10
115.0
 20
-211.40000000000001
 30
0.0
 40
2.0
 50
0.0
 51
90.0
  0
CIRCLE
  8
DETAIL
  6
CONTINUOUS
 62
     5
 10
104.5
 20
-219.40000000000001
 30
0.0
 40
2.3999999999999999
  0
CIRCLE
  8
DETAIL
  6
CONTINUOUS
 62
     5
 10
104.5
 20
-219.40000000000001
 30
0.0
 40
1.6000000000000001
  0
ARC
  8
DETAIL
  6
CONTINUOUS
 62
     5
 10
174.0002300000001
 20
-259.30000000000001
 30
0.0
 40
4.0
 50
145.00000000001009
 51
325.00000000001012
  0
LINE
  8
DETAIL
  6
CONTINUOUS
 62
     5
 10
144.0002300000001
 20
-236.80000000000001
 30
0.0
 11
144.0002300000001
 21
-281.80000000000001
 31
0.0
  0
LINE
  8
DETAIL
  6
CONTINUOUS
 62
     5
 10
194.0002300000001
 20
-249.80000000000001
 30
0.0
 11
194.0002300000001
 21
-268.80000000000001
 31
0.0
  0
LINE
  8
DETAIL
  6
CONTINUOUS
 62
     5
 10
154.0002300000001
 20
-249.80000000000001
 30
0.0
 11
154.0002300000001
 21
-268.80000000000001
 31
0.0
  0
LINE
  8
DETAIL
  6
CONTINUOUS
 62
     5
 10
157.0002300000001
 20
-271.80000000000001
 30
0.0
 11
191.0002300000001
 21
-271.80000000000001
 31
0.0
  0
ARC
  8
DETAIL
  6
CONTINUOUS
 62
     5
 10
157.0002300000001
 20
-268.80000000000001
 30
0.0
 40
3.0
 50
180.0
 51
270.0
  0
ARC
  8
DETAIL
  6
CONTINUOUS
 62
     5
 10
191.0002300000001
 20
-268.80000000000001
 30
0.0
 40
3.0
 50
270.0
 51
0.0
  0
LINE
  8
DETAIL
  6
CONTINUOUS
 62
     5
 10
157.0002300000001
 20
-246.80000000000001
 30
0.0
 11
177.86971999999969
 21
-246.80000000000001
 31
0.0
  0
ARC
  8
DETAIL
  6
CONTINUOUS
 62
     5
 10
157.0002300000001
 20
-249.80000000000001
 30
0.0
 40
3.0
 50
90.0
 51
180.0
  0
LINE
  8
DETAIL
  6
CONTINUOUS
 62
     5
 10
188.0002300000001
 20
-221.30000000000001
 30
0.0
 11
188.0002300000001
 21
-229.80975000000001
 31
0.0
  0
LINE
  8
DETAIL
  6
CONTINUOUS
 62
     5
 10
196.0002300000001
 20
-221.30000000000001
 30
0.0
 11
196.0002300000001
 21
-229.80975000000001
 31
0.0
  0
LINE
  8
DETAIL
  6
CONTINUOUS
 62
     5
 10
184.87179999999989
 20
-236.80000000000001
 30
0.0
 11
170.72361999999981
 21
-257.00569000000002
 31
0.0
  0
LINE
  8
DETAIL
  6
CONTINUOUS
 62
     5
 10
193.10665999999989
 20
-238.98697000000001
 30
0.0
 11
177.27683999999999
 21
-261.59429999999998
 31
0.0
  0
ARC
  8
DETAIL
  6
CONTINUOUS
 62
     5
 10
180.0002300000001
 20
-229.80975000000001
 30
0.0
 40
16.0
 50
325.00000000001012
 51
359.81749534215862
  0
LINE
  8
DETAIL
  6
CONTINUOUS
 62
     5
 10
186.55343999999971
 20
-234.39836
 30
0.0
 11
184.87179999999989
 21
-236.80000000000001
 31
0.0
  0
ARC
  8
DETAIL
  6
CONTINUOUS
 62
     5
 10
180.0002300000001
 20
-229.80975000000001
 30
0.0
 40
8.0
 50
325.00000000001012
 51
0.0
  0
LINE
  8
DETAIL
  6
CONTINUOUS
 62
     5
 10
187.63591999999969
 20
-246.80000000000001
 30
0.0
 11
191.0002300000001
 21
-246.80000000000001
 31
0.0
  0
ARC
  8
DETAIL
  6
CONTINUOUS
 62
     5
 10
191.0002300000001
 20
-249.80000000000001
 30
0.0
 40
3.0
 50
0.0
 51
90.0
  0
LINE
  8
DETAIL
  6
CONTINUOUS
 62
     5
 10
188.0002300000001
 20
-199.40000000000001
 30
0.0
 11
188.0002300000001
 21
-211.30000000000001
 31
0.0
  0
LINE
  8
DETAIL
  6
CONTINUOUS
 62
     5
 10
196.0002300000001
 20
-199.40000000000001
 30
0.0
 11
196.0002300000001
 21
-211.30000000000001
 31
0.0
  0
LINE
  8
DETAIL
  6
CONTINUOUS
 62
     5
 10
188.0002300000001
 20
-199.40000000000001
 30
0.0
 11
196.0002300000001
 21
-199.40000000000001
 31
0.0
  0
LINE
  8
DETAIL
  6
CONTINUOUS
 62
     5
 10
187.0002300000001
 20
-211.30000000000001
 30
0.0
 11
187.0002300000001
 21
-221.30000000000001
 31
0.0
  0
LINE
  8
DETAIL
  6
CONTINUOUS
 62
     5
 10
280.0
 20
-349.39999999999998
 30
0.0
 11
280.0
 21
-597.30192999999997
 31
0.0
  0
LINE
  8
DETAIL
  6
CONTINUOUS
 62
     5
 10
300.0
 20
-589.39999999999998
 30
0.0
 11
300.0
 21
-104.8
 31
0.0
  0
ARC
  8
DETAIL
  6
CONTINUOUS
 62
     5
 10
278.0
 20
-597.30192999999997
 30
0.0
 40
2.0
 50
270.0
 51
0.0
  0
ARC
  8
DETAIL
  6
CONTINUOUS
 62
     5
 10
282.0
 20
-595.39999999999998
 30
0.0
 40
2.0
 50
180.0
 51
270.0
  0
ARC
  8
DETAIL
  6
CONTINUOUS
 62
     5
 10
292.0
 20
-589.39999999999998
 30
0.0
 40
8.0
 50
270.0
 51
0.0
  0
LINE
  8
DETAIL
  6
CONTINUOUS
 62
     5
 10
282.0
 20
-597.39999999999998
 30
0.0
 11
292.0
 21
-597.39999999999998
 31
0.0
  0
LINE
  8
DETAIL
  6
CONTINUOUS
 62
     5
 10
285.0
 20
-294.39999999999998
 30
0.0
 11
285.0
 21
-334.39999999999998
 31
0.0
  0
LINE
  8
DETAIL
  6
CONTINUOUS
 62
     5
 10
280.0
 20
-334.39999999999998
 30
0.0
 11
280.0
 21
-293.80000000000001
 31
0.0
  0
LINE
  8
DETAIL
  6
CONTINUOUS
 62
     5
 10
283.39317000000028
 20
-418.33231999999998
 30
0.0
 11
296.92072999999982
 21
-418.33231999999998
 31
0.0
  0
LINE
  8
DETAIL
  6
CONTINUOUS
 62
     5
 10
299.64852999999988
 20
-349.04853000000003
 30
0.0
 11
285.0
 21
-334.39999999999998
 31
0.0
  0
ARC
  8
DETAIL
  6
CONTINUOUS
 62
     5
 10
298.80000000000018
 20
-348.19999999999999
 30
0.0
 40
1.2
 50
270.0
 51
0.0
  0
LINE
  8
DETAIL
  6
CONTINUOUS
 62
     5
 10
280.0
 20
-319.39999999999998
 30
0.0
 11
285.0
 21
-319.39999999999998
 31
0.0
  0
LINE
  8
DETAIL
  6
CONTINUOUS
 62
     5
 10
263.80000000000018
 20
-274.80000000000001
 30
0.0
 11
293.80000000000018
 21
-274.80000000000001
 31
0.0
  0
LINE
  8
DETAIL
  6
CONTINUOUS
 62
     5
 10
263.80000000000018
 20
-292.80000000000001
 30
0.0
 11
293.80000000000018
 21
-292.80000000000001
 31
0.0
  0
LINE
  8
DETAIL
  6
CONTINUOUS
 62
     5
 10
263.80000000000018
 20
-273.80000000000001
 30
0.0
 11
293.80000000000018
 21
-273.80000000000001
 31
0.0
  0
LINE
  8
DETAIL
  6
CONTINUOUS
 62
     5
 10
263.80000000000018
 20
-293.80000000000001
 30
0.0
 11
293.80000000000018
 21
-293.80000000000001
 31
0.0
  0
CIRCLE
  8
DETAIL
  6
CONTINUOUS
 62
     5
 10
240.0
 20
-254.40000000000001
 30
0.0
 40
12.5
  0
LINE
  8
DETAIL
  6
CONTINUOUS
 62
     5
 10
204.0002300000001
 20
-236.80000000000001
 30
0.0
 11
204.0002300000001
 21
-281.80000000000001
 31
0.0
  0
CIRCLE
  8
DETAIL
  6
CONTINUOUS
 62
     5
 10
240.0
 20
-289.39999999999998
 30
0.0
 40
12.5
  0
CIRCLE
  8
DETAIL
  6
CONTINUOUS
 62
     5
 10
275.80000000000018
 20
-283.80000000000001
 30
0.0
 40
3.1000000000000001
  0
CIRCLE
  8
DETAIL
  6
CONTINUOUS
 62
     5
 10
275.80000000000018
 20
-283.80000000000001
 30
0.0
 40
2.1000000000000001
  0
LINE
  8
DETAIL
  6
CONTINUOUS
 62
     5
 10
263.80000000000018
 20
-280.80000000000001
 30
0.0
 11
263.80000000000018
 21
-273.80000000000001
 31
0.0
  0
LINE
  8
DETAIL
  6
CONTINUOUS
 62
     5
 10
261.80000000000018
 20
-286.80000000000001
 30
0.0
 11
263.80000000000018
 21
-286.80000000000001
 31
0.0
  0
LINE
  8
DETAIL
  6
CONTINUOUS
 62
     5
 10
261.80000000000018
 20
-280.80000000000001
 30
0.0
 11
263.80000000000018
 21
-280.80000000000001
 31
0.0
  0
LINE
  8
DETAIL
  6
CONTINUOUS
 62
     5
 10
261.80000000000018
 20
-286.80000000000001
 30
0.0
 11
261.80000000000018
 21
-280.80000000000001
 31
0.0
  0
LINE
  8
DETAIL
  6
CONTINUOUS
 62
     5
 10
263.80000000000018
 20
-293.80000000000001
 30
0.0
 11
263.80000000000018
 21
-286.80000000000001
 31
0.0
  0
LINE
  8
DETAIL
  6
CONTINUOUS
 62
     5
 10
201.0002300000001
 20
-209.30000000000001
 30
0.0
 11
201.0002300000001
 21
-223.30000000000001
 31
0.0
  0
LINE
  8
DETAIL
  6
CONTINUOUS
 62
     5
 10
206.0002300000001
 20
-211.30000000000001
 30
0.0
 11
206.0002300000001
 21
-221.30000000000001
 31
0.0
  0
LINE
  8
NOTE
  6
CONTINUOUS
 62
     4
 10
201.0002300000001
 20
-209.30000000000001
 30
0.0
 11
201.0002300000001
 21
-223.30000000000001
 31
0.0
  0
LINE
  8
DETAIL
  6
CONTINUOUS
 62
     5
 10
282.0
 20
-216.40000000000001
 30
0.0
 11
282.0
 21
-273.80000000000001
 31
0.0
  0
LINE
  8
DETAIL
  6
CONTINUOUS
 62
     5
 10
282.0
 20
-293.80000000000001
 30
0.0
 11
282.0
 21
-294.39999999999998
 31
0.0
  0
LINE
  8
DETAIL
  6
CONTINUOUS
 62
     5
 10
300.0
 20
-294.39999999999998
 30
0.0
 11
282.0
 21
-294.39999999999998
 31
0.0
  0
LINE
  8
DETAIL
  6
CONTINUOUS
 62
     5
 10
293.80000000000018
 20
-293.80000000000001
 30
0.0
 11
293.80000000000018
 21
-273.80000000000001
 31
0.0
  0
ARC
  8
DETAIL
  6
CONTINUOUS
 62
     5
 10
298.0
 20
-216.40000000000001
 30
0.0
 40
2.0
 50
0.0
 51
90.0
  0
ARC
  8
DETAIL
  6
CONTINUOUS
 62
     5
 10
284.0
 20
-216.40000000000001
 30
0.0
 40
2.0
 50
90.0
 51
180.0
  0
LINE
  8
DETAIL
  6
CONTINUOUS
 62
     5
 10
298.0
 20
-214.40000000000001
 30
0.0
 11
284.0
 21
-214.40000000000001
 31
0.0
  0
LINE
  8
DETAIL
  6
CONTINUOUS
 62
     5
 10
196.6252300000001
 20
-101.05
 30
0.0
 11
340.06408999999991
 21
-101.05
 31
0.0
  0
LINE
  8
DETAIL
  6
CONTINUOUS
 62
     5
 10
196.6252300000001
 20
-104.8
 30
0.0
 11
334.19415000000032
 21
-104.8
 31
0.0
  0
ARC
  8
DETAIL
  6
CONTINUOUS
 62
     5
 10
0.0
 20
-144.40000000000001
 30
0.0
 40
70.200000000000003
 50
31.27329800000204
 51
148.96902673401831
  0
LINE
  8
DETAIL
  6
CONTINUOUS
 62
     5
 10
25.0
 20
-53.399999999999977
 30
0.0
 11
120.0
 21
-53.399999999999977
 31
0.0
  0
LINE
  8
DETAIL
  6
CONTINUOUS
 62
     5
 10
-60.0
 20
-150.40000000000001
 30
0.0
 11
-60.0
 21
-107.95771000000001
 31
0.0
  0
ARC
  8
DETAIL
  6
CONTINUOUS
 62
     5
 10
9.2104600000002392
 20
-131.79365999999999
 30
0.0
 40
73.200000000000003
 50
160.99639399998901
 51
193.48761000000351
  0
LINE
  8
DETAIL
  6
CONTINUOUS
 62
     5
 10
-95.0
 20
-134.40000000000001
 30
0.0
 11
-115.0
 21
-134.40000000000001
 31
0.0
  0
LINE
  8
DETAIL
  6
CONTINUOUS
 62
     5
 10
-95.0
 20
-154.40000000000001
 30
0.0
 11
-115.0
 21
-154.40000000000001
 31
0.0
  0
CIRCLE
  8
DETAIL
  6
CONTINUOUS
 62
     5
 10
-104.5
 20
-144.40000000000001
 30
0.0
 40
1.6000000000000001
  0
CIRCLE
  8
DETAIL
  6
CONTINUOUS
 62
     5
 10
-104.5
 20
-144.40000000000001
 30
0.0
 40
2.3999999999999999
  0
ARC
  8
DETAIL
  6
CONTINUOUS
 62
     5
 10
-115.0
 20
-152.40000000000001
 30
0.0
 40
2.0
 50
180.0
 51
270.0
  0
LINE
  8
DETAIL
  6
CONTINUOUS
 62
     5
 10
-117.0
 20
-152.40000000000001
 30
0.0
 11
-117.0
 21
-136.40000000000001
 31
0.0
  0
ARC
  8
DETAIL
  6
CONTINUOUS
 62
     5
 10
-115.0
 20
-136.40000000000001
 30
0.0
 40
2.0
 50
90.0
 51
180.0
  0
ARC
  8
DETAIL
  6
CONTINUOUS
 62
     5
 10
-95.0
 20
-136.40000000000001
 30
0.0
 40
2.0
 50
0.0
 51
90.0
  0
LINE
  8
DETAIL
  6
CONTINUOUS
 62
     5
 10
-93.0
 20
-152.40000000000001
 30
0.0
 11
-93.0
 21
-136.40000000000001
 31
0.0
  0
ARC
  8
DETAIL
  6
CONTINUOUS
 62
     5
 10
-95.0
 20
-152.40000000000001
 30
0.0
 40
2.0
 50
270.0
 51
0.0
  0
LINE
  8
DETAIL
  6
CONTINUOUS
 62
     5
 10
-63.5
 20
-172.40000000000001
 30
0.0
 11
-63.5
 21
-152.40000000000001
 31
0.0
  0
LINE
  8
DETAIL
  6
CONTINUOUS
 62
     5
 10
-65.5
 20
-164.65000000000001
 30
0.0
 11
-66.099999999999909
 21
-164.65000000000001
 31
0.0
  0
LINE
  8
DETAIL
  6
CONTINUOUS
 62
     5
 10
-65.5
 20
-170.15000000000001
 30
0.0
 11
-66.099999999999909
 21
-170.15000000000001
 31
0.0
  0
LINE
  8
DETAIL
  6
CONTINUOUS
 62
     5
 10
-65.5
 20
-162.34999999999999
 30
0.0
 11
-66.099999999999909
 21
-162.34999999999999
 31
0.0
  0
ARC
  8
DETAIL
  6
CONTINUOUS
 62
     5
 10
-62.0
 20
-161.40000000000001
 30
0.0
 40
0.5
 50
287.58795400000599
 51
72.412045999993992
  0
ARC
  8
DETAIL
  6
CONTINUOUS
 62
     5
 10
-62.0
 20
-161.40000000000001
 30
0.0
 40
0.8
 50
287.58795400000599
 51
72.412045999993992
  0
ARC
  8
DETAIL
  6
CONTINUOUS
 62
     5
 10
-63.5
 20
-160.92452
 30
0.0
 40
0.8
 50
72.412045999993992
 51
90.0
  0
ARC
  8
DETAIL
  6
CONTINUOUS
 62
     5
 10
-63.5
 20
-160.92452
 30
0.0
 40
0.5
 50
72.412045999993992
 51
90.0
  0
ARC
  8
DETAIL
  6
CONTINUOUS
 62
     5
 10
-63.5
 20
-161.87548000000001
 30
0.0
 40
0.5
 50
270.0
 51
287.58795400000599
  0
ARC
  8
DETAIL
  6
CONTINUOUS
 62
     5
 10
-63.5
 20
-161.87548000000001
 30
0.0
 40
0.8
 50
270.0
 51
287.58795400000599
  0
LINE
  8
DETAIL
  6
CONTINUOUS
 62
     5
 10
-61.848919999999907
 20
-160.92337000000001
 30
0.0
 11
-63.348919999999907
 21
-160.44789
 31
0.0
  0
LINE
  8
DETAIL
  6
CONTINUOUS
 62
     5
 10
-61.758270000000273
 20
-160.63739000000001
 30
0.0
 11
-63.258270000000273
 21
-160.16191000000001
 31
0.0
  0
LINE
  8
DETAIL
  6
CONTINUOUS
 62
     5
 10
-61.848919999999907
 20
-161.87662
 30
0.0
 11
-63.348919999999907
 21
-162.35211000000001
 31
0.0
  0
LINE
  8
DETAIL
  6
CONTINUOUS
 62
     5
 10
-61.758270000000273
 20
-162.1626
 30
0.0
 11
-63.258270000000273
 21
-162.6380799999998
 31
0.0
  0
LINE
  8
DETAIL
  6
CONTINUOUS
 62
     5
 10
-63.5
 20
-172.40000000000001
 30
0.0
 11
-63.199999999999818
 21
-172.40000000000001
 31
0.0
  0
LINE
  8
DETAIL
  6
CONTINUOUS
 62
     5
 10
-63.5
 20
-169.10599999999999
 30
0.0
 11
-61.5
 21
-169.10599999999999
 31
0.0
  0
LINE
  8
DETAIL
  6
CONTINUOUS
 62
     5
 10
-63.199999999999818
 20
-172.40000000000001
 30
0.0
 11
-63.199999999999818
 21
-169.10599999999999
 31
0.0
  0
LINE
  8
DETAIL
  6
CONTINUOUS
 62
     5
 10
-60.5
 20
-178.54248999999999
 30
0.0
 11
-60.5
 21
-170.10599999999999
 31
0.0
  0
ARC
  8
DETAIL
  6
CONTINUOUS
 62
     5
 10
-61.5
 20
-170.10599999999999
 30
0.0
 40
1.0
 50
0.0
 51
90.0
  0
ARC
  8
DETAIL
  6
CONTINUOUS
 62
     5
 10
-59.5
 20
-178.54248999999999
 30
0.0
 40
1.0
 50
180.0
 51
209.84821499998921
  0
LINE
  8
DETAIL
  6
CONTINUOUS
 62
     5
 10
-66.099999999999909
 20
-175.57674999999989
 30
0.0
 11
-66.099999999999909
 21
-162.34999999999999
 31
0.0
  0
LINE
  8
DETAIL
  6
CONTINUOUS
 62
     5
 10
-65.5
 20
-175.57674999999989
 30
0.0
 11
-65.5
 21
-162.34999999999999
 31
0.0
  0
ARC
  8
DETAIL
  6
CONTINUOUS
 62
     5
 10
-64.900000000000091
 20
-175.57674999999989
 30
0.0
 40
1.2
 50
180.0
 51
205.65876499999919
  0
ARC
  8
DETAIL
  6
CONTINUOUS
 62
     5
 10
-64.900000000000091
 20
-175.57674999999989
 30
0.0
 40
0.6
 50
180.0
 51
205.65876499999919
  0
LINE
  8
DETAIL
  6
CONTINUOUS
 62
     5
 10
-65.434379999999692
 20
-175.84999999999999
 30
0.0
 11
-66.099449999999706
 21
-175.84999999999999
 31
0.0
  0
LINE
  8
DETAIL
  6
CONTINUOUS
 62
     5
 10
-57.5
 20
-152.40000000000001
 30
0.0
 11
-63.5
 21
-152.40000000000001
 31
0.0
  0
LINE
  8
DETAIL
  6
CONTINUOUS
 62
     5
 10
-57.5
 20
-150.40000000000001
 30
0.0
 11
-60.025869999999941
 21
-150.40000000000001
 31
0.0
  0
ARC
  8
DETAIL
  6
CONTINUOUS
 62
     5
 10
-60.025869999999941
 20
-148.40000000000001
 30
0.0
 40
2.0
 50
193.48761000000351
 51
270.0
  0
ARC
  8
DETAIL
  6
CONTINUOUS
 62
     5
 10
-57.5
 20
-151.40000000000001
 30
0.0
 40
1.0
 50
270.0
 51
90.0
  0
LINE
  8
DETAIL
  6
CONTINUOUS
 62
     5
 10
-95.0
 20
-59.399999999999977
 30
0.0
 11
-115.0
 21
-59.399999999999977
 31
0.0
  0
LINE
  8
DETAIL
  6
CONTINUOUS
 62
     5
 10
-95.0
 20
-79.399999999999977
 30
0.0
 11
-115.0
 21
-79.399999999999977
 31
0.0
  0
ARC
  8
DETAIL
  6
CONTINUOUS
 62
     5
 10
-115.0
 20
-61.399999999999977
 30
0.0
 40
2.0
 50
90.0
 51
180.0
  0
LINE
  8
DETAIL
  6
CONTINUOUS
 62
     5
 10
-117.0
 20
-77.399999999999977
 30
0.0
 11
-117.0
 21
-61.399999999999977
 31
0.0
  0
ARC
  8
DETAIL
  6
CONTINUOUS
 62
     5
 10
-115.0
 20
-77.399999999999977
 30
0.0
 40
2.0
 50
180.0
 51
270.0
  0
CIRCLE
  8
DETAIL
  6
CONTINUOUS
 62
     5
 10
-104.5
 20
-69.399999999999977
 30
0.0
 40
2.3999999999999999
  0
CIRCLE
  8
DETAIL
  6
CONTINUOUS
 62
     5
 10
-104.5
 20
-69.399999999999977
 30
0.0
 40
1.6000000000000001
  0
ARC
  8
DETAIL
  6
CONTINUOUS
 62
     5
 10
-95.0
 20
-77.399999999999977
 30
0.0
 40
2.0
 50
270.0
 51
0.0
  0
LINE
  8
DETAIL
  6
CONTINUOUS
 62
     5
 10
-93.0
 20
-77.399999999999977
 30
0.0
 11
-93.0
 21
-61.399999999999977
 31
0.0
  0
ARC
  8
DETAIL
  6
CONTINUOUS
 62
     5
 10
-95.0
 20
-61.399999999999977
 30
0.0
 40
2.0
 50
0.0
 51
90.0
  0
LINE
  8
DETAIL
  6
CONTINUOUS
 62
     5
 10
-25.0
 20
-54.200000000000053
 30
0.0
 11
-25.0
 21
-53.399999999999977
 31
0.0
  0
LINE
  8
DETAIL
  6
CONTINUOUS
 62
     5
 10
25.0
 20
-54.200000000000053
 30
0.0
 11
25.0
 21
-53.399999999999977
 31
0.0
  0
LINE
  8
DETAIL
  6
CONTINUOUS
 62
     5
 10
120.0
 20
-55.399999999999977
 30
0.0
 11
122.0
 21
-55.399999999999977
 31
0.0
  0
LINE
  8
DETAIL
  6
CONTINUOUS
 62
     5
 10
60.0
 20
-150.40000000000001
 30
0.0
 11
60.0
 21
-107.95771000000001
 31
0.0
  0
ARC
  8
DETAIL
  6
CONTINUOUS
 62
     5
 10
-9.2104600000002392
 20
-131.79365999999999
 30
0.0
 40
73.200000000000003
 50
346.51238999999651
 51
19.003606000010979
  0
LINE
  8
DETAIL
  6
CONTINUOUS
 62
     5
 10
63.5
 20
-172.40000000000001
 30
0.0
 11
63.5
 21
-152.40000000000001
 31
0.0
  0
ARC
  8
DETAIL
  6
CONTINUOUS
 62
     5
 10
61.5
 20
-170.10599999999999
 30
0.0
 40
1.0
 50
90.0
 51
180.0
  0
LINE
  8
DETAIL
  6
CONTINUOUS
 62
     5
 10
60.5
 20
-178.54248999999999
 30
0.0
 11
60.5
 21
-170.10599999999999
 31
0.0
  0
ARC
  8
DETAIL
  6
CONTINUOUS
 62
     5
 10
59.5
 20
-178.54248999999999
 30
0.0
 40
1.0
 50
330.15178499998649
 51
0.0
  0
LINE
  8
DETAIL
  6
CONTINUOUS
 62
     5
 10
65.5
 20
-164.65000000000001
 30
0.0
 11
66.099999999999909
 21
-164.65000000000001
 31
0.0
  0
LINE
  8
DETAIL
  6
CONTINUOUS
 62
     5
 10
65.5
 20
-170.15000000000001
 30
0.0
 11
66.099999999999909
 21
-170.15000000000001
 31
0.0
  0
LINE
  8
DETAIL
  6
CONTINUOUS
 62
     5
 10
66.099999999999909
 20
-162.34999999999999
 30
0.0
 11
65.5
 21
-162.34999999999999
 31
0.0
  0
LINE
  8
DETAIL
  6
CONTINUOUS
 62
     5
 10
66.099999999999909
 20
-175.57674999999989
 30
0.0
 11
66.099999999999909
 21
-162.34999999999999
 31
0.0
  0
LINE
  8
DETAIL
  6
CONTINUOUS
 62
     5
 10
65.5
 20
-175.57674999999989
 30
0.0
 11
65.5
 21
-162.34999999999999
 31
0.0
  0
ARC
  8
DETAIL
  6
CONTINUOUS
 62
     5
 10
64.900000000000091
 20
-175.57674999999989
 30
0.0
 40
0.6
 50
334.34123500000072
 51
0.0
  0
LINE
  8
DETAIL
  6
CONTINUOUS
 62
     5
 10
66.099449999999706
 20
-175.84999999999999
 30
0.0
 11
65.434369999999944
 21
-175.84999999999999
 31
0.0
  0
ARC
  8
DETAIL
  6
CONTINUOUS
 62
     5
 10
64.900000000000091
 20
-175.57674999999989
 30
0.0
 40
1.2
 50
334.34123500000072
 51
0.0
  0
LINE
  8
DETAIL
  6
CONTINUOUS
 62
     5
 10
63.5
 20
-169.10599999999999
 30
0.0
 11
61.5
 21
-169.10599999999999
 31
0.0
  0
LINE
  8
DETAIL
  6
CONTINUOUS
 62
     5
 10
61.758260000000057
 20
-162.1626
 30
0.0
 11
63.258260000000057
 21
-162.6380799999998
 31
0.0
  0
LINE
  8
DETAIL
  6
CONTINUOUS
 62
     5
 10
61.848909999999712
 20
-161.87662
 30
0.0
 11
63.348909999999712
 21
-162.35211000000001
 31
0.0
  0
LINE
  8
DETAIL
  6
CONTINUOUS
 62
     5
 10
61.758260000000057
 20
-160.63739000000001
 30
0.0
 11
63.258260000000057
 21
-160.16191000000001
 31
0.0
  0
LINE
  8
DETAIL
  6
CONTINUOUS
 62
     5
 10
61.848909999999712
 20
-160.92337000000001
 30
0.0
 11
63.348909999999712
 21
-160.44789
 31
0.0
  0
ARC
  8
DETAIL
  6
CONTINUOUS
 62
     5
 10
63.5
 20
-161.87548000000001
 30
0.0
 40
0.8
 50
252.41204599999401
 51
270.0
  0
ARC
  8
DETAIL
  6
CONTINUOUS
 62
     5
 10
63.5
 20
-161.87548000000001
 30
0.0
 40
0.5
 50
252.41204599999401
 51
270.0
  0
ARC
  8
DETAIL
  6
CONTINUOUS
 62
     5
 10
63.5
 20
-160.92452
 30
0.0
 40
0.5
 50
90.0
 51
107.58795400000599
  0
ARC
  8
DETAIL
  6
CONTINUOUS
 62
     5
 10
63.5
 20
-160.92452
 30
0.0
 40
0.8
 50
90.0
 51
107.58795400000599
  0
ARC
  8
DETAIL
  6
CONTINUOUS
 62
     5
 10
62.0
 20
-161.40000000000001
 30
0.0
 40
0.8
 50
107.58795400000599
 51
252.41204599999401
  0
ARC
  8
DETAIL
  6
CONTINUOUS
 62
     5
 10
62.0
 20
-161.40000000000001
 30
0.0
 40
0.5
 50
107.58795400000599
 51
252.41204599999401
  0
LINE
  8
DETAIL
  6
CONTINUOUS
 62
     5
 10
63.199999999999818
 20
-172.40000000000001
 30
0.0
 11
63.199999999999818
 21
-169.10599999999999
 31
0.0
  0
LINE
  8
DETAIL
  6
CONTINUOUS
 62
     5
 10
63.199999999999818
 20
-172.40000000000001
 30
0.0
 11
63.5
 21
-172.40000000000001
 31
0.0
  0
LINE
  8
DETAIL
  6
CONTINUOUS
 62
     5
 10
57.5
 20
-152.40000000000001
 30
0.0
 11
63.5
 21
-152.40000000000001
 31
0.0
  0
ARC
  8
DETAIL
  6
CONTINUOUS
 62
     5
 10
60.025869999999941
 20
-148.40000000000001
 30
0.0
 40
2.0
 50
270.0
 51
346.51238999999651
  0
LINE
  8
DETAIL
  6
CONTINUOUS
 62
     5
 10
57.5
 20
-150.40000000000001
 30
0.0
 11
60.025869999999941
 21
-150.40000000000001
 31
0.0
  0
ARC
  8
DETAIL
  6
CONTINUOUS
 62
     5
 10
57.5
 20
-151.40000000000001
 30
0.0
 40
1.0
 50
90.0
 51
270.0
  0
LINE
  8
DETAIL
  6
CONTINUOUS
 62
     5
 10
95.0
 20
-59.399999999999977
 30
0.0
 11
115.0
 21
-59.399999999999977
 31
0.0
  0
LINE
  8
DETAIL
  6
CONTINUOUS
 62
     5
 10
95.0
 20
-79.399999999999977
 30
0.0
 11
115.0
 21
-79.399999999999977
 31
0.0
  0
ARC
  8
DETAIL
  6
CONTINUOUS
 62
     5
 10
95.0
 20
-77.399999999999977
 30
0.0
 40
2.0
 50
180.0
 51
270.0
  0
LINE
  8
DETAIL
  6
CONTINUOUS
 62
     5
 10
93.0
 20
-77.399999999999977
 30
0.0
 11
93.0
 21
-61.399999999999977
 31
0.0
  0
ARC
  8
DETAIL
  6
CONTINUOUS
 62
     5
 10
95.0
 20
-61.399999999999977
 30
0.0
 40
2.0
 50
90.0
 51
180.0
  0
LINE
  8
DETAIL
  6
CONTINUOUS
 62
     5
 10
120.0
 20
-53.399999999999977
 30
0.0
 11
120.0
 21
-55.399999999999977
 31
0.0
  0
ARC
  8
DETAIL
  6
CONTINUOUS
 62
     5
 10
115.0
 20
-61.399999999999977
 30
0.0
 40
2.0
 50
0.0
 51
90.0
  0
LINE
  8
DETAIL
  6
CONTINUOUS
 62
     5
 10
117.0
 20
-77.399999999999977
 30
0.0
 11
117.0
 21
-61.399999999999977
 31
0.0
  0
ARC
  8
DETAIL
  6
CONTINUOUS
 62
     5
 10
115.0
 20
-77.399999999999977
 30
0.0
 40
2.0
 50
270.0
 51
0.0
  0
CIRCLE
  8
DETAIL
  6
CONTINUOUS
 62
     5
 10
104.5
 20
-69.399999999999977
 30
0.0
 40
2.3999999999999999
  0
CIRCLE
  8
DETAIL
  6
CONTINUOUS
 62
     5
 10
104.5
 20
-69.399999999999977
 30
0.0
 40
1.6000000000000001
  0
ARC
  8
DETAIL
  6
CONTINUOUS
 62
     5
 10
197.6252300000001
 20
-108.55
 30
0.0
 40
3.75
 50
90.0
 51
180.0
  0
ARC
  8
DETAIL
  6
CONTINUOUS
 62
     5
 10
197.6252300000001
 20
-108.55
 30
0.0
 40
7.5
 50
90.0
 51
180.0
  0
LINE
  8
DETAIL
  6
CONTINUOUS
 62
     5
 10
416.14771999999988
 20
-104.8
 30
0.0
 11
346.19415000000032
 21
-104.8
 31
0.0
  0
LINE
  8
DETAIL
  6
CONTINUOUS
 62
     5
 10
416.14771999999988
 20
-101.05
 30
0.0
 11
352.06408999999991
 21
-101.05
 31
0.0
  0
LINE
  8
DETAIL
  6
CONTINUOUS
 62
     5
 10
300.0
 20
-0.6000000000000227
 30
0.0
 11
300.0
 21
-101.05
 31
0.0
  0
LINE
  8
DETAIL
  6
CONTINUOUS
 62
     5
 10
280.0
 20
0.6000000000000227
 30
0.0
 11
280.0
 21
-101.05
 31
0.0
  0
ARC
  8
DETAIL
  6
CONTINUOUS
 62
     5
 10
334.39296000000007
 20
-95.407460000000015
 30
0.0
 40
8.0
 50
289.99999999999147
 51
90.003984000018562
  0
ARC
  8
DETAIL
  6
CONTINUOUS
 62
     5
 10
339.86527999999998
 20
-110.44253999999999
 30
0.0
 40
8.0
 50
109.9999999999915
 51
272.21517200001119
  0
ARC
  8
DETAIL
  6
CONTINUOUS
 62
     5
 10
346.39296000000007
 20
-95.407460000000015
 30
0.0
 40
8.0
 50
289.99999999999147
 51
90.003984000018562
  0
ARC
  8
DETAIL
  6
CONTINUOUS
 62
     5
 10
351.86527999999998
 20
-110.44253999999999
 30
0.0
 40
8.0
 50
109.9999999999915
 51
272.21517200001119
  0
LINE
  8
DETAIL
  6
CONTINUOUS
 62
     5
 10
280.0
 20
0.6000000000000227
 30
0.0
 11
298.80000000000018
 21
0.6000000000000227
 31
0.0
  0
ARC
  8
DETAIL
  6
CONTINUOUS
 62
     5
 10
298.80000000000018
 20
-0.6000000000000227
 30
0.0
 40
1.2
 50
0.0
 51
90.0
  0
LINE
  8
DETAIL
  6
CONTINUOUS
 62
     5
 10
452.39771999999988
 20
-114.80074999999999
 30
0.0
 11
437.39771999999988
 21
-114.80074999999999
 31
0.0
  0
LINE
  8
DETAIL
  6
CONTINUOUS
 62
     5
 10
453.64771999999988
 20
-118.55074999999999
 30
0.0
 11
436.14771999999988
 21
-118.55074999999999
 31
0.0
  0
ARC
  8
DETAIL
  6
CONTINUOUS
 62
     5
 10
441.14771999999988
 20
-99.800749999999994
 30
0.0
 40
3.75
 50
90.0
 51
179.99998200000081
  0
LINE
  8
DETAIL
  6
CONTINUOUS
 62
     5
 10
437.39774000000028
 20
-108.55083999999999
 30
0.0
 11
418.50089000000031
 21
-107.43926999999999
 31
0.0
  0
LINE
  8
DETAIL
  6
CONTINUOUS
 62
     5
 10
438.4068699999998
 20
-97.241399999999999
 30
0.0
 11
418.50090999999969
 21
-98.412320000000022
 31
0.0
  0
LINE
  8
DETAIL
  6
CONTINUOUS
 62
     5
 10
416.14771999999988
 20
-104.94353
 30
0.0
 11
416.14771999999988
 21
-100.90804
 31
0.0
  0
ARC
  8
DETAIL
  6
CONTINUOUS
 62
     5
 10
418.64768999999978
 20
-104.94353
 30
0.0
 40
2.5
 50
179.99998200000081
 51
266.63382799999403
  0
ARC
  8
DETAIL
  6
CONTINUOUS
 62
     5
 10
418.64768999999978
 20
-100.90804
 30
0.0
 40
2.5
 50
93.366027000010163
 51
179.99998200000081
  0
LINE
  8
DETAIL
  6
CONTINUOUS
 62
     5
 10
437.39771999999988
 20
-114.80074999999999
 30
0.0
 11
437.39771999999988
 21
-99.800749999999994
 31
0.0
  0
LINE
  8
DETAIL
  6
CONTINUOUS
 62
     5
 10
436.14771999999988
 20
-116.05074999999999
 30
0.0
 11
436.14771999999988
 21
-118.55074999999999
 31
0.0
  0
ARC
  8
DETAIL
  6
CONTINUOUS
 62
     5
 10
437.39771999999988
 20
-116.05074999999999
 30
0.0
 40
1.25
 50
90.0
 51
179.99998200000081
  0
LINE
  8
DETAIL
  6
CONTINUOUS
 62
     5
 10
448.64771999999988
 20
-137.17573999999999
 30
0.0
 11
448.64771999999988
 21
-118.55074999999999
 31
0.0
  0
LINE
  8
DETAIL
  6
CONTINUOUS
 62
     5
 10
441.14771999999988
 20
-137.17573999999999
 30
0.0
 11
441.14771999999988
 21
-118.55074999999999
 31
0.0
  0
CIRCLE
  8
DETAIL
  6
CONTINUOUS
 62
     5
 10
444.89771999999988
 20
-132.30074999999999
 30
0.0
 40
1.875
  0
CIRCLE
  8
DETAIL
  6
CONTINUOUS
 62
     5
 10
444.89771999999988
 20
-132.30074999999999
 30
0.0
 40
2.5
  0
LINE
  8
DETAIL
  6
CONTINUOUS
 62
     5
 10
448.64771999999988
 20
-137.30074999999999
 30
0.0
 11
441.14771999999988
 21
-137.30074999999999
 31
0.0
  0
ARC
  8
DETAIL
  6
CONTINUOUS
 62
     5
 10
444.89771999999988
 20
-134.17574999999999
 30
0.0
 40
5.0
 50
221.40966999999679
 51
318.59031199999453
  0
LINE
  8
DETAIL
  6
CONTINUOUS
 62
     5
 10
452.39771999999988
 20
-114.80074999999999
 30
0.0
 11
452.39771999999988
 21
-99.800749999999994
 31
0.0
  0
LINE
  8
DETAIL
  6
CONTINUOUS
 62
     5
 10
448.64771999999988
 20
-96.050749999999994
 30
0.0
 11
441.14771999999988
 21
-96.050749999999994
 31
0.0
  0
ARC
  8
DETAIL
  6
CONTINUOUS
 62
     5
 10
452.39771999999988
 20
-116.05074999999999
 30
0.0
 40
1.25
 50
0.0000009999948896
 51
90.0
  0
ARC
  8
DETAIL
  6
CONTINUOUS
 62
     5
 10
448.64771999999988
 20
-99.800749999999994
 30
0.0
 40
3.75
 50
0.0000009999948896
 51
90.0
  0
LINE
  8
DETAIL
  6
CONTINUOUS
 62
     5
 10
453.64771999999988
 20
-116.05074999999999
 30
0.0
 11
453.64771999999988
 21
-118.55074999999999
 31
0.0
  0
LINE
  8
OUTLINE
  6
CONTINUOUS
 62
     3
 10
280.0
 20
-597.30192999999997
 30
0.0
 11
280.0
 21
-595.39999999999998
 31
0.0
  0
LINE
  8
OUTLINE
  6
CONTINUOUS
 62
     3
 10
-280.0
 20
-597.30192999999997
 30
0.0
 11
-280.0
 21
-595.39999999999998
 31
0.0
  0
TEXT
  8
NOTE
  6
CONTINUOUS
 62
     4
 10
-44.680513000000253
 20
-233.98717199999999
 30
0.0
 40
64.0
  1
EA
 41
0.9
  0
TEXT
  8
NOTE
  6
CONTINUOUS
 62
     4
 10
532.64134800000011
 20
66.049391000000014
 30
0.0
 40
64.0
  1
EL
 41
0.9
  0
LINE
  8
NOTE
  6
CONTINUOUS
 62
     4
 10
635.82997100000011
 20
51.617080999999978
 30
0.0
 11
507.45309300000008
 21
51.617080999999978
 31
0.0
  0
LINE
  8
NOTE
  6
CONTINUOUS
 62
     4
 10
507.45309300000008
 20
51.617080999999978
 30
0.0
 11
192.0002300000001
 21
-216.58437000000001
 31
0.0
  0
LINE
  8
NOTE
  6
CONTINUOUS
 62
     4
 10
192.0002300000001
 20
-216.58437000000001
 30
0.0
 11
201.63525299999989
 21
-201.27868599999999
 31
0.0
  0
LINE
  8
NOTE
  6
CONTINUOUS
 62
     4
 10
192.0002300000001
 20
-216.58437000000001
 30
0.0
 11
208.6564920000001
 21
-209.53691799999999
 31
0.0
  0
ENDSEC
  0
EOF
