  0
SECTION
  2
HEADER
  9
$ACADVER
  1
AC1009
  9
$DWGCODEPAGE
  3
dos932
  9
$INSBASE
 10
0.0
 20
0.0
 30
0.0
  9
$EXTMIN
 10
-1057.736189998381
 20
-1315.063465869827
 30
-0.0015258207003583
  9
$EXTMAX
 10
1249.4339107529181
 20
603.69873850571275
 30
0.0000000349246037
  9
$LIMMIN
 10
-2970.0
 20
-2100.0
  9
$LIMMAX
 10
2970.0
 20
2100.0
  9
$ORTHOMODE
 70
     1
  9
$REGENMODE
 70
     1
  9
$FILLMODE
 70
     1
  9
$QTEXTMODE
 70
     0
  9
$MIRRTEXT
 70
     0
  9
$LTSCALE
 40
20.0
  9
$ATTMODE
 70
     1
  9
$TEXTSIZE
 40
64.0
  9
$TRACEWID
 40
0.05
  9
$TEXTSTYLE
  7
STANDARD
  9
$CLAYER
  8
SIZE
  9
$CELTYPE
  6
CONTINUOUS
  9
$CECOLOR
 62
     7
  9
$DIMSCALE
 40
1.0
  9
$DIMASZ
 40
12.0
  9
$DIMEXO
 40
20.0
  9
$DIMDLI
 40
200.0
  9
$DIMRND
 40
0.0
  9
$DIMDLE
 40
0.0
  9
$DIMEXE
 40
20.0
  9
$DIMTP
 40
0.0
  9
$DIMTM
 40
0.0
  9
$DIMTXT
 40
64.0
  9
$DIMCEN
 40
0.09
  9
$DIMTSZ
 40
0.0
  9
$DIMTOL
 70
     0
  9
$DIMLIM
 70
     0
  9
$DIMTIH
 70
     0
  9
$DIMTOH
 70
     0
  9
$DIMSE1
 70
     0
  9
$DIMSE2
 70
     0
  9
$DIMTAD
 70
     1
  9
$DIMZIN
 70
     8
  9
$DIMBLK
  1

  9
$DIMASO
 70
     1
  9
$DIMSHO
 70
     0
  9
$DIMPOST
  1

  9
$DIMAPOST
  1

  9
$DIMALT
 70
     0
  9
$DIMALTD
 70
     2
  9
$DIMALTF
 40
25.399999999999999
  9
$DIMLFAC
 40
1.0
  9
$DIMTOFL
 70
     1
  9
$DIMTVP
 40
0.0
  9
$DIMTIX
 70
     1
  9
$DIMSOXD
 70
     0
  9
$DIMSAH
 70
     0
  9
$DIMBLK1
  1

  9
$DIMBLK2
  1

  9
$DIMSTYLE
  2
STANDARD
  9
$DIMCLRD
 70
     7
  9
$DIMCLRE
 70
     7
  9
$DIMCLRT
 70
     7
  9
$DIMTFAC
 40
1.0
  9
$DIMGAP
 40
25.0
  9
$LUNITS
 70
     2
  9
$LUPREC
 70
     4
  9
$SKETCHINC
 40
0.1
  9
$FILLETRAD
 40
3.0
  9
$AUNITS
 70
     1
  9
$AUPREC
 70
     3
  9
$MENU
  1
ACAD
  9
$ELEVATION
 40
0.0
  9
$PELEVATION
 40
0.0
  9
$THICKNESS
 40
0.0
  9
$LIMCHECK
 70
     0
  9
$CHAMFERA
 40
0.0
  9
$CHAMFERB
 40
0.0
  9
$SKPOLY
 70
     0
  9
$TDCREATE
 40
2453019.62301037
  9
$TDUPDATE
 40
2459025.588668403
  9
$TDINDWG
 40
1.7216016319
  9
$TDUSRTIMER
 40
1.7216016319
  9
$USRTIMER
 70
     1
  9
$ANGBASE
 50
0.0
  9
$ANGDIR
 70
     0
  9
$PDMODE
 70
     3
  9
$PDSIZE
 40
-2.0
  9
$PLINEWID
 40
0.0
  9
$SPLFRAME
 70
     0
  9
$SPLINETYPE
 70
     6
  9
$SPLINESEGS
 70
     8
  9
$SURFTAB1
 70
     6
  9
$SURFTAB2
 70
     6
  9
$SURFTYPE
 70
     6
  9
$SURFU
 70
     6
  9
$SURFV
 70
     6
  9
$UCSNAME
  2

  9
$UCSORG
 10
0.0
 20
0.0
 30
0.0
  9
$UCSXDIR
 10
1.0
 20
0.0
 30
0.0
  9
$UCSYDIR
 10
0.0
 20
1.0
 30
0.0
  9
$PUCSNAME
  2

  9
$PUCSORG
 10
0.0
 20
0.0
 30
0.0
  9
$PUCSXDIR
 10
1.0
 20
0.0
 30
0.0
  9
$PUCSYDIR
 10
0.0
 20
1.0
 30
0.0
  9
$USERI1
 70
     0
  9
$USERI2
 70
     0
  9
$USERI3
 70
     0
  9
$USERI4
 70
     0
  9
$USERI5
 70
     0
  9
$USERR1
 40
20.0
  9
$USERR2
 40
0.0
  9
$USERR3
 40
0.0
  9
$USERR4
 40
0.0
  9
$USERR5
 40
0.0
  9
$WORLDVIEW
 70
     1
  9
$SHADEDGE
 70
     3
  9
$SHADEDIF
 70
    70
  9
$TILEMODE
 70
     1
  9
$MAXACTVP
 70
    48
  9
$PINSBASE
 10
0.0
 20
0.0
 30
0.0
  9
$PLIMCHECK
 70
     0
  9
$PEXTMIN
 10
-100000000000000000000.0
 20
-100000000000000000000.0
 30
-100000000000000000000.0
  9
$PEXTMAX
 10
100000000000000000000.0
 20
100000000000000000000.0
 30
100000000000000000000.0
  9
$PLIMMIN
 10
0.0
 20
0.0
  9
$PLIMMAX
 10
12.0
 20
9.0
  9
$UNITMODE
 70
     0
  9
$VISRETAIN
 70
     0
  9
$PLINEGEN
 70
     0
  9
$PSLTSCALE
 70
     0
  9
$TREEDEPTH
 70
  3020
  9
$ATTDIA
 70
     0
  9
$ATTREQ
 70
     1
  9
$BLIPMODE
 70
     1
  9
$COORDS
 70
     1
  9
$DRAGMODE
 70
     2
  9
$OSMODE
 70
     0
  9
$HANDLING
 70
     0
  9
$HANDSEED
  5
F159
  0
ENDSEC
  0
SECTION
  2
TABLES
  0
TABLE
  2
LTYPE
 70
     3
  0
LTYPE
  2
CONTINUOUS
 70
     0
  3
実線
 72
    65
 73
     0
 40
0.0
  0
LTYPE
  2
DASHDOT
 70
     0
  3
____ _ ____ _ ____ _ ____ _ ____ _ ____ _ ____
 72
    65
 73
     4
 40
5.5
 49
4.0
 49
-0.6
 49
0.3
 49
-0.6
  0
LTYPE
  2
CONTINOUS
 70
     0
  3
Solid line
 72
    65
 73
     0
 40
0.0
  0
ENDTAB
  0
TABLE
  2
LAYER
 70
    12
  0
LAYER
  2
0
 70
     0
 62
     7
  6
CONTINUOUS
  0
LAYER
  2
BASIS
 70
     0
 62
     6
  6
DASHDOT
  0
LAYER
  2
OUTLINE
 70
     0
 62
     3
  6
CONTINUOUS
  0
LAYER
  2
DETAIL
 70
     0
 62
     5
  6
CONTINUOUS
  0
LAYER
  2
SIZE
 70
     0
 62
    30
  6
CONTINUOUS
  0
LAYER
  2
ARRANGE
 70
     0
 62
     1
  6
CONTINUOUS
  0
LAYER
  2
DEFPOINTS
 70
     0
 62
     7
  6
CONTINUOUS
  0
LAYER
  2
ETC
 70
     0
 62
    61
  6
CONTINUOUS
  0
LAYER
  2
FIX
 70
     0
 62
    11
  6
CONTINUOUS
  0
LAYER
  2
NOTE
 70
     0
 62
     4
  6
CONTINUOUS
  0
LAYER
  2
SERVICESPACE
 70
    64
 62
     2
  6
DASHDOT
  0
LAYER
  2
SYMBOLLINE
 70
    64
 62
    15
  6
CONTINUOUS
  0
ENDTAB
  0
TABLE
  2
STYLE
 70
     1
  0
STYLE
  2
STANDARD
 70
     0
 40
64.0
 41
0.9
 50
0.0
 71
     0
 42
64.0
  3
SIMPLEX.shx
  4
BIGFONT.shx
  0
ENDTAB
  0
TABLE
  2
APPID
 70
    19
  0
APPID
  2
ACAD
 70
     0
  0
APPID
  2
AUTOCAD_POSTSCRIPT_FIGURE
 70
     0
  0
APPID
  2
ACAD_EXEMPT_FROM_CAD_STANDARDS
 70
     0
  0
APPID
  2
ACAD_PSEXT
 70
     0
  0
APPID
  2
ACAUTHENVIRON
 70
     0
  0
APPID
  2
GENIUS_GENOENT_13
 70
     0
  0
APPID
  2
GENIUS_GENCFG_13
 70
     0
  0
APPID
  2
GENIUS_GENCFG0_13
 70
     0
  0
APPID
  2
GENIUS_GENCFG1_13
 70
     0
  0
APPID
  2
GENIUS_GENCFG2_13
 70
     0
  0
APPID
  2
GENIUS_GENCFG3_13
 70
     0
  0
APPID
  2
GENIUS_GENCFG4_13
 70
     0
  0
APPID
  2
GENIUS_GEVCFG0_13
 70
     0
  0
APPID
  2
CONTENTBLOCKICON
 70
     0
  0
APPID
  2
CONTENTBLOCKDESCRIPTION
 70
     0
  0
APPID
  2
ACAD_NAV_VCDISPLAY
 70
     0
  0
APPID
  2
ACAD_MLEADERVER
 70
     0
  0
APPID
  2
ACDBDYNAMICBLOCKTRUENAME
 70
     0
  0
APPID
  2
ACDBDYNAMICBLOCKGUID
 70
     0
  0
ENDTAB
  0
TABLE
  2
DIMSTYLE
 70
     1
  0
DIMSTYLE
  2
STANDARD
 70
     0
  3

  4

  5
_ORIGIN
  6

  7

 40
1.0
 41
12.0
 42
20.0
 43
200.0
 44
20.0
 45
0.0
 46
0.0
 47
0.0
 48
0.0
140
64.0
141
0.09
142
0.0
143
25.399999999999999
144
1.0
145
0.0
146
1.0
147
25.0
 71
     0
 72
     0
 73
     0
 74
     0
 75
     0
 76
     0
 77
     1
 78
     8
170
     0
171
     2
172
     1
173
     0
174
     1
175
     0
176
     7
177
     7
178
     7
  0
ENDTAB
  0
TABLE
  2
VIEW
 70
     1
  0
VIEW
  2
ALL
 70
     0
 40
4282.6198079999986
 10
0.0
 20
41.309904000000003
 41
5940.0
 11
0.0
 21
0.0
 31
1.0
 12
0.0
 22
0.0
 32
0.0
 42
50.0
 43
0.0
 44
0.0
 50
0.0
 71
     0
  0
ENDTAB
  0
TABLE
  2
UCS
 70
     0
  0
ENDTAB
  0
TABLE
  2
VPORT
 70
     1
  0
VPORT
  2
*ACTIVE
 70
     0
 10
0.0
 20
0.0
 11
1.0
 21
1.0
 12
95.848860377268579
 22
-355.68236368205731
 13
0.0
 23
0.0
 14
1.0
 24
1.0
 15
0.0
 25
0.0
 16
0.0
 26
0.0
 36
1.0
 17
0.0
 27
0.0
 37
0.0
 40
1931.483279763665
 41
1.747787610619469
 42
50.0
 43
0.0
 44
0.0
 50
0.0
 51
0.0
 71
     0
 72
  1000
 73
     1
 74
     3
 75
     0
 76
     0
 77
     0
 78
     0
  0
ENDTAB
  0
ENDSEC
  0
SECTION
  2
BLOCKS
  0
BLOCK
  8
0
  2
_ORIGIN
 70
     0
 10
0.0
 20
0.0
 30
0.0
  3
_ORIGIN
  1
_ORIGIN
  0
CIRCLE
  8
0
  6
CONTINUOUS
 62
     7
 10
0.0
 20
0.0
 30
0.0
 40
0.5
  0
LINE
  8
0
  6
CONTINUOUS
 62
     7
 10
0.0
 20
0.0
 30
0.0
 11
-1.0
 21
0.0
 31
0.0
  0
ENDBLK
  8
0
  0
ENDSEC
  0
SECTION
  2
ENTITIES
  0
LINE
  8
NOTE
  6
CONTINUOUS
 62
     4
 10
-194.19079851185691
 20
-240.46437864356179
 30
0.0
 11
-216.99999900000009
 21
-200.0
 31
0.0
  0
LINE
  8
NOTE
  6
CONTINUOUS
 62
     4
 10
-216.99999900000009
 20
-200.0
 30
0.0
 11
-218.56906132532549
 21
-244.95335135209189
 31
0.0
  0
LINE
  8
NOTE
  6
CONTINUOUS
 62
     4
 10
-171.6465639999999
 20
-420.23874999999998
 30
0.0
 11
-216.99999900000009
 21
-200.0
 31
0.0
  0
LINE
  8
NOTE
  6
CONTINUOUS
 62
     4
 10
-473.69056
 20
76.097555000000057
 30
0.0
 11
-289.99999899999989
 21
-200.0
 31
0.0
  0
LINE
  8
NOTE
  6
CONTINUOUS
 62
     4
 10
-320.04415199999988
 20
-173.592635
 30
0.0
 11
-289.99999899999989
 21
-200.0
 31
0.0
  0
LINE
  8
NOTE
  6
CONTINUOUS
 62
     4
 10
-289.99999899999989
 20
-200.0
 30
0.0
 11
-302.81531699999982
 21
-162.108475
 31
0.0
  0
LINE
  8
NOTE
  6
CONTINUOUS
 62
     4
 10
140.7364229999998
 20
-924.22553800000003
 30
0.0
 11
405.18842599999971
 21
-924.22553800000003
 31
0.0
  0
TEXT
  8
NOTE
  6
CONTINUOUS
 62
     4
 10
156.90801999999991
 20
-902.30730500000004
 30
0.0
 40
64.0
  1
4-φ8
 41
0.9
  0
POINT
  8
ARRANGE
  6
CONTINUOUS
 62
     1
 10
0.0
 20
0.0
 30
0.0
  0
LINE
  8
DETAIL
  6
CONTINUOUS
 62
     5
 10
-219.99999900000009
 20
-185.0
 30
0.0
 11
-69.999999000000116
 21
-185.0
 31
0.0
  0
TEXT
  8
NOTE
  6
CONTINUOUS
 62
     4
 10
-1052.5714149999999
 20
109.2757919999999
 30
0.0
 40
64.0
  1
AH 2×2-φ25
 41
0.9
  0
LINE
  8
NOTE
  6
CONTINUOUS
 62
     4
 10
-171.6465639999999
 20
-420.23874999999998
 30
0.0
 11
-61.686599999999999
 21
-420.23874999999998
 31
0.0
  0
TEXT
  8
NOTE
  6
CONTINUOUS
 62
     4
 10
-155.75497799999991
 20
-399.92185100000012
 30
0.0
 40
64.0
  1
EL
 41
0.9
  0
LINE
  8
DETAIL
  6
CONTINOUS
 62
     5
 10
-319.99999900000012
 20
-600.0
 30
0.0
 11
-319.99999900000012
 21
-200.0
 31
0.0
  0
LINE
  8
DETAIL
  6
CONTINOUS
 62
     5
 10
-344.99999900000012
 20
-200.0
 30
0.0
 11
-344.99999900000012
 21
0.0
 31
0.0
  0
LINE
  8
DETAIL
  6
CONTINOUS
 62
     5
 10
-399.99999900000012
 20
-200.0
 30
0.0
 11
-399.99999900000012
 21
0.0
 31
0.0
  0
LINE
  8
DETAIL
  6
CONTINOUS
 62
     5
 10
-399.99999900000012
 20
0.0
 30
0.0
 11
-344.99999900000012
 21
0.0
 31
0.0
  0
LINE
  8
DETAIL
  6
CONTINOUS
 62
     5
 10
-414.35512499999999
 20
-200.0
 30
0.0
 11
0.0000010000001112
 21
-200.0
 31
0.0
  0
LINE
  8
DETAIL
  6
CONTINOUS
 62
     5
 10
0.0000010000001112
 20
-600.0
 30
0.0
 11
-322.95429100000001
 21
-600.0
 31
0.0
  0
LINE
  8
DETAIL
  6
CONTINOUS
 62
     5
 10
0.0000010000001112
 20
-600.0
 30
0.0
 11
0.0000010000001112
 21
-200.0
 31
0.0
  0
ARC
  8
DETAIL
  6
CONTINOUS
 62
     5
 10
-334.5540759999999
 20
51.0
 30
0.0
 40
650.0
 50
248.3569520000047
 51
268.63835500000062
  0
LINE
  8
DETAIL
  6
CONTINOUS
 62
     5
 10
-596.21892699999989
 20
-459.31670100000002
 30
0.0
 11
-430.20377699999989
 21
-211.41966899999991
 31
0.0
  0
LINE
  8
DETAIL
  6
CONTINOUS
 62
     5
 10
-583.84268699999984
 20
-542.44387500000005
 30
0.0
 11
-599.99999900000012
 21
-482.14396499999998
 31
0.0
  0
ARC
  8
DETAIL
  6
CONTINOUS
 62
     5
 10
-406.93892599999981
 20
-227.0
 30
0.0
 40
28.0
 50
105.3588859999962
 51
146.19001800000231
  0
ARC
  8
DETAIL
  6
CONTINOUS
 62
     5
 10
-572.95407599999999
 20
-474.89703200000008
 30
0.0
 40
28.0
 50
146.19001800000231
 51
194.9999999999944
  0
ARC
  8
DETAIL
  6
CONTINOUS
 62
     5
 10
-568.38787400000001
 20
-538.30277000000001
 30
0.0
 40
16.0
 50
194.9999999999944
 51
248.3569520000047
  0
ARC
  8
DETAIL
  6
CONTINUOUS
 62
     5
 10
-232.9995899999999
 20
-196.0
 30
0.0
 40
1.0
 50
90.0
 51
180.0
  0
LINE
  8
DETAIL
  6
CONTINUOUS
 62
     5
 10
-233.9995899999999
 20
-200.0
 30
0.0
 11
-233.9995899999999
 21
-196.0
 31
0.0
  0
LINE
  8
DETAIL
  6
CONTINUOUS
 62
     5
 10
-56.499589999999898
 20
-195.0
 30
0.0
 11
-232.9995899999999
 21
-195.0
 31
0.0
  0
LINE
  8
DETAIL
  6
CONTINUOUS
 62
     5
 10
-219.87507700000009
 20
-184.9686879999999
 30
0.0
 11
-220.59881200000001
 21
-185.05950999999999
 31
0.0
  0
ARC
  8
DETAIL
  6
CONTINUOUS
 62
     5
 10
-219.9995899999999
 20
-183.97647000000009
 30
0.0
 40
1.0
 50
277.15266900000438
 51
0.0
  0
LINE
  8
DETAIL
  6
CONTINUOUS
 62
     5
 10
-221.9995899999999
 20
-189.40000000000009
 30
0.0
 11
-221.9995899999999
 21
-186.6470589999999
 31
0.0
  0
ARC
  8
DETAIL
  6
CONTINUOUS
 62
     5
 10
-231.9995899999999
 20
-189.40000000000009
 30
0.0
 40
10.0
 50
325.94420199999593
 51
0.0
  0
ARC
  8
DETAIL
  6
CONTINUOUS
 62
     5
 10
-220.39958999999999
 20
-186.6470589999999
 30
0.0
 40
1.6000000000000001
 50
97.152669000004423
 51
180.0
  0
CIRCLE
  8
ARRANGE
  6
CONTINUOUS
 62
     1
 10
0.0
 20
0.0
 30
0.0
 40
40.0
  0
LINE
  8
NOTE
  6
CONTINUOUS
 62
     4
 10
0.0000010000001112
 20
-280.0
 30
0.0
 11
0.0000010000001112
 21
-240.0
 31
0.0
  0
LINE
  8
NOTE
  6
CONTINUOUS
 62
     4
 10
-19.999998999999889
 20
-260.0
 30
0.0
 11
20.000001000000111
 21
-260.0
 31
0.0
  0
LINE
  8
NOTE
  6
CONTINUOUS
 62
     4
 10
0.0000010000001112
 20
-515.0
 30
0.0
 11
0.0000010000001112
 21
-475.0
 31
0.0
  0
LINE
  8
NOTE
  6
CONTINUOUS
 62
     4
 10
-19.999998999999889
 20
-495.0
 30
0.0
 11
20.000001000000111
 21
-495.0
 31
0.0
  0
LINE
  8
NOTE
  6
CONTINUOUS
 62
     4
 10
-254.99999900000009
 20
-220.0
 30
0.0
 11
-254.99999900000009
 21
-180.0
 31
0.0
  0
LINE
  8
NOTE
  6
CONTINUOUS
 62
     4
 10
-289.99999899999989
 20
-220.0
 30
0.0
 11
-289.99999899999989
 21
-180.0
 31
0.0
  0
LINE
  8
NOTE
  6
CONTINUOUS
 62
     4
 10
-309.99999900000012
 20
-200.0
 30
0.0
 11
-234.99999900000009
 21
-200.0
 31
0.0
  0
LINE
  8
NOTE
  6
CONTINUOUS
 62
     4
 10
-259.99999900000012
 20
-200.0
 30
0.0
 11
-186.32437908615071
 21
-200.1045852872044
 31
0.0
  0
LINE
  8
NOTE
  6
CONTINUOUS
 62
     4
 10
-473.69056
 20
76.097555000000057
 30
0.0
 11
-1057.6224179999999
 21
76.097555000000057
 31
0.0
  0
CIRCLE
  8
FIX
  6
CONTINUOUS
 62
    11
 10
0.0000010000001112
 20
-260.0
 30
0.0
 40
4.0
  0
CIRCLE
  8
FIX
  6
CONTINUOUS
 62
    11
 10
0.0000010000001112
 20
-495.0
 30
0.0
 40
4.0
  0
CIRCLE
  8
FIX
  6
CONTINUOUS
 62
    11
 10
-289.99999899999989
 20
-200.0
 30
0.0
 40
12.5
  0
CIRCLE
  8
FIX
  6
CONTINUOUS
 62
    11
 10
-254.99999900000009
 20
-200.0
 30
0.0
 40
12.5
  0
LINE
  8
BASIS
  6
DASHDOT
 62
     6
 10
-151.99999900000009
 20
-213.65235699999991
 30
0.0
 11
-151.99999900000009
 21
-109.12141799999991
 31
0.0
  0
LINE
  8
BASIS
  6
DASHDOT
 62
     6
 10
-144.99999900000009
 20
-220.65042799999989
 30
0.0
 11
-144.99999900000009
 21
-101.0869209999998
 31
0.0
  0
LINE
  8
BASIS
  6
DASHDOT
 62
     6
 10
-137.99999899999969
 20
-213.65235699999991
 30
0.0
 11
-137.99999899999969
 21
-109.12141799999991
 31
0.0
  0
TEXT
  8
NOTE
  6
CONTINUOUS
 62
     4
 10
-130.151578
 20
53.181252000000093
 30
0.0
 40
64.0
  1
ダクト接続口可動寸法
 41
0.9
  0
TEXT
  8
NOTE
  6
CONTINUOUS
 62
     4
 10
-192.81856599999989
 20
-288.47511500000002
 30
0.0
 40
64.0
  1
EA
 41
0.9
  0
LINE
  8
DETAIL
  6
CONTINUOUS
 62
     5
 10
-322.95429100000001
 20
-600.0
 30
0.0
 11
-349.99999900000012
 21
-598.81645400000002
 31
0.0
  0
ARC
  8
DETAIL
  6
CONTINUOUS
 62
     5
 10
-57.999589999999898
 20
-189.40000000000009
 30
0.0
 40
10.0
 50
180.0
 51
214.05579800000419
  0
LINE
  8
DETAIL
  6
CONTINUOUS
 62
     5
 10
-70.124103999999988
 20
-184.9686879999999
 30
0.0
 11
-69.400368999999955
 21
-185.05950999999999
 31
0.0
  0
ARC
  8
DETAIL
  6
CONTINUOUS
 62
     5
 10
-69.599590000000035
 20
-186.6470589999999
 30
0.0
 40
1.6000000000000001
 50
0.0
 51
82.847330999995577
  0
ARC
  8
DETAIL
  6
CONTINUOUS
 62
     5
 10
-69.999589999999898
 20
-183.97647000000009
 30
0.0
 40
1.0
 50
180.0
 51
262.84733099999562
  0
LINE
  8
DETAIL
  6
CONTINUOUS
 62
     5
 10
-70.999589999999898
 20
-183.97647000000009
 30
0.0
 11
-70.999589999999898
 21
-145.0
 31
0.0
  0
LINE
  8
DETAIL
  6
CONTINUOUS
 62
     5
 10
-67.999589999999898
 20
-189.40000000000009
 30
0.0
 11
-67.999589999999898
 21
-186.6470589999999
 31
0.0
  0
ARC
  8
DETAIL
  6
CONTINUOUS
 62
     5
 10
-56.499589999999898
 20
-196.0
 30
0.0
 40
1.0
 50
0.0
 51
90.0
  0
LINE
  8
DETAIL
  6
CONTINUOUS
 62
     5
 10
-219.00040799999991
 20
-145.0
 30
0.0
 11
-70.999589999999898
 21
-145.0
 31
0.0
  0
LINE
  8
DETAIL
  6
CONTINUOUS
 62
     5
 10
-55.499589999999898
 20
-196.0
 30
0.0
 11
-55.499589999999898
 21
-200.0
 31
0.0
  0
LINE
  8
NOTE
  6
CONTINUOUS
 62
     4
 10
0.0000010000001112
 20
-495.0
 30
0.0
 11
140.7364229999998
 21
-924.22553800000003
 31
0.0
  0
LINE
  8
NOTE
  6
CONTINUOUS
 62
     4
 10
22.846600999999961
 20
-527.83341100000007
 30
0.0
 11
0.0000010000001112
 21
-495.0
 31
0.0
  0
LINE
  8
NOTE
  6
CONTINUOUS
 62
     4
 10
0.0000010000001112
 20
-495.0
 30
0.0
 11
3.3690309999999499
 21
-534.85786800000005
 31
0.0
  0
LINE
  8
SIZE
  6
CONTINUOUS
 62
    30
 10
-419.99999900000012
 20
0.0
 30
0.0
 11
-798.55593199999998
 21
0.0
 31
0.0
  0
LINE
  8
SIZE
  6
CONTINUOUS
 62
    30
 10
-342.95429100000001
 20
-600.0
 30
0.0
 11
-798.55593199999998
 21
-600.0
 31
0.0
  0
LINE
  8
SIZE
  6
CONTINUOUS
 62
    30
 10
-778.55593199999964
 20
-12.0
 30
0.0
 11
-778.55593199999964
 21
-588.0
 31
0.0
  0
CIRCLE
  8
SIZE
  6
CONTINUOUS
 62
    30
 10
-778.55593199999964
 20
0.0
 30
0.0
 40
6.0
  0
LINE
  8
SIZE
  6
CONTINUOUS
 62
    30
 10
-778.55593199999964
 20
0.0
 30
0.0
 11
-778.55593199999964
 21
-12.0
 31
0.0
  0
CIRCLE
  8
SIZE
  6
CONTINUOUS
 62
    30
 10
-778.55593199999964
 20
-600.0
 30
0.0
 40
6.0
  0
LINE
  8
SIZE
  6
CONTINUOUS
 62
    30
 10
-778.55593199999964
 20
-600.0
 30
0.0
 11
-778.55593199999964
 21
-588.0
 31
0.0
  0
TEXT
  8
SIZE
  6
CONTINUOUS
 62
    30
 10
-803.55593199999998
 20
-374.05714285714282
 30
0.0
 40
64.0
  1
600
 50
90.0
 41
0.9
 72
     1
 11
-803.55593199999998
 21
-300.0
 31
0.0
  0
LINE
  8
SIZE
  6
CONTINUOUS
 62
    30
 10
-599.99999900000012
 20
-502.14396499999998
 30
0.0
 11
-599.99999900000012
 21
-1315.003267999999
 31
0.0
  0
LINE
  8
SIZE
  6
CONTINUOUS
 62
    30
 10
0.0000010000001112
 20
-620.0
 30
0.0
 11
0.0000010000001112
 21
-1315.003267999999
 31
0.0
  0
LINE
  8
SIZE
  6
CONTINUOUS
 62
    30
 10
-587.99999899999989
 20
-1295.0032679999999
 30
0.0
 11
-11.999998999999891
 21
-1295.0032679999999
 31
0.0
  0
CIRCLE
  8
SIZE
  6
CONTINUOUS
 62
    30
 10
-599.99999900000012
 20
-1295.0032679999999
 30
0.0
 40
6.0
  0
LINE
  8
SIZE
  6
CONTINUOUS
 62
    30
 10
-599.99999900000012
 20
-1295.0032679999999
 30
0.0
 11
-587.99999899999989
 21
-1295.0032679999999
 31
0.0
  0
CIRCLE
  8
SIZE
  6
CONTINUOUS
 62
    30
 10
0.0000010000001112
 20
-1295.0032679999999
 30
0.0
 40
6.0
  0
LINE
  8
SIZE
  6
CONTINUOUS
 62
    30
 10
0.0000010000001112
 20
-1295.0032679999999
 30
0.0
 11
-11.999998999999891
 21
-1295.0032679999999
 31
0.0
  0
TEXT
  8
SIZE
  6
CONTINUOUS
 62
    30
 10
-374.05714185714288
 20
-1270.003267999999
 30
0.0
 40
64.0
  1
600
 41
0.9
 72
     1
 11
-299.99999900000012
 21
-1270.003267999999
 31
0.0
  0
LINE
  8
SIZE
  6
CONTINUOUS
 62
    30
 10
0.0000010000001112
 20
-620.0
 30
0.0
 11
0.0000010000001112
 21
-1183.086507
 31
0.0
  0
LINE
  8
SIZE
  6
CONTINUOUS
 62
    30
 10
-319.99999900000012
 20
-620.0
 30
0.0
 11
-319.99999900000012
 21
-1183.086507
 31
0.0
  0
LINE
  8
SIZE
  6
CONTINUOUS
 62
    30
 10
-11.999998999999891
 20
-1163.086507
 30
0.0
 11
-307.99999900000012
 21
-1163.086507
 31
0.0
  0
CIRCLE
  8
SIZE
  6
CONTINUOUS
 62
    30
 10
0.0000010000001112
 20
-1163.086507
 30
0.0
 40
6.0
  0
LINE
  8
SIZE
  6
CONTINUOUS
 62
    30
 10
0.0000010000001112
 20
-1163.086507
 30
0.0
 11
-11.999998999999891
 21
-1163.086507
 31
0.0
  0
CIRCLE
  8
SIZE
  6
CONTINUOUS
 62
    30
 10
-319.99999900000012
 20
-1163.086507
 30
0.0
 40
6.0
  0
LINE
  8
SIZE
  6
CONTINUOUS
 62
    30
 10
-319.99999900000012
 20
-1163.086507
 30
0.0
 11
-307.99999900000012
 21
-1163.086507
 31
0.0
  0
TEXT
  8
SIZE
  6
CONTINUOUS
 62
    30
 10
-234.05714185714299
 20
-1138.086507
 30
0.0
 40
64.0
  1
320
 41
0.9
 72
     1
 11
-159.99999900000009
 21
-1138.086507
 31
0.0
  0
LINE
  8
SIZE
  6
CONTINUOUS
 62
    30
 10
0.0000010000001112
 20
-620.0
 30
0.0
 11
0.0000010000001112
 21
-1056.61906
 31
0.0
  0
LINE
  8
SIZE
  6
CONTINUOUS
 62
    30
 10
-289.99999899999989
 20
-240.0
 30
0.0
 11
-289.99999899999989
 21
-1056.61906
 31
0.0
  0
LINE
  8
SIZE
  6
CONTINUOUS
 62
    30
 10
-11.999998999999891
 20
-1036.61906
 30
0.0
 11
-277.99999899999989
 21
-1036.61906
 31
0.0
  0
CIRCLE
  8
SIZE
  6
CONTINUOUS
 62
    30
 10
0.0000010000001112
 20
-1036.61906
 30
0.0
 40
6.0
  0
LINE
  8
SIZE
  6
CONTINUOUS
 62
    30
 10
0.0000010000001112
 20
-1036.61906
 30
0.0
 11
-11.999998999999891
 21
-1036.61906
 31
0.0
  0
CIRCLE
  8
SIZE
  6
CONTINUOUS
 62
    30
 10
-289.99999899999989
 20
-1036.61906
 30
0.0
 40
6.0
  0
LINE
  8
SIZE
  6
CONTINUOUS
 62
    30
 10
-289.99999899999989
 20
-1036.61906
 30
0.0
 11
-277.99999899999989
 21
-1036.61906
 31
0.0
  0
TEXT
  8
SIZE
  6
CONTINUOUS
 62
    30
 10
-219.05714185714299
 20
-1011.619059999999
 30
0.0
 40
64.0
  1
290
 41
0.9
 72
     1
 11
-144.99999900000009
 21
-1011.619059999999
 31
0.0
  0
LINE
  8
SIZE
  6
CONTINUOUS
 62
    30
 10
0.0000010000001112
 20
-620.0
 30
0.0
 11
0.0000010000001112
 21
-945.35972700000002
 31
0.0
  0
LINE
  8
SIZE
  6
CONTINUOUS
 62
    30
 10
-254.99999900000009
 20
-240.0
 30
0.0
 11
-254.99999900000009
 21
-945.35972700000002
 31
0.0
  0
LINE
  8
SIZE
  6
CONTINUOUS
 62
    30
 10
-11.999998999999891
 20
-925.35972699999979
 30
0.0
 11
-242.99999900000009
 21
-925.35972699999979
 31
0.0
  0
CIRCLE
  8
SIZE
  6
CONTINUOUS
 62
    30
 10
0.0000010000001112
 20
-925.35972699999979
 30
0.0
 40
6.0
  0
LINE
  8
SIZE
  6
CONTINUOUS
 62
    30
 10
0.0000010000001112
 20
-925.35972699999979
 30
0.0
 11
-11.999998999999891
 21
-925.35972699999979
 31
0.0
  0
CIRCLE
  8
SIZE
  6
CONTINUOUS
 62
    30
 10
-254.99999900000009
 20
-925.35972699999979
 30
0.0
 40
6.0
  0
LINE
  8
SIZE
  6
CONTINUOUS
 62
    30
 10
-254.99999900000009
 20
-925.35972699999979
 30
0.0
 11
-242.99999900000009
 21
-925.35972699999979
 31
0.0
  0
TEXT
  8
SIZE
  6
CONTINUOUS
 62
    30
 10
-201.55714185714271
 20
-900.35972699999979
 30
0.0
 40
64.0
  1
255
 41
0.9
 72
     1
 11
-127.4999989999999
 21
-900.35972699999979
 31
0.0
  0
LINE
  8
SIZE
  6
CONTINUOUS
 62
    30
 10
20.000001000000111
 20
-600.0
 30
0.0
 11
356.24431600000031
 21
-600.0
 31
0.0
  0
LINE
  8
SIZE
  6
CONTINUOUS
 62
    30
 10
40.000000999999877
 20
-495.0
 30
0.0
 11
356.24431600000031
 21
-495.0
 31
0.0
  0
LINE
  8
SIZE
  6
CONTINUOUS
 62
    30
 10
336.24431600000031
 20
-588.0
 30
0.0
 11
336.24431600000031
 21
-507.0
 31
0.0
  0
LINE
  8
SIZE
  6
CONTINUOUS
 62
    30
 10
336.24431600000031
 20
-290.10944999999992
 30
0.0
 11
336.24431600000031
 21
-495.0
 31
0.0
  0
TEXT
  8
SIZE
  6
CONTINUOUS
 62
    30
 10
311.24431600000031
 20
-452.25230757142862
 30
0.0
 40
64.0
  1
105
 50
90.0
 41
0.9
 72
     1
 11
311.24431600000031
 21
-383.680879
 31
0.0
  0
CIRCLE
  8
SIZE
  6
CONTINUOUS
 62
    30
 10
336.24431600000031
 20
-600.0
 30
0.0
 40
6.0
  0
LINE
  8
SIZE
  6
CONTINUOUS
 62
    30
 10
336.24431600000031
 20
-600.0
 30
0.0
 11
336.24431600000031
 21
-588.0
 31
0.0
  0
CIRCLE
  8
SIZE
  6
CONTINUOUS
 62
    30
 10
336.24431600000031
 20
-495.0
 30
0.0
 40
6.0
  0
LINE
  8
SIZE
  6
CONTINUOUS
 62
    30
 10
336.24431600000031
 20
-495.0
 30
0.0
 11
336.24431600000031
 21
-507.0
 31
0.0
  0
LINE
  8
SIZE
  6
CONTINUOUS
 62
    30
 10
20.000001000000111
 20
-600.0
 30
0.0
 11
477.18990200000007
 21
-600.0
 31
0.0
  0
LINE
  8
SIZE
  6
CONTINUOUS
 62
    30
 10
40.000000999999877
 20
-260.0
 30
0.0
 11
477.18990200000007
 21
-260.0
 31
0.0
  0
LINE
  8
SIZE
  6
CONTINUOUS
 62
    30
 10
457.18990200000007
 20
-588.0
 30
0.0
 11
457.18990200000007
 21
-272.0
 31
0.0
  0
CIRCLE
  8
SIZE
  6
CONTINUOUS
 62
    30
 10
457.18990200000007
 20
-600.0
 30
0.0
 40
6.0
  0
LINE
  8
SIZE
  6
CONTINUOUS
 62
    30
 10
457.18990200000007
 20
-600.0
 30
0.0
 11
457.18990200000007
 21
-588.0
 31
0.0
  0
CIRCLE
  8
SIZE
  6
CONTINUOUS
 62
    30
 10
457.18990200000007
 20
-260.0
 30
0.0
 40
6.0
  0
LINE
  8
SIZE
  6
CONTINUOUS
 62
    30
 10
457.18990200000007
 20
-260.0
 30
0.0
 11
457.18990200000007
 21
-272.0
 31
0.0
  0
TEXT
  8
SIZE
  6
CONTINUOUS
 62
    30
 10
432.18990200000007
 20
-504.05714285714282
 30
0.0
 40
64.0
  1
340
 50
90.0
 41
0.9
 72
     1
 11
432.18990200000007
 21
-430.0
 31
0.0
  0
LINE
  8
SIZE
  6
CONTINUOUS
 62
    30
 10
20.000001000000111
 20
-600.0
 30
0.0
 11
601.43617400000039
 21
-600.0
 31
0.0
  0
LINE
  8
SIZE
  6
CONTINUOUS
 62
    30
 10
20.000001000000111
 20
-200.0
 30
0.0
 11
601.43617400000039
 21
-200.0
 31
0.0
  0
LINE
  8
SIZE
  6
CONTINUOUS
 62
    30
 10
581.43617400000039
 20
-588.0
 30
0.0
 11
581.43617400000039
 21
-212.0
 31
0.0
  0
CIRCLE
  8
SIZE
  6
CONTINUOUS
 62
    30
 10
581.43617400000039
 20
-600.0
 30
0.0
 40
6.0
  0
LINE
  8
SIZE
  6
CONTINUOUS
 62
    30
 10
581.43617400000039
 20
-600.0
 30
0.0
 11
581.43617400000039
 21
-588.0
 31
0.0
  0
CIRCLE
  8
SIZE
  6
CONTINUOUS
 62
    30
 10
581.43617400000039
 20
-200.0
 30
0.0
 40
6.0
  0
LINE
  8
SIZE
  6
CONTINUOUS
 62
    30
 10
581.43617400000039
 20
-200.0
 30
0.0
 11
581.43617400000039
 21
-212.0
 31
0.0
  0
TEXT
  8
SIZE
  6
CONTINUOUS
 62
    30
 10
556.43617399999994
 20
-474.05714285714282
 30
0.0
 40
64.0
  1
400
 50
90.0
 41
0.9
 72
     1
 11
556.43617399999994
 21
-400.0
 31
0.0
  0
LINE
  8
SIZE
  6
CONTINUOUS
 62
    30
 10
20.000001000000111
 20
-200.0
 30
0.0
 11
476.56504899999982
 21
-200.0
 31
0.0
  0
LINE
  8
SIZE
  6
CONTINUOUS
 62
    30
 10
-50.999589999999898
 20
-145.0
 30
0.0
 11
476.56504899999982
 21
-145.0
 31
0.0
  0
LINE
  8
SIZE
  6
CONTINUOUS
 62
    30
 10
456.56504899999982
 20
-212.0
 30
0.0
 11
456.56504899999982
 21
-224.0
 31
0.0
  0
LINE
  8
SIZE
  6
CONTINUOUS
 62
    30
 10
456.56504899999982
 20
-133.0
 30
0.0
 11
456.56504899999982
 21
-121.0
 31
0.0
  0
LINE
  8
SIZE
  6
CONTINUOUS
 62
    30
 10
456.56504899999982
 20
28.452217999999899
 30
0.0
 11
456.56504899999982
 21
-145.0
 31
0.0
  0
TEXT
  8
SIZE
  6
CONTINUOUS
 62
    30
 10
431.56504899999982
 20
-89.804924428571482
 30
0.0
 40
64.0
  1
55
 50
90.0
 41
0.9
 72
     1
 11
431.56504899999982
 21
-43.176353000000063
 31
0.0
  0
LINE
  8
SIZE
  6
CONTINUOUS
 62
    30
 10
456.56504899999982
 20
-200.0
 30
0.0
 11
456.56504899999982
 21
-145.0
 31
0.0
  0
LINE
  8
SIZE
  6
CONTINUOUS
 62
    30
 10
456.56504899999982
 20
-200.0
 30
0.0
 11
456.56504899999982
 21
-145.0
 31
0.0
  0
CIRCLE
  8
SIZE
  6
CONTINUOUS
 62
    30
 10
456.56504899999982
 20
-200.0
 30
0.0
 40
6.0
  0
LINE
  8
SIZE
  6
CONTINUOUS
 62
    30
 10
456.56504899999982
 20
-200.0
 30
0.0
 11
456.56504899999982
 21
-212.0
 31
0.0
  0
CIRCLE
  8
SIZE
  6
CONTINUOUS
 62
    30
 10
456.56504899999982
 20
-145.0
 30
0.0
 40
6.0
  0
LINE
  8
SIZE
  6
CONTINUOUS
 62
    30
 10
456.56504899999982
 20
-145.0
 30
0.0
 11
456.56504899999982
 21
-133.0
 31
0.0
  0
LINE
  8
SIZE
  6
CONTINUOUS
 62
    30
 10
-49.999999000000123
 20
-185.0
 30
0.0
 11
359.46962400000029
 21
-185.0
 31
0.0
  0
LINE
  8
SIZE
  6
CONTINUOUS
 62
    30
 10
20.000001000000111
 20
-200.0
 30
0.0
 11
359.46962400000029
 21
-200.0
 31
0.0
  0
LINE
  8
SIZE
  6
CONTINUOUS
 62
    30
 10
339.46962400000029
 20
-173.0
 30
0.0
 11
339.46962400000029
 21
-161.0
 31
0.0
  0
LINE
  8
SIZE
  6
CONTINUOUS
 62
    30
 10
339.46962400000029
 20
-212.0
 30
0.0
 11
339.46962400000029
 21
-224.0
 31
0.0
  0
LINE
  8
SIZE
  6
CONTINUOUS
 62
    30
 10
339.46962400000029
 20
1.279510000000073
 30
0.0
 11
339.46962400000029
 21
-185.0
 31
0.0
  0
TEXT
  8
SIZE
  6
CONTINUOUS
 62
    30
 10
314.46962400000029
 20
-106.0062041428571
 30
0.0
 40
64.0
  1
15
 50
90.0
 41
0.9
 72
     1
 11
314.46962400000029
 21
-64.863346999999976
 31
0.0
  0
LINE
  8
SIZE
  6
CONTINUOUS
 62
    30
 10
339.46962400000029
 20
-185.0
 30
0.0
 11
339.46962400000029
 21
-200.0
 31
0.0
  0
LINE
  8
SIZE
  6
CONTINUOUS
 62
    30
 10
339.46962400000029
 20
-185.0
 30
0.0
 11
339.46962400000029
 21
-200.0
 31
0.0
  0
CIRCLE
  8
SIZE
  6
CONTINUOUS
 62
    30
 10
339.46962400000029
 20
-185.0
 30
0.0
 40
6.0
  0
LINE
  8
SIZE
  6
CONTINUOUS
 62
    30
 10
339.46962400000029
 20
-185.0
 30
0.0
 11
339.46962400000029
 21
-173.0
 31
0.0
  0
CIRCLE
  8
SIZE
  6
CONTINUOUS
 62
    30
 10
339.46962400000029
 20
-200.0
 30
0.0
 40
6.0
  0
LINE
  8
SIZE
  6
CONTINUOUS
 62
    30
 10
339.46962400000029
 20
-200.0
 30
0.0
 11
339.46962400000029
 21
-212.0
 31
0.0
  0
LINE
  8
SIZE
  6
CONTINUOUS
 62
    30
 10
-399.99999900000012
 20
20.0
 30
0.0
 11
-399.99999900000012
 21
416.67359599999992
 31
0.0
  0
LINE
  8
SIZE
  6
CONTINUOUS
 62
    30
 10
-344.99999900000012
 20
20.0
 30
0.0
 11
-344.99999900000012
 21
416.67359599999992
 31
0.0
  0
LINE
  8
SIZE
  6
CONTINUOUS
 62
    30
 10
-411.99999900000012
 20
396.67359599999992
 30
0.0
 11
-423.99999900000012
 21
396.67359599999992
 31
0.0
  0
LINE
  8
SIZE
  6
CONTINUOUS
 62
    30
 10
-332.99999900000012
 20
396.67359599999992
 30
0.0
 11
-320.99999900000012
 21
396.67359599999992
 31
0.0
  0
LINE
  8
SIZE
  6
CONTINUOUS
 62
    30
 10
-567.52153099999987
 20
396.67359599999992
 30
0.0
 11
-399.99999900000012
 21
396.67359599999992
 31
0.0
  0
TEXT
  8
SIZE
  6
CONTINUOUS
 62
    30
 10
-542.52153142857105
 20
421.67359599999992
 30
0.0
 40
64.0
  1
55
 41
0.9
 72
     1
 11
-495.89295999999968
 21
421.67359599999992
 31
0.0
  0
LINE
  8
SIZE
  6
CONTINUOUS
 62
    30
 10
-399.99999900000012
 20
396.67359599999992
 30
0.0
 11
-344.99999900000012
 21
396.67359599999992
 31
0.0
  0
LINE
  8
SIZE
  6
CONTINUOUS
 62
    30
 10
-399.99999900000012
 20
396.67359599999992
 30
0.0
 11
-344.99999900000012
 21
396.67359599999992
 31
0.0
  0
CIRCLE
  8
SIZE
  6
CONTINUOUS
 62
    30
 10
-399.99999900000012
 20
396.67359599999992
 30
0.0
 40
6.0
  0
LINE
  8
SIZE
  6
CONTINUOUS
 62
    30
 10
-399.99999900000012
 20
396.67359599999992
 30
0.0
 11
-411.99999900000012
 21
396.67359599999992
 31
0.0
  0
CIRCLE
  8
SIZE
  6
CONTINUOUS
 62
    30
 10
-344.99999900000012
 20
396.67359599999992
 30
0.0
 40
6.0
  0
LINE
  8
SIZE
  6
CONTINUOUS
 62
    30
 10
-344.99999900000012
 20
396.67359599999992
 30
0.0
 11
-332.99999900000012
 21
396.67359599999992
 31
0.0
  0
LINE
  8
SIZE
  6
CONTINUOUS
 62
    30
 10
-137.99999899999969
 20
-89.121417999999949
 30
0.0
 11
-137.99999899999969
 21
176.9524829999998
 31
0.0
  0
LINE
  8
SIZE
  6
CONTINUOUS
 62
    30
 10
-151.99999900000009
 20
-89.121417999999949
 30
0.0
 11
-151.99999900000009
 21
176.9524829999998
 31
0.0
  0
LINE
  8
SIZE
  6
CONTINUOUS
 62
    30
 10
-125.9999990000001
 20
156.9524829999998
 30
0.0
 11
-113.9999989999999
 21
156.9524829999998
 31
0.0
  0
LINE
  8
SIZE
  6
CONTINUOUS
 62
    30
 10
-163.99999899999969
 20
156.9524829999998
 30
0.0
 11
-175.99999900000009
 21
156.9524829999998
 31
0.0
  0
LINE
  8
SIZE
  6
CONTINUOUS
 62
    30
 10
264.646839
 20
156.9524829999998
 30
0.0
 11
-137.99999899999969
 21
156.9524829999998
 31
0.0
  0
TEXT
  8
SIZE
  6
CONTINUOUS
 62
    30
 10
154.61826728571421
 20
181.9524829999998
 30
0.0
 40
64.0
  1
14
 41
0.9
 72
     1
 11
197.13255299999989
 21
181.9524829999998
 31
0.0
  0
LINE
  8
SIZE
  6
CONTINUOUS
 62
    30
 10
-137.99999899999969
 20
156.9524829999998
 30
0.0
 11
-151.99999900000009
 21
156.9524829999998
 31
0.0
  0
LINE
  8
SIZE
  6
CONTINUOUS
 62
    30
 10
-137.99999899999969
 20
156.9524829999998
 30
0.0
 11
-151.99999900000009
 21
156.9524829999998
 31
0.0
  0
CIRCLE
  8
SIZE
  6
CONTINUOUS
 62
    30
 10
-137.99999899999969
 20
156.9524829999998
 30
0.0
 40
6.0
  0
LINE
  8
SIZE
  6
CONTINUOUS
 62
    30
 10
-137.99999899999969
 20
156.9524829999998
 30
0.0
 11
-125.9999990000001
 21
156.9524829999998
 31
0.0
  0
CIRCLE
  8
SIZE
  6
CONTINUOUS
 62
    30
 10
-151.99999900000009
 20
156.9524829999998
 30
0.0
 40
6.0
  0
LINE
  8
SIZE
  6
CONTINUOUS
 62
    30
 10
-151.99999900000009
 20
156.9524829999998
 30
0.0
 11
-163.99999899999969
 21
156.9524829999998
 31
0.0
  0
LINE
  8
SIZE
  6
CONTINUOUS
 62
    30
 10
264.646839
 20
156.9524829999998
 30
0.0
 11
563.3301019999999
 21
156.9524829999998
 31
0.0
  0
LINE
  8
SIZE
  6
CONTINUOUS
 62
    30
 10
-70.999589999999898
 20
-125.0
 30
0.0
 11
-70.999589999999898
 21
419.97971400000011
 31
0.0
  0
LINE
  8
SIZE
  6
CONTINUOUS
 62
    30
 10
-218.9995899999999
 20
-125.0
 30
0.0
 11
-218.9995899999999
 21
419.97971400000011
 31
0.0
  0
LINE
  8
SIZE
  6
CONTINUOUS
 62
    30
 10
-82.999589999999898
 20
399.97971400000011
 30
0.0
 11
-206.9995899999999
 21
399.97971400000011
 31
0.0
  0
LINE
  8
SIZE
  6
CONTINUOUS
 62
    30
 10
242.10399700000019
 20
399.97971400000011
 30
0.0
 11
-70.999589999999898
 21
399.97971400000011
 31
0.0
  0
TEXT
  8
SIZE
  6
CONTINUOUS
 62
    30
 10
13.5839964285713
 20
424.97971400000011
 30
0.0
 40
64.0
  1
φ148
 41
0.9
 72
     1
 11
122.4754249999999
 21
424.97971400000011
 31
0.0
  0
CIRCLE
  8
SIZE
  6
CONTINUOUS
 62
    30
 10
-70.999589999999898
 20
399.97971400000011
 30
0.0
 40
6.0
  0
LINE
  8
SIZE
  6
CONTINUOUS
 62
    30
 10
-70.999589999999898
 20
399.97971400000011
 30
0.0
 11
-82.999589999999898
 21
399.97971400000011
 31
0.0
  0
CIRCLE
  8
SIZE
  6
CONTINUOUS
 62
    30
 10
-218.9995899999999
 20
399.97971400000011
 30
0.0
 40
6.0
  0
LINE
  8
SIZE
  6
CONTINUOUS
 62
    30
 10
-218.9995899999999
 20
399.97971400000011
 30
0.0
 11
-206.9995899999999
 21
399.97971400000011
 31
0.0
  0
LINE
  8
SIZE
  6
CONTINUOUS
 62
    30
 10
0.0000010000001112
 20
-180.0
 30
0.0
 11
0.0000010000001112
 21
306.60344900000001
 31
0.0
  0
LINE
  8
SIZE
  6
CONTINUOUS
 62
    30
 10
-144.99999900000009
 20
-81.086921000000075
 30
0.0
 11
-144.99999900000009
 21
306.60344900000001
 31
0.0
  0
LINE
  8
SIZE
  6
CONTINUOUS
 62
    30
 10
-11.999998999999891
 20
286.60344900000001
 30
0.0
 11
-132.99999900000009
 21
286.60344900000001
 31
0.0
  0
LINE
  8
SIZE
  6
CONTINUOUS
 62
    30
 10
213.39235599999981
 20
286.60344900000001
 30
0.0
 11
0.0000010000001112
 21
286.60344900000001
 31
0.0
  0
TEXT
  8
SIZE
  6
CONTINUOUS
 62
    30
 10
51.249499428571532
 20
311.60344900000001
 30
0.0
 40
64.0
  1
145
 41
0.9
 72
     1
 11
119.82092800000009
 21
311.60344900000001
 31
0.0
  0
CIRCLE
  8
SIZE
  6
CONTINUOUS
 62
    30
 10
0.0000010000001112
 20
286.60344900000001
 30
0.0
 40
6.0
  0
LINE
  8
SIZE
  6
CONTINUOUS
 62
    30
 10
0.0000010000001112
 20
286.60344900000001
 30
0.0
 11
-11.999998999999891
 21
286.60344900000001
 31
0.0
  0
CIRCLE
  8
SIZE
  6
CONTINUOUS
 62
    30
 10
-144.99999900000009
 20
286.60344900000001
 30
0.0
 40
6.0
  0
LINE
  8
SIZE
  6
CONTINUOUS
 62
    30
 10
-144.99999900000009
 20
286.60344900000001
 30
0.0
 11
-132.99999900000009
 21
286.60344900000001
 31
0.0
  0
LINE
  8
DETAIL
  6
CONTINUOUS
 62
     5
 10
-219.00040799999991
 20
-183.97647000000009
 30
0.0
 11
-219.00040799999991
 21
-145.0
 31
0.0
  0
LINE
  8
SIZE
  6
CONTINUOUS
 62
    30
 10
0.0000010000001112
 20
-620.0
 30
0.0
 11
0.0000010000001112
 21
-805.65455199999985
 31
0.0
  0
LINE
  8
NOTE
  6
CONTINUOUS
 62
     4
 10
-216.99999900000009
 20
-220.0
 30
0.0
 11
-216.99999900000009
 21
-180.0
 31
0.0
  0
CIRCLE
  8
SIZE
  6
CONTINUOUS
 62
    30
 10
0.0000010000001112
 20
-810.88429536320211
 30
0.0
 40
6.0
  0
CIRCLE
  8
SIZE
  6
CONTINUOUS
 62
    30
 10
-216.99999900000009
 20
-810.88429536320211
 30
0.0
 40
6.0
  0
LINE
  8
SIZE
  6
CONTINUOUS
 62
    30
 10
-216.99999900000009
 20
-240.0
 30
0.0
 11
-216.99999900000009
 21
-830.88429536320189
 31
0.0
  0
LINE
  8
SIZE
  6
CONTINUOUS
 62
    30
 10
0.0000010000001112
 20
-620.0
 30
0.0
 11
0.0000009999998838
 21
-830.88429536320189
 31
0.0
  0
LINE
  8
SIZE
  6
CONTINUOUS
 62
    30
 10
-216.99999900000009
 20
-810.88429536320211
 30
0.0
 11
0.0000009999998838
 21
-810.88429536320211
 31
0.0
  0
TEXT
  8
SIZE
  6
CONTINUOUS
 62
    30
 10
-177.07142757142859
 20
-785.88429536320211
 30
0.0
 40
64.0
  1
217
 41
0.9
  0
LINE
  8
OUTLINE
  6
CONTINOUS
 62
     3
 10
-399.99999900000012
 20
0.0
 30
0.0
 11
-344.99999899999972
 21
0.0
 31
0.0
  0
LINE
  8
OUTLINE
  6
CONTINOUS
 62
     3
 10
-414.35512499999999
 20
-200.0
 30
0.0
 11
-399.99999900000012
 21
-200.0
 31
0.0
  0
LINE
  8
OUTLINE
  6
CONTINOUS
 62
     3
 10
-344.99999899999972
 20
-200.0
 30
0.0
 11
-233.9995899999999
 21
-200.0
 31
0.0
  0
LINE
  8
OUTLINE
  6
CONTINOUS
 62
     3
 10
-55.499589999999898
 20
-200.0
 30
0.0
 11
0.0000010000001112
 21
-200.0
 31
0.0
  0
ARC
  8
OUTLINE
  6
CONTINOUS
 62
     3
 10
-334.5540759999999
 20
51.0
 30
0.0
 40
650.0
 50
248.3569520000047
 51
268.63835500000062
  0
LINE
  8
OUTLINE
  6
CONTINOUS
 62
     3
 10
-596.21892700000012
 20
-459.31670100000002
 30
0.0
 11
-430.20377699999989
 21
-211.41966899999991
 31
0.0
  0
ARC
  8
OUTLINE
  6
CONTINOUS
 62
     3
 10
-572.95407599999999
 20
-474.89703200000008
 30
0.0
 40
28.0
 50
146.19001800000231
 51
194.9999999999944
  0
LINE
  8
OUTLINE
  6
CONTINOUS
 62
     3
 10
-583.84268700000018
 20
-542.44387500000005
 30
0.0
 11
-599.99999899999989
 21
-482.14396499999998
 31
0.0
  0
ARC
  8
OUTLINE
  6
CONTINOUS
 62
     3
 10
-568.38787400000001
 20
-538.30277000000001
 30
0.0
 40
16.0
 50
194.9999999999944
 51
248.3569520000047
  0
LINE
  8
OUTLINE
  6
CONTINOUS
 62
     3
 10
-399.99999900000012
 20
-200.0
 30
0.0
 11
-399.99999900000012
 21
0.0
 31
0.0
  0
ARC
  8
OUTLINE
  6
CONTINOUS
 62
     3
 10
-406.93892599999981
 20
-227.0
 30
0.0
 40
28.0
 50
105.3588859999962
 51
146.19001800000231
  0
LINE
  8
OUTLINE
  6
CONTINOUS
 62
     3
 10
0.0000010000001112
 20
-600.0
 30
0.0
 11
0.0000010000001112
 21
-200.0
 31
0.0
  0
LINE
  8
OUTLINE
  6
CONTINOUS
 62
     3
 10
0.0000010000001112
 20
-600.0
 30
0.0
 11
-322.95429100000001
 21
-600.0
 31
0.0
  0
LINE
  8
OUTLINE
  6
CONTINUOUS
 62
     3
 10
-322.95429100000001
 20
-600.0
 30
0.0
 11
-349.99999899999972
 21
-598.81645400000002
 31
0.0
  0
LINE
  8
OUTLINE
  6
CONTINOUS
 62
     3
 10
-344.99999899999972
 20
-200.0
 30
0.0
 11
-344.99999899999972
 21
0.0
 31
0.0
  0
LINE
  8
NOTE
  6
CONTINUOUS
 62
     4
 10
-264.99999899999989
 20
-220.0
 30
0.0
 11
-264.99999899999989
 21
-180.0
 31
0.0
  0
ARC
  8
OUTLINE
  6
CONTINUOUS
 62
     3
 10
-232.9995899999999
 20
-196.0
 30
0.0
 40
1.0
 50
90.0
 51
180.0
  0
LINE
  8
OUTLINE
  6
CONTINUOUS
 62
     3
 10
-233.9995899999999
 20
-200.0
 30
0.0
 11
-233.9995899999999
 21
-196.0
 31
0.0
  0
LINE
  8
OUTLINE
  6
CONTINUOUS
 62
     3
 10
-223.71466400000011
 20
-195.0
 30
0.0
 11
-232.9995899999999
 21
-195.0
 31
0.0
  0
LINE
  8
OUTLINE
  6
CONTINUOUS
 62
     3
 10
-219.87507700000009
 20
-184.9686879999999
 30
0.0
 11
-220.59881200000001
 21
-185.05950999999999
 31
0.0
  0
ARC
  8
OUTLINE
  6
CONTINUOUS
 62
     3
 10
-219.9995899999999
 20
-183.97647000000009
 30
0.0
 40
1.0
 50
277.15266900000438
 51
0.0
  0
LINE
  8
OUTLINE
  6
CONTINUOUS
 62
     3
 10
-221.9995899999999
 20
-189.40000000000009
 30
0.0
 11
-221.9995899999999
 21
-186.6470589999999
 31
0.0
  0
ARC
  8
OUTLINE
  6
CONTINUOUS
 62
     3
 10
-231.9995899999999
 20
-189.40000000000009
 30
0.0
 40
10.0
 50
325.94420199999593
 51
0.0
  0
ARC
  8
OUTLINE
  6
CONTINUOUS
 62
     3
 10
-220.39958999999999
 20
-186.6470589999999
 30
0.0
 40
1.6000000000000001
 50
97.152669000004423
 51
180.0
  0
ARC
  8
OUTLINE
  6
CONTINUOUS
 62
     3
 10
-57.999589999999898
 20
-189.40000000000009
 30
0.0
 40
10.0
 50
180.0
 51
214.05579800000419
  0
LINE
  8
OUTLINE
  6
CONTINUOUS
 62
     3
 10
-70.124103999999988
 20
-184.9686879999999
 30
0.0
 11
-69.400368999999955
 21
-185.05950999999999
 31
0.0
  0
ARC
  8
OUTLINE
  6
CONTINUOUS
 62
     3
 10
-69.599590000000035
 20
-186.6470589999999
 30
0.0
 40
1.6000000000000001
 50
0.0
 51
82.847330999995577
  0
ARC
  8
OUTLINE
  6
CONTINUOUS
 62
     3
 10
-69.999589999999898
 20
-183.97647000000009
 30
0.0
 40
1.0
 50
180.0
 51
262.84733099999562
  0
LINE
  8
OUTLINE
  6
CONTINUOUS
 62
     3
 10
-70.999589999999898
 20
-183.97647000000009
 30
0.0
 11
-70.999589999999898
 21
-145.0
 31
0.0
  0
LINE
  8
OUTLINE
  6
CONTINUOUS
 62
     3
 10
-67.999589999999898
 20
-189.40000000000009
 30
0.0
 11
-67.999589999999898
 21
-186.6470589999999
 31
0.0
  0
ARC
  8
OUTLINE
  6
CONTINUOUS
 62
     3
 10
-56.499589999999898
 20
-196.0
 30
0.0
 40
1.0
 50
0.0
 51
90.0
  0
LINE
  8
OUTLINE
  6
CONTINUOUS
 62
     3
 10
-56.499589999999898
 20
-195.0
 30
0.0
 11
-66.284516070883228
 21
-195.0
 31
0.0
  0
LINE
  8
OUTLINE
  6
CONTINUOUS
 62
     3
 10
-219.00040799999991
 20
-145.0
 30
0.0
 11
-70.999589999999898
 21
-145.0
 31
0.0
  0
LINE
  8
OUTLINE
  6
CONTINUOUS
 62
     3
 10
-55.499589999999898
 20
-196.0
 30
0.0
 11
-55.499589999999898
 21
-200.0
 31
0.0
  0
LINE
  8
OUTLINE
  6
CONTINUOUS
 62
     3
 10
-219.00040799999991
 20
-183.97647000000009
 30
0.0
 11
-219.00040799999991
 21
-145.0
 31
0.0
  0
TEXT
  8
ETC
  6
CONTINUOUS
 62
    61
 10
688.63087973093889
 20
535.02190601612892
 30
0.0
 40
64.0
  1
V-602K9_4
 41
0.9
  0
TEXT
  8
ETC
  6
CONTINUOUS
 62
    61
 10
693.17557873093892
 20
438.17453701612908
 30
0.0
 40
64.0
  1
換気扇
 41
0.9
  0
TEXT
  8
ETC
  6
CONTINUOUS
 62
    61
 10
802.1769995594118
 20
359.87631751458463
 30
0.0
 40
50.0
  1
V-602K9
 41
0.9
  0
TEXT
  8
ETC
  6
CONTINUOUS
 62
    61
 10
802.1769995594118
 20
275.80333151458473
 30
0.0
 40
50.0
  1
V-602K9-BK
 41
0.9
  0
TEXT
  8
ETC
  6
CONTINUOUS
 62
    61
 10
802.1769995594118
 20
197.957976514585
 30
0.0
 40
50.0
  1
V-604K9
 41
0.9
  0
TEXT
  8
ETC
  6
CONTINUOUS
 62
    61
 10
802.1769995594118
 20
120.1126155145851
 30
0.0
 40
50.0
  1
V-604K9-BK
 41
0.9
  0
TEXT
  8
ETC
  6
CONTINUOUS
 62
    61
 10
800.57876052523579
 20
35.694576083638822
 30
0.0
 40
50.0
  1
V-605K9
 41
0.9
  0
TEXT
  8
ETC
  6
CONTINUOUS
 62
    61
 10
803.36985657179321
 20
-48.005362543675801
 30
0.0
 40
50.0
  1
V-605K9-BK
 41
0.9
  0
TEXT
  8
ETC
  6
CONTINUOUS
 62
    61
 10
805.31048011534131
 20
-133.4333431985842
 30
0.0
 40
50.0
  1
V-604KD8
 41
0.9
  0
LINE
  8
SIZE
  6
CONTINUOUS
 62
    30
 10
0.0000010000001112
 20
-180.0
 30
0.0
 11
0.0000010000001112
 21
534.49375299999997
 31
0.0
  0
LINE
  8
SIZE
  6
CONTINUOUS
 62
    30
 10
-399.99999900000012
 20
20.0
 30
0.0
 11
-399.99999900000012
 21
534.49375299999997
 31
0.0
  0
LINE
  8
SIZE
  6
CONTINUOUS
 62
    30
 10
-11.999998999999891
 20
514.49375299999997
 30
0.0
 11
-387.99999900000012
 21
514.49375299999997
 31
0.0
  0
CIRCLE
  8
SIZE
  6
CONTINUOUS
 62
    30
 10
0.0000010000001112
 20
514.49375299999997
 30
0.0
 40
6.0
  0
LINE
  8
SIZE
  6
CONTINUOUS
 62
    30
 10
0.0000010000001112
 20
514.49375299999997
 30
0.0
 11
-11.999998999999891
 21
514.49375299999997
 31
0.0
  0
CIRCLE
  8
SIZE
  6
CONTINUOUS
 62
    30
 10
-399.99999900000012
 20
514.49375299999997
 30
0.0
 40
6.0
  0
LINE
  8
SIZE
  6
CONTINUOUS
 62
    30
 10
-399.99999900000012
 20
514.49375299999997
 30
0.0
 11
-387.99999900000012
 21
514.49375299999997
 31
0.0
  0
TEXT
  8
SIZE
  6
CONTINUOUS
 62
    30
 10
-306.97142757142848
 20
539.49375299999997
 30
0.0
 40
64.0
  1
350~
 41
0.9
 72
     1
 11
-199.99999899999989
 21
539.49375299999997
 31
0.0
  0
POINT
  8
DEFPOINTS
  6
CONTINUOUS
 62
    30
 10
0.0000010000001112
 20
-200.0
 30
0.0
  0
POINT
  8
DEFPOINTS
  6
CONTINUOUS
 62
    30
 10
-399.99999900000012
 20
0.0
 30
0.0
  0
POINT
  8
DEFPOINTS
  6
CONTINUOUS
 62
    30
 10
-399.99999900000012
 20
514.49375299999997
 30
0.0
  0
ENDSEC
  0
EOF
