  0
SECTION
  2
HEADER
  9
$ACADVER
  1
AC1009
  9
$INSBASE
 10
0.0
 20
0.0
 30
0.0
  9
$EXTMIN
 10
-306.0
 20
-972.449882
 30
0.0
  9
$EXTMAX
 10
1521.7074096439301
 20
420.94863038624811
 30
0.0
  9
$LIMMIN
 10
-2970.0
 20
-2100.0
  9
$LIMMAX
 10
2970.0
 20
2100.0
  9
$ORTHOMODE
 70
     1
  9
$REGENMODE
 70
     0
  9
$FILLMODE
 70
     1
  9
$QTEXTMODE
 70
     0
  9
$MIRRTEXT
 70
     0
  9
$DRAGMODE
 70
     2
  9
$LTSCALE
 40
20.0
  9
$OSMODE
 70
   175
  9
$ATTMODE
 70
     1
  9
$TEXTSIZE
 40
64.0
  9
$TRACEWID
 40
0.05
  9
$TEXTSTYLE
  7
STANDARD
  9
$CLAYER
  8
0
  9
$CELTYPE
  6
CONTINUOUS
  9
$CECOLOR
 62
   256
  9
$DIMSCALE
 40
1.0
  9
$DIMASZ
 40
12.0
  9
$DIMEXO
 40
20.0
  9
$DIMDLI
 40
200.0
  9
$DIMRND
 40
0.0
  9
$DIMDLE
 40
0.0
  9
$DIMEXE
 40
20.0
  9
$DIMTP
 40
0.0
  9
$DIMTM
 40
0.0
  9
$DIMTXT
 40
64.0
  9
$DIMCEN
 40
0.09
  9
$DIMTSZ
 40
0.0
  9
$DIMTOL
 70
     0
  9
$DIMLIM
 70
     0
  9
$DIMTIH
 70
     0
  9
$DIMTOH
 70
     0
  9
$DIMSE1
 70
     0
  9
$DIMSE2
 70
     0
  9
$DIMTAD
 70
     1
  9
$DIMZIN
 70
     8
  9
$DIMBLK
  1
DOT1
  9
$DIMASO
 70
     1
  9
$DIMSHO
 70
     0
  9
$DIMPOST
  1

  9
$DIMAPOST
  1

  9
$DIMALT
 70
     0
  9
$DIMALTD
 70
     2
  9
$DIMALTF
 40
25.399999999999999
  9
$DIMLFAC
 40
1.0
  9
$DIMTOFL
 70
     1
  9
$DIMTVP
 40
0.0
  9
$DIMTIX
 70
     1
  9
$DIMSOXD
 70
     0
  9
$DIMSAH
 70
     1
  9
$DIMBLK1
  1
ORIGIN
  9
$DIMBLK2
  1
ORIGIN
  9
$DIMSTYLE
  2
STANDARD
  9
$DIMCLRD
 70
     7
  9
$DIMCLRE
 70
     7
  9
$DIMCLRT
 70
     7
  9
$DIMTFAC
 40
1.0
  9
$DIMGAP
 40
25.0
  9
$LUNITS
 70
     2
  9
$LUPREC
 70
     4
  9
$SKETCHINC
 40
0.1
  9
$FILLETRAD
 40
4.0
  9
$AUNITS
 70
     1
  9
$AUPREC
 70
     3
  9
$MENU
  1
ACAD
  9
$ELEVATION
 40
0.0
  9
$PELEVATION
 40
0.0
  9
$THICKNESS
 40
50.0
  9
$LIMCHECK
 70
     0
  9
$BLIPMODE
 70
     0
  9
$CHAMFERA
 40
0.0
  9
$CHAMFERB
 40
0.0
  9
$SKPOLY
 70
     0
  9
$TDCREATE
 40
2453090.6791026969
  9
$TDUPDATE
 40
2453792.4741185531
  9
$TDINDWG
 40
0.015510162
  9
$TDUSRTIMER
 40
0.0155099769
  9
$USRTIMER
 70
     1
  9
$ANGBASE
 50
0.0
  9
$ANGDIR
 70
     0
  9
$PDMODE
 70
     3
  9
$PDSIZE
 40
-2.0
  9
$PLINEWID
 40
0.0
  9
$COORDS
 70
     2
  9
$SPLFRAME
 70
     0
  9
$SPLINETYPE
 70
     6
  9
$SPLINESEGS
 70
     8
  9
$ATTDIA
 70
     0
  9
$ATTREQ
 70
     1
  9
$HANDLING
 70
 22529
  9
$HANDSEED
  5
28F
  9
$SURFTAB1
 70
     6
  9
$SURFTAB2
 70
     6
  9
$SURFTYPE
 70
     6
  9
$SURFU
 70
     6
  9
$SURFV
 70
     6
  9
$UCSNAME
  2

  9
$UCSORG
 10
0.0
 20
0.0
 30
0.0
  9
$UCSXDIR
 10
1.0
 20
0.0
 30
0.0
  9
$UCSYDIR
 10
0.0
 20
1.0
 30
0.0
  9
$PUCSNAME
  2

  9
$PUCSORG
 10
0.0
 20
0.0
 30
0.0
  9
$PUCSXDIR
 10
1.0
 20
0.0
 30
0.0
  9
$PUCSYDIR
 10
0.0
 20
1.0
 30
0.0
  9
$USERI1
 70
     0
  9
$USERI2
 70
     0
  9
$USERI3
 70
     0
  9
$USERI4
 70
     0
  9
$USERI5
 70
     0
  9
$USERR1
 40
20.0
  9
$USERR2
 40
0.0
  9
$USERR3
 40
0.0
  9
$USERR4
 40
0.0
  9
$USERR5
 40
0.0
  9
$WORLDVIEW
 70
     1
  9
$SHADEDGE
 70
     3
  9
$SHADEDIF
 70
    70
  9
$TILEMODE
 70
     1
  9
$MAXACTVP
 70
    48
  9
$PLIMCHECK
 70
     0
  9
$PEXTMIN
 10
-1.0000000000000000E+020
 20
-1.0000000000000000E+020
 30
-1.0000000000000000E+020
  9
$PEXTMAX
 10
1.0000000000000000E+020
 20
1.0000000000000000E+020
 30
1.0000000000000000E+020
  9
$PLIMMIN
 10
0.0
 20
0.0
  9
$PLIMMAX
 10
12.0
 20
9.0
  9
$UNITMODE
 70
     0
  9
$VISRETAIN
 70
     0
  9
$PLINEGEN
 70
     0
  9
$PSLTSCALE
 70
     0
  0
ENDSEC
  0
SECTION
  2
TABLES
  0
TABLE
  2
VPORT
 70
     9
  0
VPORT
  2
*ACTIVE
 70
     0
 10
0.0
 20
0.0
 11
1.0
 21
1.0
 12
149.08189131801871
 22
-314.92778677395972
 13
0.0
 23
0.0
 14
1.0
 24
1.0
 15
0.0
 25
0.0
 16
0.0
 26
0.0
 36
1.0
 17
0.0
 27
0.0
 37
0.0
 40
2205.130303287031
 41
1.447268106734434
 42
50.0
 43
0.0
 44
0.0
 50
0.0
 51
0.0
 71
     0
 72
  1000
 73
     1
 74
     0
 75
     0
 76
     0
 77
     0
 78
     0
  0
ENDTAB
  0
TABLE
  2
LTYPE
 70
     3
  0
LTYPE
  2
CONTINUOUS
 70
     0
  3
実線
 72
    65
 73
     0
 40
0.0
  0
LTYPE
  2
DASHDOT
 70
     0
  3
____ _ ____ _ ____ _ ____ _ ____ _ ____ _ ____
 72
    65
 73
     4
 40
5.5
 49
4.0
 49
-0.6
 49
0.3
 49
-0.6
  0
LTYPE
  2
CONTINOUS
 70
     0
  3
Solid line
 72
    65
 73
     0
 40
0.0
  0
ENDTAB
  0
TABLE
  2
LAYER
 70
    12
  0
LAYER
  2
0
 70
     0
 62
     7
  6
CONTINUOUS
  0
LAYER
  2
SIZE
 70
     0
 62
    30
  6
CONTINUOUS
  0
LAYER
  2
BASIS
 70
     0
 62
     6
  6
DASHDOT
  0
LAYER
  2
OUTLINE
 70
     0
 62
     3
  6
CONTINUOUS
  0
LAYER
  2
DETAIL
 70
     0
 62
     5
  6
CONTINUOUS
  0
LAYER
  2
ARRANGE
 70
     0
 62
     1
  6
CONTINUOUS
  0
LAYER
  2
DEFPOINTS
 70
     0
 62
     7
  6
CONTINUOUS
  0
LAYER
  2
ETC
 70
     0
 62
    61
  6
CONTINUOUS
  0
LAYER
  2
FIX
 70
     0
 62
    11
  6
CONTINUOUS
  0
LAYER
  2
NOTE
 70
     0
 62
     4
  6
CONTINUOUS
  0
LAYER
  2
SERVICESPACE
 70
     0
 62
     2
  6
DASHDOT
  0
LAYER
  2
SYMBOLLINE
 70
     0
 62
    15
  6
CONTINUOUS
  0
ENDTAB
  0
TABLE
  2
STYLE
 70
     1
  0
STYLE
  2
STANDARD
 70
     0
 40
64.0
 41
0.9
 50
0.0
 71
     0
 42
64.0
  3
SIMPLEX.shx
  4
BIGFONT.shx
  0
ENDTAB
  0
TABLE
  2
VIEW
 70
     1
  0
VIEW
  2
ALL
 70
     0
 40
4282.6198079999976
 10
0.0
 20
41.309903999999989
 41
5940.0
 11
0.0
 21
0.0
 31
1.0
 12
0.0
 22
0.0
 32
0.0
 42
50.0
 43
0.0
 44
0.0
 50
0.0
 71
     0
  0
ENDTAB
  0
TABLE
  2
UCS
 70
     0
  0
ENDTAB
  0
TABLE
  2
APPID
 70
     2
  0
APPID
  2
ACAD
 70
     0
  0
APPID
  2
AUTOCAD_POSTSCRIPT_FIGURE
 70
     0
  0
ENDTAB
  0
TABLE
  2
DIMSTYLE
 70
     1
  0
DIMSTYLE
  2
STANDARD
 70
     0
  3

  4

  5

  6

  7

 40
1.0
 41
0.18
 42
0.0625
 43
0.38
 44
0.18
 45
0.0
 46
0.0
 47
0.0
 48
0.0
140
0.18
141
0.09
142
0.0
143
25.399999999999999
144
1.0
145
0.0
146
1.0
147
0.09
 71
     0
 72
     0
 73
     1
 74
     1
 75
     0
 76
     0
 77
     0
 78
     0
170
     0
171
     2
172
     0
173
     0
174
     0
175
     0
176
     7
177
     7
178
     7
  0
ENDTAB
  0
ENDSEC
  0
SECTION
  2
BLOCKS
  0
BLOCK
  8
0
  2
$MODEL_SPACE
 70
     0
 10
0.0
 20
0.0
 30
0.0
  3
$MODEL_SPACE
  1

  0
ENDBLK
  5
110
  8
0
  0
BLOCK
 67
     1
  8
0
  2
$PAPER_SPACE
 70
     0
 10
0.0
 20
0.0
 30
0.0
  3
$PAPER_SPACE
  1

  0
ENDBLK
  5
10C
 67
     1
  8
0
  0
BLOCK
  8
0
  2
DOT1
 70
     0
 10
0.0
 20
0.0
 30
0.0
  3
DOT1
  1

  0
CIRCLE
  5
12D
  8
SIZE
  6
CONTINUOUS
 62
     7
 10
0.0
 20
0.0
 30
0.0
 40
3.0
  0
ENDBLK
  5
12E
  8
0
  0
BLOCK
  8
0
  2
_ORIGIN
 70
     0
 10
0.0
 20
0.0
 30
0.0
  3
_ORIGIN
  1

  0
CIRCLE
  5
131
  8
0
  6
CONTINUOUS
 62
     7
 10
0.0
 20
0.0
 30
0.0
 40
0.5
  0
LINE
  5
132
  8
0
  6
CONTINUOUS
 62
     7
 10
0.0
 20
0.0
 30
0.0
 11
-1.0
 21
0.0
 31
0.0
  0
ENDBLK
  5
133
  8
0
  0
BLOCK
  8
0
 62
    30
  2
_NONE
 70
     0
 10
0.0
 20
0.0
 30
0.0
  3
_NONE
  1

  0
ENDBLK
  5
136
  8
0
 62
    30
  0
BLOCK
  8
0
 62
    30
  2
_OPEN30
 70
     0
 10
0.0
 20
0.0
 30
0.0
  3
_OPEN30
  1

  0
LINE
  5
139
  8
0
  6
BYBLOCK
 62
     0
 10
-1.0
 20
0.26794919
 30
0.0
 11
0.0
 21
0.0
 31
0.0
  0
LINE
  5
13A
  8
0
  6
BYBLOCK
 62
     0
 10
0.0
 20
0.0
 30
0.0
 11
-1.0
 21
-0.26794919
 31
0.0
  0
LINE
  5
13B
  8
0
  6
BYBLOCK
 62
     0
 10
0.0
 20
0.0
 30
0.0
 11
-1.0
 21
0.0
 31
0.0
  0
ENDBLK
  5
13C
  8
0
 62
    30
  0
ENDSEC
  0
SECTION
  2
ENTITIES
  0
LINE
  5
13D
  8
DETAIL
  6
CONTINUOUS
 62
     5
 10
-300.0
 20
-300.0
 30
0.0
 11
-300.0
 21
0.0
 31
0.0
  0
LINE
  5
13E
  8
DETAIL
  6
CONTINUOUS
 62
     5
 10
300.0
 20
0.0
 30
0.0
 11
-300.0
 21
0.0
 31
0.0
  0
LINE
  5
13F
  8
DETAIL
  6
CONTINOUS
 62
     5
 10
0.0
 20
-653.0
 30
0.0
 11
-273.27989500000001
 21
-653.0
 31
0.0
  0
LINE
  5
140
  8
DETAIL
  6
CONTINOUS
 62
     5
 10
0.0
 20
-570.0
 30
0.0
 11
-273.64077900000001
 21
-570.0
 31
0.0
  0
LINE
  5
141
  8
BASIS
  6
DASHDOT
 62
     6
 10
0.0
 20
-771.940068
 30
0.0
 11
0.0
 21
91.970927000000003
 31
0.0
  0
LINE
  5
142
  8
DETAIL
  6
CONTINOUS
 62
     5
 10
-300.0
 20
-700.0
 30
0.0
 11
-300.0
 21
-300.0
 31
0.0
  0
LINE
  5
143
  8
DETAIL
  6
CONTINOUS
 62
     5
 10
0.0
 20
-653.0
 30
0.0
 11
274.66708499999999
 21
-653.0
 31
0.0
  0
LINE
  5
144
  8
DETAIL
  6
CONTINOUS
 62
     5
 10
0.0
 20
-570.0
 30
0.0
 11
274.66708499999999
 21
-570.0
 31
0.0
  0
LINE
  5
145
  8
DETAIL
  6
CONTINOUS
 62
     5
 10
-300.0
 20
-300.0
 30
0.0
 11
300.0
 21
-300.0
 31
0.0
  0
LINE
  5
146
  8
DETAIL
  6
CONTINOUS
 62
     5
 10
300.0
 20
-700.0
 30
0.0
 11
300.0
 21
0.0
 31
0.0
  0
LINE
  5
147
  8
DETAIL
  6
CONTINOUS
 62
     5
 10
-300.0
 20
-700.0
 30
0.0
 11
300.0
 21
-700.0
 31
0.0
  0
LINE
  5
148
  8
DETAIL
  6
CONTINOUS
 62
     5
 10
-280.0
 20
-700.0
 30
0.0
 11
-280.0
 21
-300.0
 31
0.0
  0
LINE
  5
149
  8
DETAIL
  6
CONTINOUS
 62
     5
 10
280.0
 20
-700.0
 30
0.0
 11
280.0
 21
-300.0
 31
0.0
  0
LINE
  5
14A
  8
OUTLINE
  6
CONTINOUS
 62
     3
 10
-300.0
 20
-700.0
 30
0.0
 11
300.0
 21
-700.0
 31
0.0
  0
LINE
  5
14B
  8
OUTLINE
  6
CONTINOUS
 62
     3
 10
-300.0
 20
-700.0
 30
0.0
 11
-300.0
 21
-300.0
 31
0.0
  0
LINE
  5
14C
  8
OUTLINE
  6
CONTINUOUS
 62
     3
 10
-300.0
 20
-300.0
 30
0.0
 11
-300.0
 21
0.0
 31
0.0
  0
LINE
  5
14D
  8
OUTLINE
  6
CONTINUOUS
 62
     3
 10
300.0
 20
0.0
 30
0.0
 11
-300.0
 21
0.0
 31
0.0
  0
LINE
  5
14E
  8
OUTLINE
  6
CONTINOUS
 62
     3
 10
300.0
 20
-700.0
 30
0.0
 11
300.0
 21
0.0
 31
0.0
  0
POINT
  5
14F
  8
ARRANGE
  6
CONTINUOUS
 62
     1
 10
0.0
 20
0.0
 30
0.0
  0
CIRCLE
  5
150
  8
ARRANGE
  6
CONTINUOUS
 62
     1
 10
0.0
 20
0.0
 30
0.0
 40
40.0
  0
LINE
  5
151
  8
SIZE
  6
CONTINUOUS
 62
    30
 10
320.0
 20
0.0
 30
0.0
 11
647.00046699999984
 21
0.0
 31
0.0
  0
LINE
  5
152
  8
SIZE
  6
CONTINUOUS
 62
    30
 10
320.0
 20
-700.0
 30
0.0
 11
647.00046699999984
 21
-700.0
 31
0.0
  0
LINE
  5
153
  8
SIZE
  6
CONTINUOUS
 62
    30
 10
627.00046699999984
 20
-12.0
 30
0.0
 11
627.00046699999984
 21
-688.0
 31
0.0
  0
CIRCLE
  5
154
  8
SIZE
  6
CONTINUOUS
 62
    30
 10
627.00046699999984
 20
0.0
 30
0.0
 40
6.0
  0
LINE
  5
155
  8
SIZE
  6
CONTINUOUS
 62
    30
 10
627.00046699999984
 20
0.0
 30
0.0
 11
627.00046699999984
 21
-12.0
 31
0.0
  0
CIRCLE
  5
156
  8
SIZE
  6
CONTINUOUS
 62
    30
 10
627.00046699999984
 20
-700.0
 30
0.0
 40
6.0
  0
LINE
  5
157
  8
SIZE
  6
CONTINUOUS
 62
    30
 10
627.00046699999984
 20
-700.0
 30
0.0
 11
627.00046699999984
 21
-688.0
 31
0.0
  0
TEXT
  5
158
  8
SIZE
  6
CONTINUOUS
 62
    30
 10
602.00046699999984
 20
-424.05714285714288
 30
0.0
 40
64.0
  1
700
 50
90.0
 41
0.9
 72
     1
 11
602.00046699999984
 21
-350.0
 31
0.0
  0
LINE
  5
15C
  8
SIZE
  6
CONTINUOUS
 62
    30
 10
320.0
 20
-700.0
 30
0.0
 11
513.77236100000005
 21
-700.0
 31
0.0
  0
LINE
  5
15D
  8
SIZE
  6
CONTINUOUS
 62
    30
 10
320.0
 20
-300.0
 30
0.0
 11
513.77236100000005
 21
-300.0
 31
0.0
  0
LINE
  5
15E
  8
SIZE
  6
CONTINUOUS
 62
    30
 10
493.77236099999988
 20
-688.0
 30
0.0
 11
493.77236099999988
 21
-312.0
 31
0.0
  0
CIRCLE
  5
15F
  8
SIZE
  6
CONTINUOUS
 62
    30
 10
493.77236099999988
 20
-700.0
 30
0.0
 40
6.0
  0
LINE
  5
160
  8
SIZE
  6
CONTINUOUS
 62
    30
 10
493.77236099999988
 20
-700.0
 30
0.0
 11
493.77236099999988
 21
-688.0
 31
0.0
  0
CIRCLE
  5
161
  8
SIZE
  6
CONTINUOUS
 62
    30
 10
493.77236099999988
 20
-300.0
 30
0.0
 40
6.0
  0
LINE
  5
162
  8
SIZE
  6
CONTINUOUS
 62
    30
 10
493.77236099999988
 20
-300.0
 30
0.0
 11
493.77236099999988
 21
-312.0
 31
0.0
  0
TEXT
  5
163
  8
SIZE
  6
CONTINUOUS
 62
    30
 10
468.77236099999988
 20
-574.05714285714282
 30
0.0
 40
64.0
  1
400
 50
90.0
 41
0.9
 72
     1
 11
468.77236099999988
 21
-500.0
 31
0.0
  0
LINE
  5
167
  8
SIZE
  6
CONTINUOUS
 62
    30
 10
300.0
 20
-720.0
 30
0.0
 11
300.0
 21
-972.449882
 31
0.0
  0
LINE
  5
168
  8
SIZE
  6
CONTINUOUS
 62
    30
 10
-300.0
 20
-720.0
 30
0.0
 11
-300.0
 21
-972.449882
 31
0.0
  0
LINE
  5
169
  8
SIZE
  6
CONTINUOUS
 62
    30
 10
288.0
 20
-952.44988199999989
 30
0.0
 11
-288.0
 21
-952.44988199999989
 31
0.0
  0
CIRCLE
  5
16A
  8
SIZE
  6
CONTINUOUS
 62
    30
 10
300.0
 20
-952.44988199999989
 30
0.0
 40
6.0
  0
LINE
  5
16B
  8
SIZE
  6
CONTINUOUS
 62
    30
 10
300.0
 20
-952.44988199999989
 30
0.0
 11
288.0
 21
-952.44988199999989
 31
0.0
  0
CIRCLE
  5
16C
  8
SIZE
  6
CONTINUOUS
 62
    30
 10
-300.0
 20
-952.44988199999989
 30
0.0
 40
6.0
  0
LINE
  5
16D
  8
SIZE
  6
CONTINUOUS
 62
    30
 10
-300.0
 20
-952.44988199999989
 30
0.0
 11
-288.0
 21
-952.44988199999989
 31
0.0
  0
TEXT
  5
16E
  8
SIZE
  6
CONTINUOUS
 62
    30
 10
-74.05714285714285
 20
-927.44988199999989
 30
0.0
 40
64.0
  1
600
 41
0.9
 72
     1
 11
0.0
 21
-927.44988199999989
 31
0.0
  0
LINE
  5
172
  8
DETAIL
  6
CONTINOUS
 62
     5
 10
-95.830698999999981
 20
-635.24780799999996
 30
0.0
 11
109.2157959999999
 21
-635.24780799999996
 31
0.0
  0
LINE
  5
173
  8
DETAIL
  6
CONTINOUS
 62
     5
 10
-95.830698999999981
 20
-626.55063700000005
 30
0.0
 11
113.8306989999999
 21
-626.55063700000005
 31
0.0
  0
LINE
  5
174
  8
DETAIL
  6
CONTINOUS
 62
     5
 10
-95.871086999999989
 20
-605.23160700000005
 30
0.0
 11
113.874861
 21
-605.23160700000005
 31
0.0
  0
LINE
  5
175
  8
DETAIL
  6
CONTINOUS
 62
     5
 10
74.669300999999976
 20
-596.24780799999985
 30
0.0
 11
109.813372
 21
-596.24780799999985
 31
0.0
  0
LINE
  5
176
  8
DETAIL
  6
CONTINOUS
 62
     5
 10
-95.830698999999981
 20
-596.24780799999985
 30
0.0
 11
74.669300999999976
 21
-596.24780799999985
 31
0.0
  0
CIRCLE
  5
177
  8
DETAIL
  6
CONTINOUS
 62
     5
 10
-25.330698999999981
 20
-618.24780799999996
 30
0.0
 40
8.3000000000000007
  0
ARC
  5
178
  8
DETAIL
  6
CONTINOUS
 62
     5
 10
-95.830698999999981
 20
-615.74780799999985
 30
0.0
 40
19.5
 50
90.0
 51
270.0
  0
ARC
  5
179
  8
DETAIL
  6
CONTINOUS
 62
     5
 10
-95.830698999999981
 20
-615.74780799999985
 30
0.0
 40
10.5
 50
90.0
 51
270.0
  0
CIRCLE
  5
17A
  8
DETAIL
  6
CONTINOUS
 62
     5
 10
-25.330698999999981
 20
-618.24780799999996
 30
0.0
 40
6.5
  0
CIRCLE
  5
17B
  8
DETAIL
  6
CONTINOUS
 62
     5
 10
-46.830698999999981
 20
-618.24780799999996
 30
0.0
 40
6.5
  0
CIRCLE
  5
17C
  8
DETAIL
  6
CONTINOUS
 62
     5
 10
-46.830698999999981
 20
-618.24780799999996
 30
0.0
 40
8.3000000000000007
  0
CIRCLE
  5
17D
  8
DETAIL
  6
CONTINOUS
 62
     5
 10
39.169301000000011
 20
-618.24780799999996
 30
0.0
 40
6.5
  0
CIRCLE
  5
17E
  8
DETAIL
  6
CONTINOUS
 62
     5
 10
39.169301000000011
 20
-618.24780799999996
 30
0.0
 40
8.3000000000000007
  0
CIRCLE
  5
17F
  8
DETAIL
  6
CONTINOUS
 62
     5
 10
17.669301000000011
 20
-618.24780799999996
 30
0.0
 40
6.5
  0
CIRCLE
  5
180
  8
DETAIL
  6
CONTINOUS
 62
     5
 10
17.669301000000011
 20
-618.24780799999996
 30
0.0
 40
8.3000000000000007
  0
CIRCLE
  5
181
  8
DETAIL
  6
CONTINOUS
 62
     5
 10
82.169300999999976
 20
-618.24780799999996
 30
0.0
 40
6.5
  0
CIRCLE
  5
182
  8
DETAIL
  6
CONTINOUS
 62
     5
 10
60.669301000000019
 20
-618.24780799999996
 30
0.0
 40
6.5
  0
CIRCLE
  5
183
  8
DETAIL
  6
CONTINOUS
 62
     5
 10
82.169300999999976
 20
-618.24780799999996
 30
0.0
 40
8.3000000000000007
  0
CIRCLE
  5
184
  8
DETAIL
  6
CONTINOUS
 62
     5
 10
60.669301000000019
 20
-618.24780799999996
 30
0.0
 40
8.3000000000000007
  0
ARC
  5
185
  8
DETAIL
  6
CONTINOUS
 62
     5
 10
44.669301000000011
 20
-615.74780799999985
 30
0.0
 40
70.0
 50
346.07795600000009
 51
0.0
  0
ARC
  5
186
  8
DETAIL
  6
CONTINOUS
 62
     5
 10
109.2157959999999
 20
-631.74780799999985
 30
0.0
 40
3.5
 50
270.0
 51
346.07795600000009
  0
ARC
  5
187
  8
DETAIL
  6
CONTINOUS
 62
     5
 10
44.669301000000011
 20
-615.74780799999985
 30
0.0
 40
70.0
 50
0.0
 51
13.922043999999991
  0
ARC
  5
188
  8
DETAIL
  6
CONTINOUS
 62
     5
 10
109.2157959999999
 20
-599.74780799999985
 30
0.0
 40
3.5
 50
13.922043999999991
 51
90.0
  0
LINE
  5
189
  8
DETAIL
  6
CONTINOUS
 62
     5
 10
-276.49960199999992
 20
-662.53605000000005
 30
0.0
 11
278.0
 21
-662.53605000000005
 31
0.0
  0
TEXT
  5
18A
  8
ETC
  6
CONTINUOUS
 62
    61
 10
920.59335034272226
 20
166.90171753194801
 30
0.0
 40
50.0
  1
V-6037K6-BL
 41
0.9
  0
TEXT
  5
18B
  8
ETC
  6
CONTINUOUS
 62
    61
 10
918.0259037210451
 20
87.341977250304325
 30
0.0
 40
50.0
  1
V-6047K6-BL
 41
0.9
  0
TEXT
  5
18C
  8
ETC
  6
CONTINUOUS
 62
    61
 10
920.59335034272226
 20
12.915122375196461
 30
0.0
 40
50.0
  1
V-6037KLR6-BL
 41
0.9
  0
TEXT
  5
18D
  8
ETC
  6
CONTINUOUS
 62
    61
 10
923.16080377910475
 20
-58.945287442310033
 30
0.0
 40
50.0
  1
V-6047KLR6-BL
 41
0.9
  0
TEXT
  5
18E
  8
ETC
  6
CONTINUOUS
 62
    61
 10
783.87883821535831
 20
356.94863038624811
 30
0.0
 40
64.0
  1
V-6037K6-BL_2
 41
0.9
  0
TEXT
  5
18F
  8
ETC
  6
CONTINUOUS
 62
    61
 10
788.42354521535833
 20
247.64600038624801
 30
0.0
 40
64.0
  1
換気扇
 41
0.9
  0
ENDSEC
  0
EOF
