  0
SECTION
  2
HEADER
  9
$ACADVER
  1
AC1009
  9
$INSBASE
 10
0.0
 20
0.0
 30
0.0
  9
$EXTMIN
 10
-1753.0351629999991
 20
-1095.455089999999
 30
0.0
  9
$EXTMAX
 10
1474.813527732392
 20
823.89985577844107
 30
50.0
  9
$LIMMIN
 10
-2970.0
 20
-2100.0
  9
$LIMMAX
 10
2970.0
 20
2100.0
  9
$ORTHOMODE
 70
     1
  9
$REGENMODE
 70
     0
  9
$FILLMODE
 70
     1
  9
$QTEXTMODE
 70
     0
  9
$MIRRTEXT
 70
     0
  9
$DRAGMODE
 70
     2
  9
$LTSCALE
 40
20.0
  9
$OSMODE
 70
   175
  9
$ATTMODE
 70
     1
  9
$TEXTSIZE
 40
64.0
  9
$TRACEWID
 40
0.05
  9
$TEXTSTYLE
  7
STANDARD
  9
$CLAYER
  8
OUTLINE
  9
$CELTYPE
  6
CONTINUOUS
  9
$CECOLOR
 62
     3
  9
$DIMSCALE
 40
1.0
  9
$DIMASZ
 40
12.0
  9
$DIMEXO
 40
20.0
  9
$DIMDLI
 40
200.0
  9
$DIMRND
 40
0.0
  9
$DIMDLE
 40
0.0
  9
$DIMEXE
 40
20.0
  9
$DIMTP
 40
0.0
  9
$DIMTM
 40
0.0
  9
$DIMTXT
 40
64.0
  9
$DIMCEN
 40
0.09
  9
$DIMTSZ
 40
0.0
  9
$DIMTOL
 70
     0
  9
$DIMLIM
 70
     0
  9
$DIMTIH
 70
     0
  9
$DIMTOH
 70
     0
  9
$DIMSE1
 70
     0
  9
$DIMSE2
 70
     0
  9
$DIMTAD
 70
     1
  9
$DIMZIN
 70
     8
  9
$DIMBLK
  1
NONE
  9
$DIMASO
 70
     1
  9
$DIMSHO
 70
     0
  9
$DIMPOST
  1

  9
$DIMAPOST
  1

  9
$DIMALT
 70
     0
  9
$DIMALTD
 70
     2
  9
$DIMALTF
 40
25.399999999999999
  9
$DIMLFAC
 40
1.0
  9
$DIMTOFL
 70
     1
  9
$DIMTVP
 40
0.0
  9
$DIMTIX
 70
     1
  9
$DIMSOXD
 70
     0
  9
$DIMSAH
 70
     0
  9
$DIMBLK1
  1
NONE
  9
$DIMBLK2
  1
ORIGIN
  9
$DIMSTYLE
  2
STANDARD
  9
$DIMCLRD
 70
   256
  9
$DIMCLRE
 70
   256
  9
$DIMCLRT
 70
   256
  9
$DIMTFAC
 40
1.0
  9
$DIMGAP
 40
25.0
  9
$LUNITS
 70
     2
  9
$LUPREC
 70
     4
  9
$SKETCHINC
 40
0.1
  9
$FILLETRAD
 40
4.0
  9
$AUNITS
 70
     1
  9
$AUPREC
 70
     3
  9
$MENU
  1
ACAD
  9
$ELEVATION
 40
0.0
  9
$PELEVATION
 40
0.0
  9
$THICKNESS
 40
50.0
  9
$LIMCHECK
 70
     0
  9
$BLIPMODE
 70
     0
  9
$CHAMFERA
 40
0.0
  9
$CHAMFERB
 40
0.0
  9
$SKPOLY
 70
     0
  9
$TDCREATE
 40
2453090.6791026969
  9
$TDUPDATE
 40
2453793.4112836341
  9
$TDINDWG
 40
0.0448803009
  9
$TDUSRTIMER
 40
0.0448799306
  9
$USRTIMER
 70
     1
  9
$ANGBASE
 50
0.0
  9
$ANGDIR
 70
     0
  9
$PDMODE
 70
     3
  9
$PDSIZE
 40
-2.0
  9
$PLINEWID
 40
0.0
  9
$COORDS
 70
     2
  9
$SPLFRAME
 70
     0
  9
$SPLINETYPE
 70
     6
  9
$SPLINESEGS
 70
     8
  9
$ATTDIA
 70
     0
  9
$ATTREQ
 70
     1
  9
$HANDLING
 70
 22529
  9
$HANDSEED
  5
BD1
  9
$SURFTAB1
 70
     6
  9
$SURFTAB2
 70
     6
  9
$SURFTYPE
 70
     6
  9
$SURFU
 70
     6
  9
$SURFV
 70
     6
  9
$UCSNAME
  2

  9
$UCSORG
 10
0.0
 20
0.0
 30
0.0
  9
$UCSXDIR
 10
1.0
 20
0.0
 30
0.0
  9
$UCSYDIR
 10
0.0
 20
1.0
 30
0.0
  9
$PUCSNAME
  2

  9
$PUCSORG
 10
0.0
 20
0.0
 30
0.0
  9
$PUCSXDIR
 10
1.0
 20
0.0
 30
0.0
  9
$PUCSYDIR
 10
0.0
 20
1.0
 30
0.0
  9
$USERI1
 70
     0
  9
$USERI2
 70
     0
  9
$USERI3
 70
     0
  9
$USERI4
 70
     0
  9
$USERI5
 70
     0
  9
$USERR1
 40
20.0
  9
$USERR2
 40
0.0
  9
$USERR3
 40
0.0
  9
$USERR4
 40
0.0
  9
$USERR5
 40
0.0
  9
$WORLDVIEW
 70
     1
  9
$SHADEDGE
 70
     3
  9
$SHADEDIF
 70
    70
  9
$TILEMODE
 70
     1
  9
$MAXACTVP
 70
    48
  9
$PLIMCHECK
 70
     0
  9
$PEXTMIN
 10
-1.0000000000000000E+020
 20
-1.0000000000000000E+020
 30
-1.0000000000000000E+020
  9
$PEXTMAX
 10
1.0000000000000000E+020
 20
1.0000000000000000E+020
 30
1.0000000000000000E+020
  9
$PLIMMIN
 10
0.0
 20
0.0
  9
$PLIMMAX
 10
12.0
 20
9.0
  9
$UNITMODE
 70
     0
  9
$VISRETAIN
 70
     0
  9
$PLINEGEN
 70
     0
  9
$PSLTSCALE
 70
     0
  0
ENDSEC
  0
SECTION
  2
TABLES
  0
TABLE
  2
VPORT
 70
     3
  0
VPORT
  2
*ACTIVE
 70
     0
 10
0.0
 20
0.0
 11
1.0
 21
1.0
 12
-66.855150783459976
 22
-122.8680047429129
 13
0.0
 23
0.0
 14
1.0
 24
1.0
 15
0.0
 25
0.0
 16
0.0
 26
0.0
 36
1.0
 17
0.0
 27
0.0
 37
0.0
 40
2500.4489895453612
 41
1.447268106734434
 42
50.0
 43
0.0
 44
0.0
 50
0.0
 51
0.0
 71
     0
 72
  1000
 73
     1
 74
     0
 75
     0
 76
     0
 77
     0
 78
     0
  0
ENDTAB
  0
TABLE
  2
LTYPE
 70
     3
  0
LTYPE
  2
CONTINUOUS
 70
     0
  3
実線
 72
    65
 73
     0
 40
0.0
  0
LTYPE
  2
DASHDOT
 70
     0
  3
____ _ ____ _ ____ _ ____ _ ____ _ ____ _ ____
 72
    65
 73
     4
 40
5.5
 49
4.0
 49
-0.6
 49
0.3
 49
-0.6
  0
LTYPE
  2
CONTINOUS
 70
     0
  3
Solid line
 72
    65
 73
     0
 40
0.0
  0
ENDTAB
  0
TABLE
  2
LAYER
 70
    12
  0
LAYER
  2
0
 70
     0
 62
     7
  6
CONTINUOUS
  0
LAYER
  2
OUTLINE
 70
     0
 62
     3
  6
CONTINUOUS
  0
LAYER
  2
SIZE
 70
     0
 62
    30
  6
CONTINUOUS
  0
LAYER
  2
BASIS
 70
     0
 62
     6
  6
DASHDOT
  0
LAYER
  2
DETAIL
 70
     0
 62
     5
  6
CONTINUOUS
  0
LAYER
  2
ARRANGE
 70
     0
 62
     1
  6
CONTINUOUS
  0
LAYER
  2
DEFPOINTS
 70
     0
 62
     7
  6
CONTINUOUS
  0
LAYER
  2
ETC
 70
     0
 62
    61
  6
CONTINUOUS
  0
LAYER
  2
FIX
 70
     0
 62
    11
  6
CONTINUOUS
  0
LAYER
  2
NOTE
 70
     0
 62
     4
  6
CONTINUOUS
  0
LAYER
  2
SERVICESPACE
 70
     0
 62
     2
  6
DASHDOT
  0
LAYER
  2
SYMBOLLINE
 70
     0
 62
    15
  6
CONTINUOUS
  0
ENDTAB
  0
TABLE
  2
STYLE
 70
     1
  0
STYLE
  2
STANDARD
 70
     0
 40
64.0
 41
0.9
 50
0.0
 71
     0
 42
64.0
  3
SIMPLEX.shx
  4
BIGFONT.shx
  0
ENDTAB
  0
TABLE
  2
VIEW
 70
     1
  0
VIEW
  2
ALL
 70
     0
 40
4282.6198079999967
 10
0.0
 20
41.309903999999989
 41
5940.0
 11
0.0
 21
0.0
 31
1.0
 12
0.0
 22
0.0
 32
0.0
 42
50.0
 43
0.0
 44
0.0
 50
0.0
 71
     0
  0
ENDTAB
  0
TABLE
  2
UCS
 70
     0
  0
ENDTAB
  0
TABLE
  2
APPID
 70
     2
  0
APPID
  2
ACAD
 70
     0
  0
APPID
  2
AUTOCAD_POSTSCRIPT_FIGURE
 70
     0
  0
ENDTAB
  0
TABLE
  2
DIMSTYLE
 70
     1
  0
DIMSTYLE
  2
STANDARD
 70
     0
  3

  4

  5

  6

  7

 40
1.0
 41
0.18
 42
0.0625
 43
0.38
 44
0.18
 45
0.0
 46
0.0
 47
0.0
 48
0.0
140
0.18
141
0.09
142
0.0
143
25.399999999999999
144
1.0
145
0.0
146
1.0
147
0.09
 71
     0
 72
     0
 73
     1
 74
     1
 75
     0
 76
     0
 77
     0
 78
     0
170
     0
171
     2
172
     0
173
     0
174
     0
175
     0
176
     7
177
     7
178
     7
  0
ENDTAB
  0
ENDSEC
  0
SECTION
  2
BLOCKS
  0
BLOCK
  8
0
  2
$MODEL_SPACE
 70
     0
 10
0.0
 20
0.0
 30
0.0
  3
$MODEL_SPACE
  1

  0
ENDBLK
  5
A77
  8
0
  0
BLOCK
 67
     1
  8
0
  2
$PAPER_SPACE
 70
     0
 10
0.0
 20
0.0
 30
0.0
  3
$PAPER_SPACE
  1

  0
ENDBLK
  5
A73
 67
     1
  8
0
  0
BLOCK
  8
0
  2
DOT1
 70
     0
 10
0.0
 20
0.0
 30
0.0
  3
DOT1
  1

  0
CIRCLE
  5
A94
  8
SIZE
  6
CONTINUOUS
 62
     7
 10
0.0
 20
0.0
 30
0.0
 40
3.0
  0
ENDBLK
  5
A95
  8
0
  0
BLOCK
  8
0
  2
_ORIGIN
 70
     0
 10
0.0
 20
0.0
 30
0.0
  3
_ORIGIN
  1

  0
CIRCLE
  5
A98
  8
0
  6
CONTINUOUS
 62
     7
 10
0.0
 20
0.0
 30
0.0
 40
0.5
  0
LINE
  5
A99
  8
0
  6
CONTINUOUS
 62
     7
 10
0.0
 20
0.0
 30
0.0
 11
-1.0
 21
0.0
 31
0.0
  0
ENDBLK
  5
A9A
  8
0
  0
BLOCK
  8
0
 62
    30
  2
_NONE
 70
     0
 10
0.0
 20
0.0
 30
0.0
  3
_NONE
  1

  0
ENDBLK
  5
A9D
  8
0
 62
    30
  0
BLOCK
  8
0
 62
    30
  2
_OPEN30
 70
     0
 10
0.0
 20
0.0
 30
0.0
  3
_OPEN30
  1

  0
LINE
  5
AA0
  8
0
  6
BYBLOCK
 62
     0
 10
-1.0
 20
0.26794919
 30
0.0
 11
0.0
 21
0.0
 31
0.0
  0
LINE
  5
AA1
  8
0
  6
BYBLOCK
 62
     0
 10
0.0
 20
0.0
 30
0.0
 11
-1.0
 21
-0.26794919
 31
0.0
  0
LINE
  5
AA2
  8
0
  6
BYBLOCK
 62
     0
 10
0.0
 20
0.0
 30
0.0
 11
-1.0
 21
0.0
 31
0.0
  0
ENDBLK
  5
AA3
  8
0
 62
    30
  0
BLOCK
  8
0
 62
    30
  2
*D6
 70
     1
 10
0.0
 20
0.0
 30
0.0
  3
*D6
  1

  0
LINE
  5
AA6
  8
SIZE
  6
CONTINUOUS
 10
-186.0
 20
-260.0
 30
0.0
 11
-185.99999999999989
 21
181.92298040122839
 31
0.0
  0
LINE
  5
AA7
  8
SIZE
  6
CONTINUOUS
 10
-300.0
 20
20.0
 30
0.0
 11
-300.0
 21
181.92298040122839
 31
0.0
  0
LINE
  5
AA8
  8
SIZE
  6
CONTINUOUS
 10
-185.99999999999989
 20
161.92298040122839
 30
0.0
 11
-300.0
 21
161.92298040122839
 31
0.0
  0
LINE
  5
AA9
  8
SIZE
  6
CONTINUOUS
 10
-300.0
 20
161.92298040122839
 30
0.0
 11
-490.9142857142856
 21
161.92298040122839
 31
0.0
  0
TEXT
  5
AAA
  8
SIZE
  6
CONTINUOUS
 10
-465.9142857142856
 20
186.92298040122839
 30
0.0
 40
64.0
  1
114
 41
0.9
  0
POINT
  5
AAB
  8
DEFPOINTS
  6
CONTINUOUS
 62
     0
 10
-186.0
 20
-280.0
 30
0.0
  0
POINT
  5
AAC
  8
DEFPOINTS
  6
CONTINUOUS
 62
     0
 10
-300.0
 20
0.0
 30
0.0
  0
POINT
  5
AAD
  8
DEFPOINTS
  6
CONTINUOUS
 62
     0
 10
-300.0
 20
161.92298040122839
 30
0.0
  0
ENDBLK
  5
AAE
  8
0
 62
    30
  0
BLOCK
  8
0
 62
    30
  2
*D7
 70
     1
 10
0.0
 20
0.0
 30
0.0
  3
*D7
  1

  0
LINE
  5
AB1
  8
SIZE
  6
CONTINUOUS
 10
-186.0
 20
-240.0
 30
0.0
 11
-185.99999999999989
 21
181.92298040122839
 31
0.0
  0
LINE
  5
AB2
  8
SIZE
  6
CONTINUOUS
 10
-157.0
 20
-260.0
 30
0.0
 11
-156.9999999999998
 21
181.92298040122839
 31
0.0
  0
LINE
  5
AB3
  8
SIZE
  6
CONTINUOUS
 10
-185.99999999999989
 20
161.92298040122839
 30
0.0
 11
-197.9999999999994
 21
161.92298040122839
 31
0.0
  0
LINE
  5
AB4
  8
SIZE
  6
CONTINUOUS
 10
-156.9999999999998
 20
161.92298040122839
 30
0.0
 11
-144.9999999999994
 21
161.92298040122839
 31
0.0
  0
LINE
  5
AB5
  8
SIZE
  6
CONTINUOUS
 10
-185.99999999999989
 20
161.92298040122839
 30
0.0
 11
-156.9999999999998
 21
161.92298040122839
 31
0.0
  0
TEXT
  5
AB6
  8
SIZE
  6
CONTINUOUS
 10
-216.75714285714281
 20
186.92298040122839
 30
0.0
 40
64.0
  1
29
 41
0.9
  0
POINT
  5
AB7
  8
DEFPOINTS
  6
CONTINUOUS
 62
     0
 10
-186.0
 20
-260.0
 30
0.0
  0
POINT
  5
AB8
  8
DEFPOINTS
  6
CONTINUOUS
 62
     0
 10
-157.0
 20
-280.0
 30
0.0
  0
POINT
  5
AB9
  8
DEFPOINTS
  6
CONTINUOUS
 62
     0
 10
-156.9999999999998
 20
161.92298040122839
 30
0.0
  0
ENDBLK
  5
ABA
  8
0
 62
    30
  0
ENDSEC
  0
SECTION
  2
ENTITIES
  0
LINE
  5
ABB
  8
DETAIL
  6
CONTINUOUS
 62
     5
 10
300.0
 20
-300.0
 30
0.0
 11
300.0
 21
0.0
 31
0.0
  0
LINE
  5
ABC
  8
DETAIL
  6
CONTINUOUS
 62
     5
 10
-300.0
 20
0.0
 30
0.0
 11
300.0
 21
0.0
 31
0.0
  0
LINE
  5
ABD
  8
BASIS
  6
DASHDOT
 62
     6
 10
0.0
 20
-771.940068
 30
0.0
 11
0.0
 21
62.599742999999989
 31
0.0
  0
LINE
  5
ABE
  8
DETAIL
  6
CONTINOUS
 62
     5
 10
300.0
 20
-700.0
 30
0.0
 11
300.0
 21
-300.0
 31
0.0
  0
LINE
  5
ABF
  8
DETAIL
  6
CONTINOUS
 62
     5
 10
300.0
 20
-300.0
 30
0.0
 11
-300.0
 21
-300.0
 31
0.0
  0
LINE
  5
AC0
  8
DETAIL
  6
CONTINOUS
 62
     5
 10
-300.0
 20
-700.0
 30
0.0
 11
-300.0
 21
0.0
 31
0.0
  0
LINE
  5
AC1
  8
DETAIL
  6
CONTINOUS
 62
     5
 10
300.0
 20
-700.0
 30
0.0
 11
-300.0
 21
-700.0
 31
0.0
  0
LINE
  5
AC2
  8
NOTE
  6
CONTINUOUS
 62
     4
 10
240.0
 20
-380.0
 30
0.0
 11
240.0
 21
-340.0
 31
0.0
  0
LINE
  5
AC3
  8
NOTE
  6
CONTINUOUS
 62
     4
 10
260.0
 20
-360.0
 30
0.0
 11
220.0
 21
-360.0
 31
0.0
  0
LINE
  5
AC4
  8
NOTE
  6
CONTINUOUS
 62
     4
 10
240.0
 20
-615.0
 30
0.0
 11
240.0
 21
-575.0
 31
0.0
  0
LINE
  5
AC5
  8
NOTE
  6
CONTINUOUS
 62
     4
 10
260.0
 20
-595.0
 30
0.0
 11
220.0
 21
-595.0
 31
0.0
  0
LINE
  5
AC6
  8
NOTE
  6
CONTINUOUS
 62
     4
 10
-240.0
 20
-380.0
 30
0.0
 11
-240.0
 21
-340.0
 31
0.0
  0
LINE
  5
AC7
  8
NOTE
  6
CONTINUOUS
 62
     4
 10
-260.0
 20
-360.0
 30
0.0
 11
-220.0
 21
-360.0
 31
0.0
  0
LINE
  5
AC8
  8
NOTE
  6
CONTINUOUS
 62
     4
 10
-240.0
 20
-615.0
 30
0.0
 11
-240.0
 21
-575.0
 31
0.0
  0
LINE
  5
AC9
  8
NOTE
  6
CONTINUOUS
 62
     4
 10
-260.0
 20
-595.0
 30
0.0
 11
-220.0
 21
-595.0
 31
0.0
  0
CIRCLE
  5
ACA
  8
FIX
  6
CONTINUOUS
 62
    11
 10
240.0
 20
-360.0
 30
0.0
 40
4.0
  0
CIRCLE
  5
ACB
  8
FIX
  6
CONTINUOUS
 62
    11
 10
-240.0
 20
-360.0
 30
0.0
 40
4.0
  0
CIRCLE
  5
ACC
  8
FIX
  6
CONTINUOUS
 62
    11
 10
240.0
 20
-595.0
 30
0.0
 40
4.0
  0
CIRCLE
  5
ACD
  8
FIX
  6
CONTINUOUS
 62
    11
 10
-240.0
 20
-595.0
 30
0.0
 40
4.0
  0
LINE
  5
ACE
  8
OUTLINE
  6
CONTINOUS
 62
     3
 10
300.0
 20
-700.0
 30
0.0
 11
-300.0
 21
-700.0
 31
0.0
  0
LINE
  5
ACF
  8
OUTLINE
  6
CONTINOUS
 62
     3
 10
300.0
 20
-700.0
 30
0.0
 11
300.0
 21
-300.0
 31
0.0
  0
LINE
  5
AD0
  8
OUTLINE
  6
CONTINUOUS
 62
     3
 10
300.0
 20
-300.0
 30
0.0
 11
300.0
 21
0.0
 31
0.0
  0
LINE
  5
AD1
  8
OUTLINE
  6
CONTINUOUS
 62
     3
 10
-300.0
 20
0.0
 30
0.0
 11
300.0
 21
0.0
 31
0.0
  0
LINE
  5
AD2
  8
OUTLINE
  6
CONTINOUS
 62
     3
 10
-300.0
 20
-700.0
 30
0.0
 11
-300.0
 21
0.0
 31
0.0
  0
LINE
  5
AD3
  8
NOTE
  6
CONTINUOUS
 62
     4
 10
240.0
 20
-320.0
 30
0.0
 11
240.0
 21
-280.0
 31
0.0
  0
LINE
  5
AD4
  8
NOTE
  6
CONTINUOUS
 62
     4
 10
260.0
 20
-300.0
 30
0.0
 11
220.0
 21
-300.0
 31
0.0
  0
CIRCLE
  5
AD5
  8
FIX
  6
CONTINUOUS
 62
    11
 10
240.0
 20
-300.0
 30
0.0
 40
12.5
  0
CIRCLE
  5
AD6
  8
FIX
  6
CONTINUOUS
 62
    11
 10
-240.0
 20
-300.0
 30
0.0
 40
12.5
  0
LINE
  5
AD7
  8
NOTE
  6
CONTINUOUS
 62
     4
 10
-240.0
 20
-320.0
 30
0.0
 11
-240.0
 21
-280.0
 31
0.0
  0
LINE
  5
AD8
  8
NOTE
  6
CONTINUOUS
 62
     4
 10
-260.0
 20
-300.0
 30
0.0
 11
-220.0
 21
-300.0
 31
0.0
  0
TEXT
  5
AD9
  8
NOTE
  6
CONTINUOUS
 62
     4
 10
-46.875295000000001
 20
-220.5883959999999
 30
0.0
 40
64.0
  1
EA
 41
0.9
  0
LINE
  5
ADA
  8
NOTE
  6
CONTINUOUS
 62
     4
 10
-206.0
 20
-300.0
 30
0.0
 11
-166.0
 21
-300.0
 31
0.0
  0
TEXT
  5
ADB
  8
NOTE
  6
CONTINUOUS
 62
     4
 10
-248.285752
 20
-497.2998119999998
 30
0.0
 40
64.0
  1
EL
 41
0.9
  0
LINE
  5
ADC
  8
NOTE
  6
CONTINUOUS
 62
     4
 10
-116.5607899999999
 20
-526.41268400000001
 30
0.0
 11
-268.39457099999993
 21
-526.41268400000001
 31
0.0
  0
TEXT
  5
ADD
  8
NOTE
  6
CONTINUOUS
 62
     4
 10
-638.03323499999965
 20
-832.88894100000005
 30
0.0
 40
64.0
  1
4-φ8
 41
0.9
  0
LINE
  5
ADE
  8
NOTE
  6
CONTINUOUS
 62
     4
 10
-369.80605400000002
 20
-864.54697499999975
 30
0.0
 11
-663.35995000000003
 21
-864.54697499999975
 31
0.0
  0
TEXT
  5
ADF
  8
NOTE
  6
CONTINUOUS
 62
     4
 10
452.09207199999992
 20
39.707321999999998
 30
0.0
 40
64.0
  1
AH 2×2-φ25
 41
0.9
  0
LINE
  5
AE0
  8
NOTE
  6
CONTINUOUS
 62
     4
 10
421.00367899999998
 20
3.5055699999999992
 30
0.0
 11
1024.415978
 21
3.5055699999999992
 31
0.0
  0
LINE
  5
AE1
  8
NOTE
  6
CONTINUOUS
 62
     4
 10
-186.0
 20
-300.0
 30
0.0
 11
-116.5607899999999
 21
-526.41268400000001
 31
0.0
  0
LINE
  5
AE2
  8
NOTE
  6
CONTINUOUS
 62
     4
 10
-183.91128643511999
 20
-343.79917506216202
 30
0.0
 11
-186.0
 21
-300.0
 31
0.0
  0
LINE
  5
AE3
  8
NOTE
  6
CONTINUOUS
 62
     4
 10
-186.0
 20
-300.0
 30
0.0
 11
-160.10325743280731
 21
-339.03943716225223
 31
0.0
  0
LINE
  5
AE4
  8
NOTE
  6
CONTINUOUS
 62
     4
 10
240.0
 20
-300.0
 30
0.0
 11
421.00367899999998
 21
3.5055699999999992
 31
0.0
  0
LINE
  5
AE5
  8
NOTE
  6
CONTINUOUS
 62
     4
 10
256.923137
 20
-263.75627700000001
 30
0.0
 11
240.0
 21
-300.0
 31
0.0
  0
LINE
  5
AE6
  8
NOTE
  6
CONTINUOUS
 62
     4
 10
240.0
 20
-300.0
 30
0.0
 11
272.77772799999991
 21
-277.07358399999993
 31
0.0
  0
POINT
  5
AE7
  8
ARRANGE
  6
CONTINUOUS
 62
     1
 10
0.0
 20
0.0
 30
0.0
  0
CIRCLE
  5
AE8
  8
ARRANGE
  6
CONTINUOUS
 62
     1
 10
0.0
 20
0.0
 30
0.0
 40
40.0
  0
CIRCLE
  5
AE9
  8
DETAIL
  6
CONTINUOUS
 62
     5
 10
-240.0
 20
-360.0
 30
0.0
 40
4.0
  0
CIRCLE
  5
AEA
  8
DETAIL
  6
CONTINUOUS
 62
     5
 10
-240.0
 20
-595.0
 30
0.0
 40
4.0
  0
CIRCLE
  5
AEB
  8
DETAIL
  6
CONTINUOUS
 62
     5
 10
240.0
 20
-360.0
 30
0.0
 40
4.0
  0
CIRCLE
  5
AEC
  8
DETAIL
  6
CONTINUOUS
 62
     5
 10
240.0
 20
-595.0
 30
0.0
 40
4.0
  0
LINE
  5
AED
  8
DETAIL
  6
CONTINOUS
 62
     5
 10
-280.0
 20
-300.0
 30
0.0
 11
0.0
 21
-300.0
 31
0.0
  0
LINE
  5
AEE
  8
DETAIL
  6
CONTINOUS
 62
     5
 10
280.0
 20
-300.0
 30
0.0
 11
0.0
 21
-300.0
 31
0.0
  0
LINE
  5
AEF
  8
DETAIL
  6
CONTINOUS
 62
     5
 10
-285.0
 20
-300.0
 30
0.0
 11
-285.0
 21
0.0
 31
0.0
  0
LINE
  5
AF0
  8
DETAIL
  6
CONTINUOUS
 62
     5
 10
285.0
 20
-300.0
 30
0.0
 11
285.0
 21
0.0
 31
0.0
  0
LINE
  5
AF1
  8
DETAIL
  6
CONTINOUS
 62
     5
 10
280.0
 20
-700.0
 30
0.0
 11
280.0
 21
-300.0
 31
0.0
  0
LINE
  5
AF2
  8
DETAIL
  6
CONTINOUS
 62
     5
 10
-280.0
 20
-700.0
 30
0.0
 11
-280.0
 21
-300.0
 31
0.0
  0
LINE
  5
AF3
  8
NOTE
  6
CONTINUOUS
 62
     4
 10
-240.0
 20
-595.0
 30
0.0
 11
-369.80605400000002
 21
-864.54697499999975
 31
0.0
  0
LINE
  5
AF4
  8
NOTE
  6
CONTINUOUS
 62
     4
 10
-248.50191799999999
 20
-634.08602499999995
 30
0.0
 11
-240.0
 21
-595.0
 31
0.0
  0
LINE
  5
AF5
  8
NOTE
  6
CONTINUOUS
 62
     4
 10
-240.0
 20
-595.0
 30
0.0
 11
-266.90589
 21
-624.59853199999986
 31
0.0
  0
LINE
  5
AF6
  8
DETAIL
  6
CONTINUOUS
 62
     5
 10
130.0
 20
-297.0
 30
0.0
 11
130.0
 21
-300.0
 31
0.0
  0
ARC
  5
AF7
  8
DETAIL
  6
CONTINUOUS
 62
     5
 10
-129.0
 20
-296.0
 30
0.0
 40
1.0
 50
90.0
 51
180.0
  0
LINE
  5
AF8
  8
DETAIL
  6
CONTINUOUS
 62
     5
 10
-73.999591000000024
 20
-245.0
 30
0.0
 11
74.000408999999976
 21
-245.0
 31
0.0
  0
LINE
  5
AF9
  8
DETAIL
  6
CONTINUOUS
 62
     5
 10
130.0
 20
-297.0
 30
0.0
 11
130.0
 21
-296.0
 31
0.0
  0
LINE
  5
AFA
  8
DETAIL
  6
CONTINUOUS
 62
     5
 10
129.0
 20
-295.0
 30
0.0
 11
-119.715074
 21
-295.0
 31
0.0
  0
ARC
  5
AFB
  8
DETAIL
  6
CONTINUOUS
 62
     5
 10
129.0
 20
-296.0
 30
0.0
 40
1.0
 50
0.0
 51
90.0
  0
LINE
  5
AFC
  8
DETAIL
  6
CONTINUOUS
 62
     5
 10
77.000408999999976
 20
-289.39999999999992
 30
0.0
 11
77.000408999999976
 21
-286.64705900000001
 31
0.0
  0
LINE
  5
AFD
  8
DETAIL
  6
CONTINUOUS
 62
     5
 10
74.000408999999976
 20
-283.976471
 30
0.0
 11
74.000408999999976
 21
-245.0
 31
0.0
  0
LINE
  5
AFE
  8
DETAIL
  6
CONTINUOUS
 62
     5
 10
-73.999591000000024
 20
-285.0
 30
0.0
 11
75.125408999999976
 21
-285.0
 31
0.0
  0
LINE
  5
AFF
  8
DETAIL
  6
CONTINUOUS
 62
     5
 10
-130.0
 20
-300.0
 30
0.0
 11
-130.0
 21
-296.0
 31
0.0
  0
LINE
  5
B00
  8
DETAIL
  6
CONTINUOUS
 62
     5
 10
-119.715074
 20
-295.0
 30
0.0
 11
-129.0
 21
-295.0
 31
0.0
  0
ARC
  5
B01
  8
DETAIL
  6
CONTINUOUS
 62
     5
 10
75.000408999999976
 20
-283.976471
 30
0.0
 40
1.0
 50
180.0
 51
262.84733099999988
  0
ARC
  5
B02
  8
DETAIL
  6
CONTINUOUS
 62
     5
 10
75.400408999999982
 20
-286.64705900000001
 30
0.0
 40
1.6000000000000001
 50
0.0
 51
82.847331000000025
  0
LINE
  5
B03
  8
DETAIL
  6
CONTINUOUS
 62
     5
 10
74.875895
 20
-284.96868899999998
 30
0.0
 11
75.599630000000005
 21
-285.05950999999982
 31
0.0
  0
ARC
  5
B04
  8
DETAIL
  6
CONTINUOUS
 62
     5
 10
87.000408999999948
 20
-289.39999999999992
 30
0.0
 40
10.0
 50
180.0
 51
214.05579800000001
  0
LINE
  5
B05
  8
DETAIL
  6
CONTINUOUS
 62
     5
 10
-73.999591000000024
 20
-283.976471
 30
0.0
 11
-73.999591000000024
 21
-245.0
 31
0.0
  0
LINE
  5
B06
  8
DETAIL
  6
CONTINUOUS
 62
     5
 10
-74.875078000000002
 20
-284.96868899999998
 30
0.0
 11
-75.598813000000007
 21
-285.05950999999982
 31
0.0
  0
ARC
  5
B07
  8
DETAIL
  6
CONTINUOUS
 62
     5
 10
-74.999591000000024
 20
-283.976471
 30
0.0
 40
1.0
 50
277.15266899999989
 51
0.0
  0
LINE
  5
B08
  8
DETAIL
  6
CONTINUOUS
 62
     5
 10
-76.999590999999981
 20
-289.39999999999992
 30
0.0
 11
-76.999590999999981
 21
-286.64705900000001
 31
0.0
  0
ARC
  5
B09
  8
DETAIL
  6
CONTINUOUS
 62
     5
 10
-86.999590999999995
 20
-289.39999999999992
 30
0.0
 40
10.0
 50
325.94420200000002
 51
0.0
  0
ARC
  5
B0A
  8
DETAIL
  6
CONTINUOUS
 62
     5
 10
-75.399591000000001
 20
-286.64705900000001
 30
0.0
 40
1.6000000000000001
 50
97.152669000000003
 51
180.0
  0
LINE
  5
B0B
  8
BASIS
  6
DASHDOT
 62
     6
 10
-10.0
 20
-327.60526900000002
 30
0.0
 11
-10.0
 21
-206.66336699999991
 31
0.0
  0
LINE
  5
B0C
  8
BASIS
  6
DASHDOT
 62
     6
 10
10.0
 20
-327.60526900000002
 30
0.0
 11
10.0
 21
-206.66336699999991
 31
0.0
  0
TEXT
  5
B0D
  8
NOTE
  6
CONTINUOUS
 62
     4
 10
-711.57028000000003
 20
267.810474
 30
0.0
 40
64.0
  1
ダクト接続口可動寸法
 41
0.9
  0
LINE
  5
B0E
  8
SIZE
  6
CONTINUOUS
 62
    30
 10
300.0
 20
-720.0
 30
0.0
 11
300.0
 21
-1095.455089999999
 31
0.0
  0
LINE
  5
B0F
  8
SIZE
  6
CONTINUOUS
 62
    30
 10
-300.0
 20
-720.0
 30
0.0
 11
-300.0
 21
-1095.455089999999
 31
0.0
  0
LINE
  5
B10
  8
SIZE
  6
CONTINUOUS
 62
    30
 10
288.0
 20
-1075.455089999999
 30
0.0
 11
-288.0
 21
-1075.455089999999
 31
0.0
  0
CIRCLE
  5
B11
  8
SIZE
  6
CONTINUOUS
 62
    30
 10
300.0
 20
-1075.455089999999
 30
0.0
 40
6.0
  0
LINE
  5
B12
  8
SIZE
  6
CONTINUOUS
 62
    30
 10
300.0
 20
-1075.455089999999
 30
0.0
 11
288.0
 21
-1075.455089999999
 31
0.0
  0
CIRCLE
  5
B13
  8
SIZE
  6
CONTINUOUS
 62
    30
 10
-300.0
 20
-1075.455089999999
 30
0.0
 40
6.0
  0
LINE
  5
B14
  8
SIZE
  6
CONTINUOUS
 62
    30
 10
-300.0
 20
-1075.455089999999
 30
0.0
 11
-288.0
 21
-1075.455089999999
 31
0.0
  0
TEXT
  5
B15
  8
SIZE
  6
CONTINUOUS
 62
    30
 10
-74.05714285714285
 20
-1050.4550899999999
 30
0.0
 40
64.0
  1
600
 41
0.9
 72
     1
 11
0.0
 21
-1050.4550899999999
 31
0.0
  0
LINE
  5
B16
  8
SIZE
  6
CONTINUOUS
 62
    30
 10
240.0
 20
-635.0
 30
0.0
 11
240.0
 21
-968.01833999999997
 31
0.0
  0
LINE
  5
B17
  8
SIZE
  6
CONTINUOUS
 62
    30
 10
-240.0
 20
-635.0
 30
0.0
 11
-240.0
 21
-968.01833999999997
 31
0.0
  0
LINE
  5
B18
  8
SIZE
  6
CONTINUOUS
 62
    30
 10
228.0
 20
-948.01833999999985
 30
0.0
 11
-228.0
 21
-948.01833999999985
 31
0.0
  0
CIRCLE
  5
B19
  8
SIZE
  6
CONTINUOUS
 62
    30
 10
240.0
 20
-948.01833999999985
 30
0.0
 40
6.0
  0
LINE
  5
B1A
  8
SIZE
  6
CONTINUOUS
 62
    30
 10
240.0
 20
-948.01833999999985
 30
0.0
 11
228.0
 21
-948.01833999999985
 31
0.0
  0
CIRCLE
  5
B1B
  8
SIZE
  6
CONTINUOUS
 62
    30
 10
-240.0
 20
-948.01833999999985
 30
0.0
 40
6.0
  0
LINE
  5
B1C
  8
SIZE
  6
CONTINUOUS
 62
    30
 10
-240.0
 20
-948.01833999999985
 30
0.0
 11
-228.0
 21
-948.01833999999985
 31
0.0
  0
TEXT
  5
B1D
  8
SIZE
  6
CONTINUOUS
 62
    30
 10
-74.057142857142836
 20
-923.01833999999985
 30
0.0
 40
64.0
  1
480
 41
0.9
 72
     1
 11
0.0
 21
-923.01833999999985
 31
0.0
  0
LINE
  5
B1E
  8
SIZE
  6
CONTINUOUS
 62
    30
 10
280.0
 20
-360.0
 30
0.0
 11
662.56543899999997
 21
-360.0
 31
0.0
  0
LINE
  5
B1F
  8
SIZE
  6
CONTINUOUS
 62
    30
 10
320.0
 20
-700.0
 30
0.0
 11
662.56543899999997
 21
-700.0
 31
0.0
  0
LINE
  5
B20
  8
SIZE
  6
CONTINUOUS
 62
    30
 10
642.56543899999997
 20
-372.0
 30
0.0
 11
642.56543899999997
 21
-688.0
 31
0.0
  0
CIRCLE
  5
B21
  8
SIZE
  6
CONTINUOUS
 62
    30
 10
642.56543899999997
 20
-360.0
 30
0.0
 40
6.0
  0
LINE
  5
B22
  8
SIZE
  6
CONTINUOUS
 62
    30
 10
642.56543899999997
 20
-360.0
 30
0.0
 11
642.56543899999997
 21
-372.0
 31
0.0
  0
CIRCLE
  5
B23
  8
SIZE
  6
CONTINUOUS
 62
    30
 10
642.56543899999997
 20
-700.0
 30
0.0
 40
6.0
  0
LINE
  5
B24
  8
SIZE
  6
CONTINUOUS
 62
    30
 10
642.56543899999997
 20
-700.0
 30
0.0
 11
642.56543899999997
 21
-688.0
 31
0.0
  0
TEXT
  5
B25
  8
SIZE
  6
CONTINUOUS
 62
    30
 10
617.56543899999997
 20
-604.05714285714282
 30
0.0
 40
64.0
  1
340
 50
90.0
 41
0.9
 72
     1
 11
617.56543899999997
 21
-530.0
 31
0.0
  0
LINE
  5
B26
  8
SIZE
  6
CONTINUOUS
 62
    30
 10
320.0
 20
-700.0
 30
0.0
 11
526.85730299999966
 21
-700.0
 31
0.0
  0
LINE
  5
B27
  8
SIZE
  6
CONTINUOUS
 62
    30
 10
280.0
 20
-595.0
 30
0.0
 11
526.85730299999966
 21
-595.0
 31
0.0
  0
LINE
  5
B28
  8
SIZE
  6
CONTINUOUS
 62
    30
 10
506.857303
 20
-688.0
 30
0.0
 11
506.857303
 21
-607.0
 31
0.0
  0
LINE
  5
B29
  8
SIZE
  6
CONTINUOUS
 62
    30
 10
506.857303
 20
-909.57207499999993
 30
0.0
 11
506.857303
 21
-700.0
 31
0.0
  0
TEXT
  5
B2A
  8
SIZE
  6
CONTINUOUS
 62
    30
 10
481.857303
 20
-884.57207457142852
 30
0.0
 40
64.0
  1
105
 50
90.0
 41
0.9
 72
     1
 11
481.857303
 21
-816.00064599999985
 31
0.0
  0
CIRCLE
  5
B2B
  8
SIZE
  6
CONTINUOUS
 62
    30
 10
506.857303
 20
-700.0
 30
0.0
 40
6.0
  0
LINE
  5
B2C
  8
SIZE
  6
CONTINUOUS
 62
    30
 10
506.857303
 20
-700.0
 30
0.0
 11
506.857303
 21
-688.0
 31
0.0
  0
CIRCLE
  5
B2D
  8
SIZE
  6
CONTINUOUS
 62
    30
 10
506.857303
 20
-595.0
 30
0.0
 40
6.0
  0
LINE
  5
B2E
  8
SIZE
  6
CONTINUOUS
 62
    30
 10
506.857303
 20
-595.0
 30
0.0
 11
506.857303
 21
-607.0
 31
0.0
  0
LINE
  5
B2F
  8
SIZE
  6
CONTINUOUS
 62
    30
 10
-320.0
 20
0.0
 30
0.0
 11
-694.98952599999996
 21
0.0
 31
0.0
  0
LINE
  5
B30
  8
SIZE
  6
CONTINUOUS
 62
    30
 10
-320.0
 20
-700.0
 30
0.0
 11
-694.98952599999996
 21
-700.0
 31
0.0
  0
LINE
  5
B31
  8
SIZE
  6
CONTINUOUS
 62
    30
 10
-674.98952599999996
 20
-12.0
 30
0.0
 11
-674.98952599999996
 21
-688.0
 31
0.0
  0
CIRCLE
  5
B32
  8
SIZE
  6
CONTINUOUS
 62
    30
 10
-674.98952599999996
 20
0.0
 30
0.0
 40
6.0
  0
LINE
  5
B33
  8
SIZE
  6
CONTINUOUS
 62
    30
 10
-674.98952599999996
 20
0.0
 30
0.0
 11
-674.98952599999996
 21
-12.0
 31
0.0
  0
CIRCLE
  5
B34
  8
SIZE
  6
CONTINUOUS
 62
    30
 10
-674.98952599999996
 20
-700.0
 30
0.0
 40
6.0
  0
LINE
  5
B35
  8
SIZE
  6
CONTINUOUS
 62
    30
 10
-674.98952599999996
 20
-700.0
 30
0.0
 11
-674.98952599999996
 21
-688.0
 31
0.0
  0
TEXT
  5
B36
  8
SIZE
  6
CONTINUOUS
 62
    30
 10
-699.98952599999996
 20
-424.05714285714288
 30
0.0
 40
64.0
  1
700
 50
90.0
 41
0.9
 72
     1
 11
-699.98952599999996
 21
-350.0
 31
0.0
  0
LINE
  5
B37
  8
SIZE
  6
CONTINUOUS
 62
    30
 10
-320.0
 20
-700.0
 30
0.0
 11
-574.70431399999995
 21
-700.0
 31
0.0
  0
LINE
  5
B38
  8
SIZE
  6
CONTINUOUS
 62
    30
 10
-320.0
 20
-300.0
 30
0.0
 11
-574.70431399999995
 21
-300.0
 31
0.0
  0
LINE
  5
B39
  8
SIZE
  6
CONTINUOUS
 62
    30
 10
-554.70431399999995
 20
-688.0
 30
0.0
 11
-554.70431399999995
 21
-312.0
 31
0.0
  0
CIRCLE
  5
B3A
  8
SIZE
  6
CONTINUOUS
 62
    30
 10
-554.70431399999995
 20
-700.0
 30
0.0
 40
6.0
  0
LINE
  5
B3B
  8
SIZE
  6
CONTINUOUS
 62
    30
 10
-554.70431399999995
 20
-700.0
 30
0.0
 11
-554.70431399999995
 21
-688.0
 31
0.0
  0
CIRCLE
  5
B3C
  8
SIZE
  6
CONTINUOUS
 62
    30
 10
-554.70431399999995
 20
-300.0
 30
0.0
 40
6.0
  0
LINE
  5
B3D
  8
SIZE
  6
CONTINUOUS
 62
    30
 10
-554.70431399999995
 20
-300.0
 30
0.0
 11
-554.70431399999995
 21
-312.0
 31
0.0
  0
TEXT
  5
B3E
  8
SIZE
  6
CONTINUOUS
 62
    30
 10
-579.70431399999995
 20
-574.05714285714282
 30
0.0
 40
64.0
  1
400
 50
90.0
 41
0.9
 72
     1
 11
-579.70431399999995
 21
-500.0
 31
0.0
  0
LINE
  5
B3F
  8
SIZE
  6
CONTINUOUS
 62
    30
 10
-320.0
 20
-300.0
 30
0.0
 11
-574.70431399999995
 21
-300.0
 31
0.0
  0
LINE
  5
B40
  8
SIZE
  6
CONTINUOUS
 62
    30
 10
-93.999591000000024
 20
-245.0
 30
0.0
 11
-574.70431399999995
 21
-245.0
 31
0.0
  0
LINE
  5
B41
  8
SIZE
  6
CONTINUOUS
 62
    30
 10
-554.70431399999995
 20
-312.0
 30
0.0
 11
-554.70431399999995
 21
-324.0
 31
0.0
  0
LINE
  5
B42
  8
SIZE
  6
CONTINUOUS
 62
    30
 10
-554.70431399999995
 20
-233.0
 30
0.0
 11
-554.70431399999995
 21
-221.0
 31
0.0
  0
LINE
  5
B43
  8
SIZE
  6
CONTINUOUS
 62
    30
 10
-554.70431399999995
 20
-300.0
 30
0.0
 11
-554.70431399999995
 21
-245.0
 31
0.0
  0
CIRCLE
  5
B44
  8
SIZE
  6
CONTINUOUS
 62
    30
 10
-554.70431399999995
 20
-300.0
 30
0.0
 40
6.0
  0
LINE
  5
B45
  8
SIZE
  6
CONTINUOUS
 62
    30
 10
-554.70431399999995
 20
-300.0
 30
0.0
 11
-554.70431399999995
 21
-312.0
 31
0.0
  0
CIRCLE
  5
B46
  8
SIZE
  6
CONTINUOUS
 62
    30
 10
-554.70431399999995
 20
-245.0
 30
0.0
 40
6.0
  0
LINE
  5
B47
  8
SIZE
  6
CONTINUOUS
 62
    30
 10
-554.70431399999995
 20
-245.0
 30
0.0
 11
-554.70431399999995
 21
-233.0
 31
0.0
  0
TEXT
  5
B48
  8
SIZE
  6
CONTINUOUS
 62
    30
 10
-579.70431399999995
 20
-319.12857142857138
 30
0.0
 40
64.0
  1
55
 50
90.0
 41
0.9
 72
     1
 11
-579.70431399999995
 21
-272.5
 31
0.0
  0
LINE
  5
B49
  8
SIZE
  6
CONTINUOUS
 62
    30
 10
-320.0
 20
-300.0
 30
0.0
 11
-438.95830999999998
 21
-300.0
 31
0.0
  0
LINE
  5
B4A
  8
SIZE
  6
CONTINUOUS
 62
    30
 10
-93.999591000000024
 20
-285.0
 30
0.0
 11
-438.95830999999998
 21
-285.0
 31
0.0
  0
LINE
  5
B4B
  8
SIZE
  6
CONTINUOUS
 62
    30
 10
-418.95830999999998
 20
-312.0
 30
0.0
 11
-418.95830999999998
 21
-324.0
 31
0.0
  0
LINE
  5
B4C
  8
SIZE
  6
CONTINUOUS
 62
    30
 10
-418.95830999999998
 20
-273.0
 30
0.0
 11
-418.95830999999998
 21
-261.0
 31
0.0
  0
LINE
  5
B4D
  8
SIZE
  6
CONTINUOUS
 62
    30
 10
-418.95830999999998
 20
-118.86956600000001
 30
0.0
 11
-418.95830999999998
 21
-285.0
 31
0.0
  0
TEXT
  5
B4E
  8
SIZE
  6
CONTINUOUS
 62
    30
 10
-443.95830999999998
 20
-226.15528014285701
 30
0.0
 40
64.0
  1
15
 50
90.0
 41
0.9
 72
     1
 11
-443.95830999999998
 21
-185.0124229999999
 31
0.0
  0
LINE
  5
B4F
  8
SIZE
  6
CONTINUOUS
 62
    30
 10
-418.95830999999998
 20
-300.0
 30
0.0
 11
-418.95830999999998
 21
-285.0
 31
0.0
  0
LINE
  5
B50
  8
SIZE
  6
CONTINUOUS
 62
    30
 10
-418.95830999999998
 20
-300.0
 30
0.0
 11
-418.95830999999998
 21
-285.0
 31
0.0
  0
CIRCLE
  5
B51
  8
SIZE
  6
CONTINUOUS
 62
    30
 10
-418.95830999999998
 20
-300.0
 30
0.0
 40
6.0
  0
LINE
  5
B52
  8
SIZE
  6
CONTINUOUS
 62
    30
 10
-418.95830999999998
 20
-300.0
 30
0.0
 11
-418.95830999999998
 21
-312.0
 31
0.0
  0
CIRCLE
  5
B53
  8
SIZE
  6
CONTINUOUS
 62
    30
 10
-418.95830999999998
 20
-285.0
 30
0.0
 40
6.0
  0
LINE
  5
B54
  8
SIZE
  6
CONTINUOUS
 62
    30
 10
-418.95830999999998
 20
-285.0
 30
0.0
 11
-418.95830999999998
 21
-273.0
 31
0.0
  0
LINE
  5
B55
  8
SIZE
  6
CONTINUOUS
 62
    30
 10
240.0
 20
-260.0
 30
0.0
 11
240.0
 21
500.46223499999991
 31
0.0
  0
LINE
  5
B56
  8
SIZE
  6
CONTINUOUS
 62
    30
 10
-240.0
 20
-260.0
 30
0.0
 11
-240.0
 21
500.46223499999991
 31
0.0
  0
LINE
  5
B57
  8
SIZE
  6
CONTINUOUS
 62
    30
 10
228.0
 20
480.46223499999979
 30
0.0
 11
-228.0
 21
480.46223499999979
 31
0.0
  0
CIRCLE
  5
B58
  8
SIZE
  6
CONTINUOUS
 62
    30
 10
240.0
 20
480.46223499999979
 30
0.0
 40
6.0
  0
LINE
  5
B59
  8
SIZE
  6
CONTINUOUS
 62
    30
 10
240.0
 20
480.46223499999979
 30
0.0
 11
228.0
 21
480.46223499999979
 31
0.0
  0
CIRCLE
  5
B5A
  8
SIZE
  6
CONTINUOUS
 62
    30
 10
-240.0
 20
480.46223499999979
 30
0.0
 40
6.0
  0
LINE
  5
B5B
  8
SIZE
  6
CONTINUOUS
 62
    30
 10
-240.0
 20
480.46223499999979
 30
0.0
 11
-228.0
 21
480.46223499999979
 31
0.0
  0
TEXT
  5
B5C
  8
SIZE
  6
CONTINUOUS
 62
    30
 10
-74.057142857142836
 20
505.46223499999979
 30
0.0
 40
64.0
  1
480
 41
0.9
 72
     1
 11
0.0
 21
505.46223499999979
 31
0.0
  0
LINE
  5
B5D
  8
SIZE
  6
CONTINUOUS
 62
    30
 10
10.0
 20
-186.66336699999991
 30
0.0
 11
10.0
 21
377.05212999999992
 31
0.0
  0
LINE
  5
B5E
  8
SIZE
  6
CONTINUOUS
 62
    30
 10
-10.0
 20
-186.66336699999991
 30
0.0
 11
-10.0
 21
377.05212999999992
 31
0.0
  0
LINE
  5
B5F
  8
SIZE
  6
CONTINUOUS
 62
    30
 10
22.0
 20
357.05212999999992
 30
0.0
 11
34.0
 21
357.05212999999992
 31
0.0
  0
LINE
  5
B60
  8
SIZE
  6
CONTINUOUS
 62
    30
 10
-22.0
 20
357.05212999999992
 30
0.0
 11
-34.0
 21
357.05212999999992
 31
0.0
  0
LINE
  5
B61
  8
SIZE
  6
CONTINUOUS
 62
    30
 10
-426.15802499999972
 20
357.05212999999992
 30
0.0
 11
-10.0
 21
357.05212999999992
 31
0.0
  0
TEXT
  5
B62
  8
SIZE
  6
CONTINUOUS
 62
    30
 10
-401.15802542857119
 20
382.05212999999992
 30
0.0
 40
64.0
  1
20
 41
0.9
 72
     1
 11
-354.52945399999982
 21
382.05212999999992
 31
0.0
  0
LINE
  5
B63
  8
SIZE
  6
CONTINUOUS
 62
    30
 10
10.0
 20
357.05212999999992
 30
0.0
 11
-10.0
 21
357.05212999999992
 31
0.0
  0
LINE
  5
B64
  8
SIZE
  6
CONTINUOUS
 62
    30
 10
10.0
 20
357.05212999999992
 30
0.0
 11
-10.0
 21
357.05212999999992
 31
0.0
  0
CIRCLE
  5
B65
  8
SIZE
  6
CONTINUOUS
 62
    30
 10
10.0
 20
357.05212999999992
 30
0.0
 40
6.0
  0
LINE
  5
B66
  8
SIZE
  6
CONTINUOUS
 62
    30
 10
10.0
 20
357.05212999999992
 30
0.0
 11
22.0
 21
357.05212999999992
 31
0.0
  0
CIRCLE
  5
B67
  8
SIZE
  6
CONTINUOUS
 62
    30
 10
-10.0
 20
357.05212999999992
 30
0.0
 40
6.0
  0
LINE
  5
B68
  8
SIZE
  6
CONTINUOUS
 62
    30
 10
-10.0
 20
357.05212999999992
 30
0.0
 11
-22.0
 21
357.05212999999992
 31
0.0
  0
LINE
  5
B69
  8
SIZE
  6
CONTINUOUS
 62
    30
 10
74.000408999999976
 20
-225.0
 30
0.0
 11
74.000408999999976
 21
181.86678900000001
 31
0.0
  0
LINE
  5
B6A
  8
SIZE
  6
CONTINUOUS
 62
    30
 10
-73.999591000000024
 20
-225.0
 30
0.0
 11
-73.999591000000024
 21
181.86678900000001
 31
0.0
  0
LINE
  5
B6B
  8
SIZE
  6
CONTINUOUS
 62
    30
 10
62.000408999999998
 20
161.8667889999999
 30
0.0
 11
-61.999591000000002
 21
161.8667889999999
 31
0.0
  0
LINE
  5
B6C
  8
SIZE
  6
CONTINUOUS
 62
    30
 10
485.76482499999992
 20
161.8667889999999
 30
0.0
 11
74.000408999999976
 21
161.8667889999999
 31
0.0
  0
TEXT
  5
B6D
  8
SIZE
  6
CONTINUOUS
 62
    30
 10
257.2448254285714
 20
186.8667889999999
 30
0.0
 40
64.0
  1
φ148
 41
0.9
 72
     1
 11
366.13625400000001
 21
186.8667889999999
 31
0.0
  0
CIRCLE
  5
B6E
  8
SIZE
  6
CONTINUOUS
 62
    30
 10
74.000408999999976
 20
161.8667889999999
 30
0.0
 40
6.0
  0
LINE
  5
B6F
  8
SIZE
  6
CONTINUOUS
 62
    30
 10
74.000408999999976
 20
161.8667889999999
 30
0.0
 11
62.000408999999998
 21
161.8667889999999
 31
0.0
  0
CIRCLE
  5
B70
  8
SIZE
  6
CONTINUOUS
 62
    30
 10
-73.999591000000024
 20
161.8667889999999
 30
0.0
 40
6.0
  0
LINE
  5
B71
  8
SIZE
  6
CONTINUOUS
 62
    30
 10
-73.999591000000024
 20
161.8667889999999
 30
0.0
 11
-61.999591000000002
 21
161.8667889999999
 31
0.0
  0
LINE
  5
B72
  8
SIZE
  6
CONTINUOUS
 62
    30
 39
50.0
 10
-426.15802499999972
 20
357.05212999999992
 30
0.0
 11
-712.15302899999995
 21
357.05212999999992
 31
0.0
  0
LINE
  5
B73
  8
NOTE
  6
CONTINUOUS
 62
     4
 10
-180.0
 20
-300.0
 30
0.0
 11
-140.0
 21
-300.0
 31
0.0
  0
LINE
  5
B74
  8
NOTE
  6
CONTINUOUS
 62
     4
 10
-1753.0351629999991
 20
122.939111
 30
0.0
 11
-624.13388299999997
 21
122.939111
 31
0.0
  0
TEXT
  5
B75
  8
NOTE
  6
CONTINUOUS
 62
     4
 10
-1729.311776999999
 20
160.69611499999999
 30
0.0
 40
64.0
  1
電動給気シャッター連動出力コード
 41
0.9
  0
LINE
  5
B76
  8
NOTE
  6
CONTINUOUS
 62
     4
 39
50.0
 10
-157.0
 20
-300.0
 30
0.0
 11
-624.13388299999997
 21
122.939111
 31
0.0
  0
LINE
  5
B77
  8
NOTE
  6
CONTINUOUS
 62
     4
 10
-198.1960982820718
 20
-278.74942216428462
 30
0.0
 11
-157.0
 21
-300.0
 31
0.0
  0
LINE
  5
B78
  8
NOTE
  6
CONTINUOUS
 62
     4
 10
-157.0
 20
-300.0
 30
0.0
 11
-180.73687840231801
 21
-258.91718171421871
 31
0.0
  0
TEXT
  5
B79
  8
ETC
  6
CONTINUOUS
 62
    61
 10
873.69946843118475
 20
569.85294292414073
 30
0.0
 40
50.0
  1
V-6037K6-BL
 41
0.9
  0
TEXT
  5
B7A
  8
ETC
  6
CONTINUOUS
 62
    61
 10
871.13202180950805
 20
490.29320264249668
 30
0.0
 40
50.0
  1
V-6047K6-BL
 41
0.9
  0
TEXT
  5
B7B
  8
ETC
  6
CONTINUOUS
 62
    61
 10
873.69946843118475
 20
415.86634776738879
 30
0.0
 40
50.0
  1
V-6037KLR6-BL
 41
0.9
  0
TEXT
  5
B7C
  8
ETC
  6
CONTINUOUS
 62
    61
 10
876.26692186756725
 20
344.00593794988248
 30
0.0
 40
50.0
  1
V-6047KLR6-BL
 41
0.9
  0
TEXT
  5
B7D
  8
ETC
  6
CONTINUOUS
 62
    61
 10
736.98495630382081
 20
759.8998557784405
 30
0.0
 40
64.0
  1
V-6037K6-BL_3
 41
0.9
  0
TEXT
  5
B7E
  8
ETC
  6
CONTINUOUS
 62
    61
 10
741.52966330382083
 20
650.5972257784407
 30
0.0
 40
64.0
  1
換気扇
 41
0.9
  0
LINE
  5
B7F
  8
NOTE
  6
CONTINUOUS
 62
     4
 10
-186.0
 20
-320.0
 30
0.0
 11
-186.0
 21
-280.0
 31
0.0
  0
LINE
  5
B80
  8
NOTE
  6
CONTINUOUS
 62
     4
 10
-157.0
 20
-320.0
 30
0.0
 11
-157.0
 21
-280.0
 31
0.0
  0
LINE
  5
B81
  8
SIZE
  6
CONTINUOUS
 10
-186.0
 20
-240.0
 30
0.0
 11
-185.99999999999989
 21
181.92298040122839
 31
0.0
  0
LINE
  5
B82
  8
SIZE
  6
CONTINUOUS
 10
-157.0
 20
-260.0
 30
0.0
 11
-156.9999999999998
 21
181.92298040122839
 31
0.0
  0
LINE
  5
B83
  8
SIZE
  6
CONTINUOUS
 10
-185.99999999999989
 20
161.92298040122839
 30
0.0
 11
-197.9999999999994
 21
161.92298040122839
 31
0.0
  0
LINE
  5
B84
  8
SIZE
  6
CONTINUOUS
 10
-186.0
 20
-260.0
 30
0.0
 11
-185.99999999999989
 21
181.92298040122839
 31
0.0
  0
LINE
  5
B85
  8
SIZE
  6
CONTINUOUS
 10
-300.0
 20
20.0
 30
0.0
 11
-300.0
 21
181.92298040122839
 31
0.0
  0
LINE
  5
B86
  8
SIZE
  6
CONTINUOUS
 10
-124.7880158013203
 20
161.92298040122839
 30
0.0
 11
-300.0
 21
161.92298040122839
 31
0.0
  0
LINE
  5
B87
  8
SIZE
  6
CONTINUOUS
 10
-300.0
 20
161.92298040122839
 30
0.0
 11
-490.9142857142856
 21
161.92298040122839
 31
0.0
  0
TEXT
  5
B88
  8
SIZE
  6
CONTINUOUS
 10
-465.9142857142856
 20
186.92298040122839
 30
0.0
 40
64.0
  1
114
 41
0.9
  0
TEXT
  5
B89
  8
SIZE
  6
CONTINUOUS
 10
-216.75714285714281
 20
186.92298040122839
 30
0.0
 40
64.0
  1
29
 41
0.9
  0
CIRCLE
  5
B8A
  8
SIZE
  6
CONTINUOUS
 62
    30
 39
50.0
 10
-300.0
 20
161.92298040122839
 30
0.0
 40
6.0
  0
CIRCLE
  5
B8B
  8
SIZE
  6
CONTINUOUS
 62
    30
 39
50.0
 10
-185.99999999999989
 20
161.92298040122839
 30
0.0
 40
6.0
  0
CIRCLE
  5
B8C
  8
SIZE
  6
CONTINUOUS
 62
    30
 39
50.0
 10
-156.9999999999998
 20
161.92298040122839
 30
0.0
 40
6.0
  0
LINE
  5
B8F
  8
OUTLINE
  6
CONTINUOUS
 62
     3
 39
50.0
 10
-206.0
 20
-300.0
 30
0.0
 11
-166.0
 21
-300.0
 31
0.0
  0
ENDSEC
  0
EOF
