  0
SECTION
  2
HEADER
  9
$ACADVER
  1
AC1009
  9
$INSBASE
 10
0.0
 20
0.0
 30
0.0
  9
$EXTMIN
 10
-709.080873
 20
-714.60153800000001
 30
0.0
  9
$EXTMAX
 10
1235.3745567229071
 20
653.84236848324554
 30
0.0
  9
$LIMMIN
 10
-2970.0
 20
-2100.0
  9
$LIMMAX
 10
2970.0
 20
2100.0
  9
$ORTHOMODE
 70
     0
  9
$REGENMODE
 70
     0
  9
$FILLMODE
 70
     1
  9
$QTEXTMODE
 70
     0
  9
$MIRRTEXT
 70
     0
  9
$DRAGMODE
 70
     2
  9
$LTSCALE
 40
20.0
  9
$OSMODE
 70
   175
  9
$ATTMODE
 70
     1
  9
$TEXTSIZE
 40
64.0
  9
$TRACEWID
 40
0.05
  9
$TEXTSTYLE
  7
STANDARD
  9
$CLAYER
  8
SIZE
  9
$CELTYPE
  6
CONTINUOUS
  9
$CECOLOR
 62
    30
  9
$DIMSCALE
 40
1.0
  9
$DIMASZ
 40
12.0
  9
$DIMEXO
 40
20.0
  9
$DIMDLI
 40
200.0
  9
$DIMRND
 40
0.0
  9
$DIMDLE
 40
0.0
  9
$DIMEXE
 40
20.0
  9
$DIMTP
 40
0.0
  9
$DIMTM
 40
0.0
  9
$DIMTXT
 40
64.0
  9
$DIMCEN
 40
0.09
  9
$DIMTSZ
 40
0.0
  9
$DIMTOL
 70
     0
  9
$DIMLIM
 70
     0
  9
$DIMTIH
 70
     0
  9
$DIMTOH
 70
     0
  9
$DIMSE1
 70
     0
  9
$DIMSE2
 70
     0
  9
$DIMTAD
 70
     1
  9
$DIMZIN
 70
     8
  9
$DIMBLK
  1
DOT1
  9
$DIMASO
 70
     1
  9
$DIMSHO
 70
     0
  9
$DIMPOST
  1

  9
$DIMAPOST
  1

  9
$DIMALT
 70
     0
  9
$DIMALTD
 70
     2
  9
$DIMALTF
 40
25.399999999999999
  9
$DIMLFAC
 40
1.0
  9
$DIMTOFL
 70
     1
  9
$DIMTVP
 40
0.0
  9
$DIMTIX
 70
     1
  9
$DIMSOXD
 70
     0
  9
$DIMSAH
 70
     1
  9
$DIMBLK1
  1
ORIGIN
  9
$DIMBLK2
  1
ORIGIN
  9
$DIMSTYLE
  2
STANDARD
  9
$DIMCLRD
 70
     7
  9
$DIMCLRE
 70
     7
  9
$DIMCLRT
 70
     7
  9
$DIMTFAC
 40
1.0
  9
$DIMGAP
 40
25.0
  9
$LUNITS
 70
     2
  9
$LUPREC
 70
     4
  9
$SKETCHINC
 40
0.1
  9
$FILLETRAD
 40
4.0
  9
$AUNITS
 70
     1
  9
$AUPREC
 70
     3
  9
$MENU
  1
ACAD
  9
$ELEVATION
 40
0.0
  9
$PELEVATION
 40
0.0
  9
$THICKNESS
 40
50.0
  9
$LIMCHECK
 70
     0
  9
$BLIPMODE
 70
     0
  9
$CHAMFERA
 40
0.0
  9
$CHAMFERB
 40
0.0
  9
$SKPOLY
 70
     0
  9
$TDCREATE
 40
2453091.4018526501
  9
$TDUPDATE
 40
2453792.4831897328
  9
$TDINDWG
 40
0.0079516088
  9
$TDUSRTIMER
 40
0.0079516088
  9
$USRTIMER
 70
     1
  9
$ANGBASE
 50
0.0
  9
$ANGDIR
 70
     0
  9
$PDMODE
 70
     3
  9
$PDSIZE
 40
-2.0
  9
$PLINEWID
 40
0.0
  9
$COORDS
 70
     2
  9
$SPLFRAME
 70
     0
  9
$SPLINETYPE
 70
     6
  9
$SPLINESEGS
 70
     8
  9
$ATTDIA
 70
     0
  9
$ATTREQ
 70
     1
  9
$HANDLING
 70
 22529
  9
$HANDSEED
  5
313
  9
$SURFTAB1
 70
     6
  9
$SURFTAB2
 70
     6
  9
$SURFTYPE
 70
     6
  9
$SURFU
 70
     6
  9
$SURFV
 70
     6
  9
$UCSNAME
  2

  9
$UCSORG
 10
0.0
 20
0.0
 30
0.0
  9
$UCSXDIR
 10
1.0
 20
0.0
 30
0.0
  9
$UCSYDIR
 10
0.0
 20
1.0
 30
0.0
  9
$PUCSNAME
  2

  9
$PUCSORG
 10
0.0
 20
0.0
 30
0.0
  9
$PUCSXDIR
 10
1.0
 20
0.0
 30
0.0
  9
$PUCSYDIR
 10
0.0
 20
1.0
 30
0.0
  9
$USERI1
 70
     0
  9
$USERI2
 70
     0
  9
$USERI3
 70
     0
  9
$USERI4
 70
     0
  9
$USERI5
 70
     0
  9
$USERR1
 40
20.0
  9
$USERR2
 40
0.0
  9
$USERR3
 40
0.0
  9
$USERR4
 40
0.0
  9
$USERR5
 40
0.0
  9
$WORLDVIEW
 70
     1
  9
$SHADEDGE
 70
     3
  9
$SHADEDIF
 70
    70
  9
$TILEMODE
 70
     1
  9
$MAXACTVP
 70
    48
  9
$PLIMCHECK
 70
     0
  9
$PEXTMIN
 10
-1.0000000000000000E+020
 20
-1.0000000000000000E+020
 30
-1.0000000000000000E+020
  9
$PEXTMAX
 10
1.0000000000000000E+020
 20
1.0000000000000000E+020
 30
1.0000000000000000E+020
  9
$PLIMMIN
 10
0.0
 20
0.0
  9
$PLIMMAX
 10
12.0
 20
9.0
  9
$UNITMODE
 70
     0
  9
$VISRETAIN
 70
     0
  9
$PLINEGEN
 70
     0
  9
$PSLTSCALE
 70
     0
  0
ENDSEC
  0
SECTION
  2
TABLES
  0
TABLE
  2
VPORT
 70
     9
  0
VPORT
  2
*ACTIVE
 70
     0
 10
0.0
 20
0.0
 11
1.0
 21
1.0
 12
112.100700506772
 22
-127.4386619001325
 13
0.0
 23
0.0
 14
1.0
 24
1.0
 15
0.0
 25
0.0
 16
0.0
 26
0.0
 36
1.0
 17
0.0
 27
0.0
 37
0.0
 40
2308.3513079524741
 41
1.447268106734434
 42
50.0
 43
0.0
 44
0.0
 50
0.0
 51
0.0
 71
     0
 72
  1000
 73
     1
 74
     0
 75
     0
 76
     0
 77
     0
 78
     0
  0
ENDTAB
  0
TABLE
  2
LTYPE
 70
     3
  0
LTYPE
  2
CONTINUOUS
 70
     0
  3
実線
 72
    65
 73
     0
 40
0.0
  0
LTYPE
  2
DASHDOT
 70
     0
  3
____ _ ____ _ ____ _ ____ _ ____ _ ____ _ ____
 72
    65
 73
     4
 40
5.5
 49
4.0
 49
-0.6
 49
0.3
 49
-0.6
  0
LTYPE
  2
CONTINOUS
 70
     0
  3
Solid line
 72
    65
 73
     0
 40
0.0
  0
ENDTAB
  0
TABLE
  2
LAYER
 70
    12
  0
LAYER
  2
0
 70
     0
 62
     7
  6
CONTINUOUS
  0
LAYER
  2
SIZE
 70
     0
 62
    30
  6
CONTINUOUS
  0
LAYER
  2
BASIS
 70
     0
 62
     6
  6
DASHDOT
  0
LAYER
  2
OUTLINE
 70
     0
 62
     3
  6
CONTINUOUS
  0
LAYER
  2
DETAIL
 70
     0
 62
     5
  6
CONTINUOUS
  0
LAYER
  2
ARRANGE
 70
     0
 62
     1
  6
CONTINUOUS
  0
LAYER
  2
DEFPOINTS
 70
     0
 62
     7
  6
CONTINUOUS
  0
LAYER
  2
ETC
 70
     0
 62
    61
  6
CONTINUOUS
  0
LAYER
  2
FIX
 70
     0
 62
    11
  6
CONTINUOUS
  0
LAYER
  2
NOTE
 70
     0
 62
     4
  6
CONTINUOUS
  0
LAYER
  2
SERVICESPACE
 70
     0
 62
     2
  6
DASHDOT
  0
LAYER
  2
SYMBOLLINE
 70
     0
 62
    15
  6
CONTINUOUS
  0
ENDTAB
  0
TABLE
  2
STYLE
 70
     1
  0
STYLE
  2
STANDARD
 70
     0
 40
64.0
 41
0.9
 50
0.0
 71
     0
 42
64.0
  3
SIMPLEX.shx
  4
BIGFONT.shx
  0
ENDTAB
  0
TABLE
  2
VIEW
 70
     1
  0
VIEW
  2
ALL
 70
     0
 40
4282.6198079999976
 10
0.0
 20
41.309903999999989
 41
5940.0
 11
0.0
 21
0.0
 31
1.0
 12
0.0
 22
0.0
 32
0.0
 42
50.0
 43
0.0
 44
0.0
 50
0.0
 71
     0
  0
ENDTAB
  0
TABLE
  2
UCS
 70
     0
  0
ENDTAB
  0
TABLE
  2
APPID
 70
     2
  0
APPID
  2
ACAD
 70
     0
  0
APPID
  2
AUTOCAD_POSTSCRIPT_FIGURE
 70
     0
  0
ENDTAB
  0
TABLE
  2
DIMSTYLE
 70
     1
  0
DIMSTYLE
  2
STANDARD
 70
     0
  3

  4

  5

  6

  7

 40
1.0
 41
0.18
 42
0.0625
 43
0.38
 44
0.18
 45
0.0
 46
0.0
 47
0.0
 48
0.0
140
0.18
141
0.09
142
0.0
143
25.399999999999999
144
1.0
145
0.0
146
1.0
147
0.09
 71
     0
 72
     0
 73
     1
 74
     1
 75
     0
 76
     0
 77
     0
 78
     0
170
     0
171
     2
172
     0
173
     0
174
     0
175
     0
176
     7
177
     7
178
     7
  0
ENDTAB
  0
ENDSEC
  0
SECTION
  2
BLOCKS
  0
BLOCK
  8
0
  2
$MODEL_SPACE
 70
     0
 10
0.0
 20
0.0
 30
0.0
  3
$MODEL_SPACE
  1

  0
ENDBLK
  5
150
  8
0
  0
BLOCK
 67
     1
  8
0
  2
$PAPER_SPACE
 70
     0
 10
0.0
 20
0.0
 30
0.0
  3
$PAPER_SPACE
  1

  0
ENDBLK
  5
14C
 67
     1
  8
0
  0
BLOCK
  8
0
  2
DOT1
 70
     0
 10
0.0
 20
0.0
 30
0.0
  3
DOT1
  1

  0
CIRCLE
  5
16D
  8
SIZE
  6
CONTINUOUS
 62
     7
 10
0.0
 20
0.0
 30
0.0
 40
3.0
  0
ENDBLK
  5
16E
  8
0
  0
BLOCK
  8
0
  2
_ORIGIN
 70
     0
 10
0.0
 20
0.0
 30
0.0
  3
_ORIGIN
  1

  0
CIRCLE
  5
171
  8
0
  6
CONTINUOUS
 62
     7
 10
0.0
 20
0.0
 30
0.0
 40
0.5
  0
LINE
  5
172
  8
0
  6
CONTINUOUS
 62
     7
 10
0.0
 20
0.0
 30
0.0
 11
-1.0
 21
0.0
 31
0.0
  0
ENDBLK
  5
173
  8
0
  0
BLOCK
  8
0
 62
    30
  2
_NONE
 70
     0
 10
0.0
 20
0.0
 30
0.0
  3
_NONE
  1

  0
ENDBLK
  5
176
  8
0
 62
    30
  0
BLOCK
  8
0
 62
    30
  2
_OPEN30
 70
     0
 10
0.0
 20
0.0
 30
0.0
  3
_OPEN30
  1

  0
LINE
  5
179
  8
0
  6
BYBLOCK
 62
     0
 10
-1.0
 20
0.26794919
 30
0.0
 11
0.0
 21
0.0
 31
0.0
  0
LINE
  5
17A
  8
0
  6
BYBLOCK
 62
     0
 10
0.0
 20
0.0
 30
0.0
 11
-1.0
 21
-0.26794919
 31
0.0
  0
LINE
  5
17B
  8
0
  6
BYBLOCK
 62
     0
 10
0.0
 20
0.0
 30
0.0
 11
-1.0
 21
0.0
 31
0.0
  0
ENDBLK
  5
17C
  8
0
 62
    30
  0
ENDSEC
  0
SECTION
  2
ENTITIES
  0
LINE
  5
17D
  8
BASIS
  6
DASHDOT
 62
     6
 10
0.0
 20
-714.60153800000001
 30
0.0
 11
0.0
 21
48.39717799999999
 31
0.0
  0
LINE
  5
17E
  8
DETAIL
  6
CONTINOUS
 62
     5
 10
300.0
 20
0.0
 30
0.0
 11
300.0
 21
-640.0
 31
0.0
  0
LINE
  5
17F
  8
DETAIL
  6
CONTINOUS
 62
     5
 10
279.99878499999988
 20
-648.0
 30
0.0
 11
292.0
 21
-648.0
 31
0.0
  0
ARC
  5
180
  8
DETAIL
  6
CONTINOUS
 62
     5
 10
-292.0
 20
-640.0
 30
0.0
 40
8.0
 50
180.0
 51
270.0
  0
LINE
  5
181
  8
DETAIL
  6
CONTINOUS
 62
     5
 10
279.99878499999988
 20
-648.0
 30
0.0
 11
279.99878499999988
 21
-650.0
 31
0.0
  0
ARC
  5
182
  8
DETAIL
  6
CONTINOUS
 62
     5
 10
292.0
 20
-640.0
 30
0.0
 40
8.0
 50
270.0
 51
0.0
  0
LINE
  5
183
  8
DETAIL
  6
CONTINOUS
 62
     5
 10
-292.0
 20
-648.0
 30
0.0
 11
-280.001215
 21
-648.0
 31
0.0
  0
LINE
  5
184
  8
DETAIL
  6
CONTINOUS
 62
     5
 10
-280.001215
 20
-650.0
 30
0.0
 11
279.99878499999988
 21
-650.0
 31
0.0
  0
LINE
  5
185
  8
DETAIL
  6
CONTINOUS
 62
     5
 10
-300.0
 20
0.0
 30
0.0
 11
-300.0
 21
-640.0
 31
0.0
  0
LINE
  5
186
  8
DETAIL
  6
CONTINOUS
 62
     5
 10
-300.0
 20
0.0
 30
0.0
 11
-74.0
 21
0.0
 31
0.0
  0
LINE
  5
187
  8
NOTE
  6
CONTINUOUS
 62
     4
 10
220.0
 20
0.0
 30
0.0
 11
260.0
 21
0.0
 31
0.0
  0
LINE
  5
188
  8
DETAIL
  6
CONTINOUS
 62
     5
 10
-74.0
 20
0.0
 30
0.0
 11
300.0
 21
0.0
 31
0.0
  0
LINE
  5
189
  8
DETAIL
  6
CONTINOUS
 62
     5
 10
-280.0
 20
-455.0
 30
0.0
 11
0.0
 21
-455.0
 31
0.0
  0
LINE
  5
18A
  8
DETAIL
  6
CONTINOUS
 62
     5
 10
280.0
 20
-455.0
 30
0.0
 11
0.0
 21
-455.0
 31
0.0
  0
LINE
  5
18B
  8
DETAIL
  6
CONTINOUS
 62
     5
 10
-280.0
 20
0.0
 30
0.0
 11
-280.0
 21
-650.0
 31
0.0
  0
LINE
  5
18C
  8
DETAIL
  6
CONTINOUS
 62
     5
 10
280.0
 20
0.0
 30
0.0
 11
280.0
 21
-650.0
 31
0.0
  0
LINE
  5
18D
  8
NOTE
  6
CONTINUOUS
 62
     4
 10
-240.0
 20
-20.0
 30
0.0
 11
-240.0
 21
20.0
 31
0.0
  0
LINE
  5
18E
  8
NOTE
  6
CONTINUOUS
 62
     4
 10
-260.0
 20
0.0
 30
0.0
 11
-220.0
 21
0.0
 31
0.0
  0
LINE
  5
18F
  8
NOTE
  6
CONTINUOUS
 62
     4
 10
240.0
 20
-20.0
 30
0.0
 11
240.0
 21
20.0
 31
0.0
  0
LINE
  5
190
  8
NOTE
  6
CONTINUOUS
 62
     4
 10
220.0
 20
0.0
 30
0.0
 11
260.0
 21
0.0
 31
0.0
  0
CIRCLE
  5
191
  8
FIX
  6
CONTINUOUS
 62
    11
 10
-240.0
 20
0.0
 30
0.0
 40
4.0
  0
CIRCLE
  5
192
  8
FIX
  6
CONTINUOUS
 62
    11
 10
240.0
 20
0.0
 30
0.0
 40
4.0
  0
TEXT
  5
193
  8
NOTE
  6
CONTINUOUS
 62
     4
 10
-674.54511999999977
 20
236.28369199999989
 30
0.0
 40
64.0
  1
4-φ8
 41
0.9
  0
LINE
  5
194
  8
NOTE
  6
CONTINUOUS
 62
     4
 10
-709.080873
 20
204.62565799999999
 30
0.0
 11
-410.03693999999979
 21
204.62565799999999
 31
0.0
  0
LINE
  5
195
  8
NOTE
  6
CONTINUOUS
 62
     4
 10
-240.0
 20
0.0
 30
0.0
 11
-410.03693999999979
 21
204.62565799999999
 31
0.0
  0
LINE
  5
196
  8
NOTE
  6
CONTINUOUS
 62
     4
 10
-272.25367499999982
 20
23.657987999999978
 30
0.0
 11
-240.0
 21
0.0
 31
0.0
  0
LINE
  5
197
  8
NOTE
  6
CONTINUOUS
 62
     4
 10
-240.0
 20
0.0
 30
0.0
 11
-256.10350799999992
 21
36.615257
 31
0.0
  0
POINT
  5
198
  8
ARRANGE
  6
CONTINUOUS
 62
     1
 10
0.0
 20
0.0
 30
0.0
  0
CIRCLE
  5
199
  8
ARRANGE
  6
CONTINUOUS
 62
     1
 10
0.0
 20
0.0
 30
0.0
 40
40.0
  0
LINE
  5
19A
  8
OUTLINE
  6
CONTINOUS
 62
     3
 10
-300.0
 20
0.0
 30
0.0
 11
-300.0
 21
-640.0
 31
0.0
  0
LINE
  5
19B
  8
OUTLINE
  6
CONTINOUS
 62
     3
 10
-292.0
 20
-648.0
 30
0.0
 11
-280.0
 21
-648.0
 31
0.0
  0
LINE
  5
19C
  8
OUTLINE
  6
CONTINOUS
 62
     3
 10
-280.001215
 20
-650.0
 30
0.0
 11
279.99878499999988
 21
-650.0
 31
0.0
  0
LINE
  5
19D
  8
OUTLINE
  6
CONTINOUS
 62
     3
 10
-280.0
 20
-648.0
 30
0.0
 11
-280.0
 21
-650.0
 31
0.0
  0
LINE
  5
19E
  8
OUTLINE
  6
CONTINOUS
 62
     3
 10
-300.0
 20
0.0
 30
0.0
 11
300.0
 21
0.0
 31
0.0
  0
ARC
  5
19F
  8
OUTLINE
  6
CONTINOUS
 62
     3
 10
-292.0
 20
-640.0
 30
0.0
 40
8.0
 50
180.0
 51
270.0
  0
ARC
  5
1A0
  8
OUTLINE
  6
CONTINOUS
 62
     3
 10
292.0
 20
-640.0
 30
0.0
 40
8.0
 50
270.0
 51
0.0
  0
LINE
  5
1A1
  8
OUTLINE
  6
CONTINOUS
 62
     3
 10
280.0
 20
-648.0
 30
0.0
 11
280.0
 21
-650.0
 31
0.0
  0
LINE
  5
1A2
  8
OUTLINE
  6
CONTINOUS
 62
     3
 10
292.0
 20
-648.0
 30
0.0
 11
280.0
 21
-648.0
 31
0.0
  0
LINE
  5
1A3
  8
OUTLINE
  6
CONTINOUS
 62
     3
 10
300.0
 20
0.0
 30
0.0
 11
300.0
 21
-640.0
 31
0.0
  0
LINE
  5
1A4
  8
DETAIL
  6
CONTINUOUS
 62
     5
 10
280.0
 20
-590.0
 30
0.0
 11
-280.0
 21
-590.0
 31
0.0
  0
LINE
  5
1A5
  8
DETAIL
  6
CONTINUOUS
 62
     5
 10
120.5
 20
-190.0
 30
0.0
 11
92.0
 21
-223.0
 31
0.0
  0
LINE
  5
1A6
  8
DETAIL
  6
CONTINUOUS
 62
     5
 10
149.0
 20
-190.0
 30
0.0
 11
92.0
 21
-256.0
 31
0.0
  0
LINE
  5
1A7
  8
DETAIL
  6
CONTINUOUS
 62
     5
 10
177.5
 20
-190.0
 30
0.0
 11
92.0
 21
-289.0
 31
0.0
  0
LINE
  5
1A8
  8
DETAIL
  6
CONTINUOUS
 62
     5
 10
206.0
 20
-190.0
 30
0.0
 11
92.0
 21
-322.0
 31
0.0
  0
LINE
  5
1A9
  8
DETAIL
  6
CONTINUOUS
 62
     5
 10
234.5
 20
-190.0
 30
0.0
 11
92.0
 21
-355.0
 31
0.0
  0
LINE
  5
1AA
  8
DETAIL
  6
CONTINUOUS
 62
     5
 10
263.0
 20
-190.0
 30
0.0
 11
92.0
 21
-388.0
 31
0.0
  0
LINE
  5
1AB
  8
DETAIL
  6
CONTINUOUS
 62
     5
 10
280.0
 20
-203.315789
 30
0.0
 11
92.0
 21
-421.0
 31
0.0
  0
LINE
  5
1AC
  8
DETAIL
  6
CONTINUOUS
 62
     5
 10
280.0
 20
-236.216374
 30
0.0
 11
92.0
 21
-455.0
 31
0.0
  0
LINE
  5
1AD
  8
DETAIL
  6
CONTINUOUS
 62
     5
 10
280.0
 20
-269.19649099999992
 30
0.0
 11
120.5
 21
-455.0
 31
0.0
  0
LINE
  5
1AE
  8
DETAIL
  6
CONTINUOUS
 62
     5
 10
280.0
 20
-302.16666700000002
 30
0.0
 11
149.0
 21
-455.0
 31
0.0
  0
LINE
  5
1AF
  8
DETAIL
  6
CONTINUOUS
 62
     5
 10
280.0
 20
-335.11695900000001
 30
0.0
 11
177.5
 21
-455.0
 31
0.0
  0
LINE
  5
1B0
  8
DETAIL
  6
CONTINUOUS
 62
     5
 10
280.0
 20
-368.01754399999987
 30
0.0
 11
206.0
 21
-455.0
 31
0.0
  0
LINE
  5
1B1
  8
DETAIL
  6
CONTINUOUS
 62
     5
 10
280.0
 20
-400.71929799999998
 30
0.0
 11
234.5
 21
-455.0
 31
0.0
  0
LINE
  5
1B2
  8
DETAIL
  6
CONTINUOUS
 62
     5
 10
234.5
 20
-190.0
 30
0.0
 11
280.0
 21
-242.68421099999989
 31
0.0
  0
LINE
  5
1B3
  8
DETAIL
  6
CONTINUOUS
 62
     5
 10
280.0
 20
-275.684211
 30
0.0
 11
206.0
 21
-190.0
 31
0.0
  0
LINE
  5
1B4
  8
DETAIL
  6
CONTINUOUS
 62
     5
 10
177.5
 20
-190.0
 30
0.0
 11
280.0
 21
-308.684211
 31
0.0
  0
LINE
  5
1B5
  8
DETAIL
  6
CONTINUOUS
 62
     5
 10
149.0
 20
-190.0
 30
0.0
 11
280.0
 21
-341.684211
 31
0.0
  0
LINE
  5
1B6
  8
DETAIL
  6
CONTINUOUS
 62
     5
 10
120.5
 20
-190.0
 30
0.0
 11
280.0
 21
-374.684211
 31
0.0
  0
LINE
  5
1B7
  8
DETAIL
  6
CONTINUOUS
 62
     5
 10
92.0
 20
-190.0
 30
0.0
 11
280.0
 21
-407.684211
 31
0.0
  0
LINE
  5
1B8
  8
DETAIL
  6
CONTINUOUS
 62
     5
 10
280.0
 20
-440.684211
 30
0.0
 11
92.0
 21
-223.0
 31
0.0
  0
LINE
  5
1B9
  8
DETAIL
  6
CONTINUOUS
 62
     5
 10
92.0
 20
-256.0
 30
0.0
 11
263.0
 21
-455.0
 31
0.0
  0
LINE
  5
1BA
  8
DETAIL
  6
CONTINUOUS
 62
     5
 10
234.5
 20
-455.0
 30
0.0
 11
92.0
 21
-289.0
 31
0.0
  0
LINE
  5
1BB
  8
DETAIL
  6
CONTINUOUS
 62
     5
 10
92.0
 20
-322.0
 30
0.0
 11
206.0
 21
-455.0
 31
0.0
  0
LINE
  5
1BC
  8
DETAIL
  6
CONTINUOUS
 62
     5
 10
177.5
 20
-455.0
 30
0.0
 11
92.0
 21
-355.0
 31
0.0
  0
LINE
  5
1BD
  8
DETAIL
  6
CONTINUOUS
 62
     5
 10
92.0
 20
-388.0
 30
0.0
 11
149.0
 21
-455.0
 31
0.0
  0
LINE
  5
1BE
  8
DETAIL
  6
CONTINUOUS
 62
     5
 10
120.5
 20
-455.0
 30
0.0
 11
92.0
 21
-421.0
 31
0.0
  0
LINE
  5
1BF
  8
DETAIL
  6
CONTINUOUS
 62
     5
 10
-234.5
 20
-455.0
 30
0.0
 11
-280.0
 21
-400.71929799999998
 31
0.0
  0
LINE
  5
1C0
  8
DETAIL
  6
CONTINUOUS
 62
     5
 10
-280.0
 20
-368.01754399999987
 30
0.0
 11
-206.0
 21
-455.0
 31
0.0
  0
LINE
  5
1C1
  8
DETAIL
  6
CONTINUOUS
 62
     5
 10
-177.5
 20
-455.0
 30
0.0
 11
-280.0
 21
-335.11695900000001
 31
0.0
  0
LINE
  5
1C2
  8
DETAIL
  6
CONTINUOUS
 62
     5
 10
-280.0
 20
-302.16666700000002
 30
0.0
 11
-149.0
 21
-455.0
 31
0.0
  0
LINE
  5
1C3
  8
DETAIL
  6
CONTINUOUS
 62
     5
 10
-120.5
 20
-455.0
 30
0.0
 11
-280.0
 21
-269.19649099999992
 31
0.0
  0
LINE
  5
1C4
  8
DETAIL
  6
CONTINUOUS
 62
     5
 10
-280.0
 20
-236.216374
 30
0.0
 11
-92.0
 21
-455.0
 31
0.0
  0
LINE
  5
1C5
  8
DETAIL
  6
CONTINUOUS
 62
     5
 10
-92.0
 20
-421.0
 30
0.0
 11
-280.0
 21
-203.315789
 31
0.0
  0
LINE
  5
1C6
  8
DETAIL
  6
CONTINUOUS
 62
     5
 10
-263.0
 20
-190.0
 30
0.0
 11
-92.0
 21
-388.0
 31
0.0
  0
LINE
  5
1C7
  8
DETAIL
  6
CONTINUOUS
 62
     5
 10
-234.5
 20
-190.0
 30
0.0
 11
-92.0
 21
-355.0
 31
0.0
  0
LINE
  5
1C8
  8
DETAIL
  6
CONTINUOUS
 62
     5
 10
-206.0
 20
-190.0
 30
0.0
 11
-92.0
 21
-322.0
 31
0.0
  0
LINE
  5
1C9
  8
DETAIL
  6
CONTINUOUS
 62
     5
 10
-177.5
 20
-190.0
 30
0.0
 11
-92.0
 21
-289.0
 31
0.0
  0
LINE
  5
1CA
  8
DETAIL
  6
CONTINUOUS
 62
     5
 10
-92.0
 20
-256.0
 30
0.0
 11
-149.0
 21
-190.0
 31
0.0
  0
LINE
  5
1CB
  8
DETAIL
  6
CONTINUOUS
 62
     5
 10
-120.5
 20
-190.0
 30
0.0
 11
-92.0
 21
-223.0
 31
0.0
  0
LINE
  5
1CC
  8
DETAIL
  6
CONTINUOUS
 62
     5
 10
-92.0
 20
-421.0
 30
0.0
 11
-120.5
 21
-455.0
 31
0.0
  0
LINE
  5
1CD
  8
DETAIL
  6
CONTINUOUS
 62
     5
 10
-92.0
 20
-388.0
 30
0.0
 11
-149.0
 21
-455.0
 31
0.0
  0
LINE
  5
1CE
  8
DETAIL
  6
CONTINUOUS
 62
     5
 10
-92.0
 20
-355.0
 30
0.0
 11
-177.5
 21
-455.0
 31
0.0
  0
LINE
  5
1CF
  8
DETAIL
  6
CONTINUOUS
 62
     5
 10
-92.0
 20
-322.0
 30
0.0
 11
-206.0
 21
-455.0
 31
0.0
  0
LINE
  5
1D0
  8
DETAIL
  6
CONTINUOUS
 62
     5
 10
-92.0
 20
-289.0
 30
0.0
 11
-234.5
 21
-455.0
 31
0.0
  0
LINE
  5
1D1
  8
DETAIL
  6
CONTINUOUS
 62
     5
 10
-92.0
 20
-256.0
 30
0.0
 11
-263.0
 21
-455.0
 31
0.0
  0
LINE
  5
1D2
  8
DETAIL
  6
CONTINUOUS
 62
     5
 10
-92.0
 20
-223.0
 30
0.0
 11
-280.0
 21
-440.684211
 31
0.0
  0
LINE
  5
1D3
  8
DETAIL
  6
CONTINUOUS
 62
     5
 10
-92.0
 20
-190.0
 30
0.0
 11
-280.0
 21
-407.684211
 31
0.0
  0
LINE
  5
1D4
  8
DETAIL
  6
CONTINUOUS
 62
     5
 10
-120.5
 20
-190.0
 30
0.0
 11
-280.0
 21
-374.684211
 31
0.0
  0
LINE
  5
1D5
  8
DETAIL
  6
CONTINUOUS
 62
     5
 10
-149.0
 20
-190.0
 30
0.0
 11
-280.0
 21
-341.684211
 31
0.0
  0
LINE
  5
1D6
  8
DETAIL
  6
CONTINUOUS
 62
     5
 10
-177.5
 20
-190.0
 30
0.0
 11
-280.0
 21
-308.684211
 31
0.0
  0
LINE
  5
1D7
  8
DETAIL
  6
CONTINUOUS
 62
     5
 10
-206.0
 20
-190.0
 30
0.0
 11
-280.0
 21
-275.684211
 31
0.0
  0
LINE
  5
1D8
  8
DETAIL
  6
CONTINUOUS
 62
     5
 10
-234.5
 20
-190.0
 30
0.0
 11
-280.0
 21
-242.68421099999989
 31
0.0
  0
LINE
  5
1D9
  8
DETAIL
  6
CONTINUOUS
 62
     5
 10
-92.0
 20
-455.0
 30
0.0
 11
-92.0
 21
-190.0
 31
0.0
  0
LINE
  5
1DA
  8
DETAIL
  6
CONTINUOUS
 62
     5
 10
92.0
 20
-190.0
 30
0.0
 11
92.0
 21
-455.0
 31
0.0
  0
LINE
  5
1DB
  8
DETAIL
  6
CONTINOUS
 62
     5
 10
-280.0
 20
-190.0
 30
0.0
 11
280.0
 21
-190.0
 31
0.0
  0
LINE
  5
1DC
  8
DETAIL
  6
CONTINUOUS
 62
     5
 10
260.92625800000002
 20
-190.0
 30
0.0
 11
280.0
 21
-212.08538599999989
 31
0.0
  0
LINE
  5
1DD
  8
DETAIL
  6
CONTINUOUS
 62
     5
 10
280.0
 20
-431.85260599999992
 30
0.0
 11
260.597037
 21
-455.0
 31
0.0
  0
LINE
  5
1DE
  8
DETAIL
  6
CONTINUOUS
 62
     5
 10
-260.92625800000002
 20
-190.0
 30
0.0
 11
-280.0
 21
-212.08538599999989
 31
0.0
  0
LINE
  5
1DF
  8
DETAIL
  6
CONTINUOUS
 62
     5
 10
-280.0
 20
-431.85260599999992
 30
0.0
 11
-260.597037
 21
-455.0
 31
0.0
  0
LINE
  5
1E0
  8
SIZE
  6
CONTINUOUS
 62
    30
 10
240.0
 20
40.0
 30
0.0
 11
240.0
 21
209.32006100000001
 31
0.0
  0
LINE
  5
1E1
  8
SIZE
  6
CONTINUOUS
 62
    30
 10
-240.0
 20
40.0
 30
0.0
 11
-240.0
 21
209.32006100000001
 31
0.0
  0
LINE
  5
1E2
  8
SIZE
  6
CONTINUOUS
 62
    30
 10
228.0
 20
189.32006100000001
 30
0.0
 11
-228.0
 21
189.32006100000001
 31
0.0
  0
CIRCLE
  5
1E3
  8
SIZE
  6
CONTINUOUS
 62
    30
 10
240.0
 20
189.32006100000001
 30
0.0
 40
6.0
  0
LINE
  5
1E4
  8
SIZE
  6
CONTINUOUS
 62
    30
 10
240.0
 20
189.32006100000001
 30
0.0
 11
228.0
 21
189.32006100000001
 31
0.0
  0
CIRCLE
  5
1E5
  8
SIZE
  6
CONTINUOUS
 62
    30
 10
-240.0
 20
189.32006100000001
 30
0.0
 40
6.0
  0
LINE
  5
1E6
  8
SIZE
  6
CONTINUOUS
 62
    30
 10
-240.0
 20
189.32006100000001
 30
0.0
 11
-228.0
 21
189.32006100000001
 31
0.0
  0
TEXT
  5
1E7
  8
SIZE
  6
CONTINUOUS
 62
    30
 10
-74.057142857142836
 20
214.32006100000001
 30
0.0
 40
64.0
  1
480
 41
0.9
 72
     1
 11
0.0
 21
214.32006100000001
 31
0.0
  0
LINE
  5
1EB
  8
SIZE
  6
CONTINUOUS
 62
    30
 10
300.0
 20
20.0
 30
0.0
 11
300.0
 21
342.44929999999999
 31
0.0
  0
LINE
  5
1EC
  8
SIZE
  6
CONTINUOUS
 62
    30
 10
-300.0
 20
20.0
 30
0.0
 11
-300.0
 21
342.44929999999999
 31
0.0
  0
LINE
  5
1ED
  8
SIZE
  6
CONTINUOUS
 62
    30
 10
288.0
 20
322.44929999999982
 30
0.0
 11
-288.0
 21
322.44929999999982
 31
0.0
  0
CIRCLE
  5
1EE
  8
SIZE
  6
CONTINUOUS
 62
    30
 10
300.0
 20
322.44929999999982
 30
0.0
 40
6.0
  0
LINE
  5
1EF
  8
SIZE
  6
CONTINUOUS
 62
    30
 10
300.0
 20
322.44929999999982
 30
0.0
 11
288.0
 21
322.44929999999982
 31
0.0
  0
CIRCLE
  5
1F0
  8
SIZE
  6
CONTINUOUS
 62
    30
 10
-300.0
 20
322.44929999999982
 30
0.0
 40
6.0
  0
LINE
  5
1F1
  8
SIZE
  6
CONTINUOUS
 62
    30
 10
-300.0
 20
322.44929999999982
 30
0.0
 11
-288.0
 21
322.44929999999982
 31
0.0
  0
TEXT
  5
1F2
  8
SIZE
  6
CONTINUOUS
 62
    30
 10
-74.05714285714285
 20
347.44929999999982
 30
0.0
 40
64.0
  1
600
 41
0.9
 72
     1
 11
0.0
 21
347.44929999999982
 31
0.0
  0
LINE
  5
1F6
  8
SIZE
  6
CONTINUOUS
 62
    30
 10
-320.0
 20
0.0
 30
0.0
 11
-620.01242000000002
 21
0.0
 31
0.0
  0
LINE
  5
1F7
  8
SIZE
  6
CONTINUOUS
 62
    30
 10
-300.0
 20
-650.0
 30
0.0
 11
-620.01242000000002
 21
-650.0
 31
0.0
  0
LINE
  5
1F8
  8
SIZE
  6
CONTINUOUS
 62
    30
 10
-600.01242000000002
 20
-12.0
 30
0.0
 11
-600.01242000000002
 21
-638.0
 31
0.0
  0
CIRCLE
  5
1F9
  8
SIZE
  6
CONTINUOUS
 62
    30
 10
-600.01242000000002
 20
0.0
 30
0.0
 40
6.0
  0
LINE
  5
1FA
  8
SIZE
  6
CONTINUOUS
 62
    30
 10
-600.01242000000002
 20
0.0
 30
0.0
 11
-600.01242000000002
 21
-12.0
 31
0.0
  0
CIRCLE
  5
1FB
  8
SIZE
  6
CONTINUOUS
 62
    30
 10
-600.01242000000002
 20
-650.0
 30
0.0
 40
6.0
  0
LINE
  5
1FC
  8
SIZE
  6
CONTINUOUS
 62
    30
 10
-600.01242000000002
 20
-650.0
 30
0.0
 11
-600.01242000000002
 21
-638.0
 31
0.0
  0
TEXT
  5
1FD
  8
SIZE
  6
CONTINUOUS
 62
    30
 10
-625.01242000000002
 20
-399.05714285714282
 30
0.0
 40
64.0
  1
650
 50
90.0
 41
0.9
 72
     1
 11
-625.01242000000002
 21
-325.0
 31
0.0
  0
LINE
  5
201
  8
DETAIL
  6
CONTINOUS
 62
     5
 10
-300.0
 20
-370.0
 30
0.0
 11
-280.0
 21
-370.0
 31
0.0
  0
LINE
  5
202
  8
DETAIL
  6
CONTINOUS
 62
     5
 10
280.0
 20
-370.0
 30
0.0
 11
300.0
 21
-370.0
 31
0.0
  0
LINE
  5
203
  8
SIZE
  6
CONTINUOUS
 62
    30
 10
-320.0
 20
0.0
 30
0.0
 11
-479.52539000000002
 21
0.0
 31
0.0
  0
LINE
  5
204
  8
SIZE
  6
CONTINUOUS
 62
    30
 10
-320.0
 20
-370.0
 30
0.0
 11
-479.52539000000002
 21
-370.0
 31
0.0
  0
LINE
  5
205
  8
SIZE
  6
CONTINUOUS
 62
    30
 10
-459.52539000000002
 20
-12.0
 30
0.0
 11
-459.52539000000002
 21
-358.0
 31
0.0
  0
CIRCLE
  5
206
  8
SIZE
  6
CONTINUOUS
 62
    30
 10
-459.52539000000002
 20
0.0
 30
0.0
 40
6.0
  0
LINE
  5
207
  8
SIZE
  6
CONTINUOUS
 62
    30
 10
-459.52539000000002
 20
0.0
 30
0.0
 11
-459.52539000000002
 21
-12.0
 31
0.0
  0
CIRCLE
  5
208
  8
SIZE
  6
CONTINUOUS
 62
    30
 10
-459.52539000000002
 20
-370.0
 30
0.0
 40
6.0
  0
LINE
  5
209
  8
SIZE
  6
CONTINUOUS
 62
    30
 10
-459.52539000000002
 20
-370.0
 30
0.0
 11
-459.52539000000002
 21
-358.0
 31
0.0
  0
TEXT
  5
20A
  8
SIZE
  6
CONTINUOUS
 62
    30
 10
-484.52539000000002
 20
-259.05714285714282
 30
0.0
 40
64.0
  1
370
 50
90.0
 41
0.9
 72
     1
 11
-484.52539000000002
 21
-185.0
 31
0.0
  0
TEXT
  5
20E
  8
ETC
  6
CONTINUOUS
 62
    61
 10
637.0033545645565
 20
399.79545562894492
 30
0.0
 40
50.0
  1
V-6037K6-BL
 41
0.9
  0
TEXT
  5
20F
  8
ETC
  6
CONTINUOUS
 62
    61
 10
634.43590794287945
 20
320.2357153473011
 30
0.0
 40
50.0
  1
V-6047K6-BL
 41
0.9
  0
TEXT
  5
210
  8
ETC
  6
CONTINUOUS
 62
    61
 10
637.0033545645565
 20
245.80886047219329
 30
0.0
 40
50.0
  1
V-6037KLR6-BL
 41
0.9
  0
TEXT
  5
211
  8
ETC
  6
CONTINUOUS
 62
    61
 10
639.570808000939
 20
173.94845065468681
 30
0.0
 40
50.0
  1
V-6047KLR6-BL
 41
0.9
  0
TEXT
  5
212
  8
ETC
  6
CONTINUOUS
 62
    61
 10
500.28884243719227
 20
589.84236848324485
 30
0.0
 40
64.0
  1
V-6037K6-BL_6
 41
0.9
  0
TEXT
  5
213
  8
ETC
  6
CONTINUOUS
 62
    61
 10
504.8335494371924
 20
480.539738483245
 30
0.0
 40
64.0
  1
換気扇
 41
0.9
  0
ENDSEC
  0
EOF
