  0
SECTION
  2
HEADER
  9
$ACADVER
  1
AC1009
  9
$INSBASE
 10
0.0
 20
0.0
 30
0.0
  9
$EXTMIN
 10
-1145.4834510000001
 20
-1370.2578025558121
 30
0.0
  9
$EXTMAX
 10
1824.5415015047911
 20
849.23009866005839
 30
50.0
  9
$LIMMIN
 10
-2970.0
 20
-2100.0
  9
$LIMMAX
 10
2970.0
 20
2100.0
  9
$ORTHOMODE
 70
     1
  9
$REGENMODE
 70
     0
  9
$FILLMODE
 70
     1
  9
$QTEXTMODE
 70
     0
  9
$MIRRTEXT
 70
     0
  9
$DRAGMODE
 70
     2
  9
$LTSCALE
 40
20.0
  9
$OSMODE
 70
    32
  9
$ATTMODE
 70
     1
  9
$TEXTSIZE
 40
64.0
  9
$TRACEWID
 40
0.05
  9
$TEXTSTYLE
  7
STANDARD
  9
$CLAYER
  8
ETC
  9
$CELTYPE
  6
CONTINUOUS
  9
$CECOLOR
 62
    30
  9
$DIMSCALE
 40
1.0
  9
$DIMASZ
 40
12.0
  9
$DIMEXO
 40
20.0
  9
$DIMDLI
 40
200.0
  9
$DIMRND
 40
0.0
  9
$DIMDLE
 40
0.0
  9
$DIMEXE
 40
20.0
  9
$DIMTP
 40
0.0
  9
$DIMTM
 40
0.0
  9
$DIMTXT
 40
64.0
  9
$DIMCEN
 40
0.09
  9
$DIMTSZ
 40
0.0
  9
$DIMTOL
 70
     0
  9
$DIMLIM
 70
     0
  9
$DIMTIH
 70
     0
  9
$DIMTOH
 70
     0
  9
$DIMSE1
 70
     0
  9
$DIMSE2
 70
     0
  9
$DIMTAD
 70
     1
  9
$DIMZIN
 70
     8
  9
$DIMBLK
  1
NONE
  9
$DIMASO
 70
     1
  9
$DIMSHO
 70
     0
  9
$DIMPOST
  1

  9
$DIMAPOST
  1

  9
$DIMALT
 70
     0
  9
$DIMALTD
 70
     2
  9
$DIMALTF
 40
25.399999999999999
  9
$DIMLFAC
 40
1.0
  9
$DIMTOFL
 70
     1
  9
$DIMTVP
 40
0.0
  9
$DIMTIX
 70
     1
  9
$DIMSOXD
 70
     0
  9
$DIMSAH
 70
     0
  9
$DIMBLK1
  1
NONE
  9
$DIMBLK2
  1
ORIGIN
  9
$DIMSTYLE
  2
STANDARD
  9
$DIMCLRD
 70
   256
  9
$DIMCLRE
 70
   256
  9
$DIMCLRT
 70
   256
  9
$DIMTFAC
 40
1.0
  9
$DIMGAP
 40
25.0
  9
$LUNITS
 70
     2
  9
$LUPREC
 70
     4
  9
$SKETCHINC
 40
0.1
  9
$FILLETRAD
 40
4.0
  9
$AUNITS
 70
     1
  9
$AUPREC
 70
     3
  9
$MENU
  1
ACAD
  9
$ELEVATION
 40
0.0
  9
$PELEVATION
 40
0.0
  9
$THICKNESS
 40
50.0
  9
$LIMCHECK
 70
     0
  9
$BLIPMODE
 70
     0
  9
$CHAMFERA
 40
0.0
  9
$CHAMFERB
 40
0.0
  9
$SKPOLY
 70
     0
  9
$TDCREATE
 40
2453091.3854939472
  9
$TDUPDATE
 40
2454743.5463888431
  9
$TDINDWG
 40
0.0312397338
  9
$TDUSRTIMER
 40
0.0312359375
  9
$USRTIMER
 70
     1
  9
$ANGBASE
 50
0.0
  9
$ANGDIR
 70
     0
  9
$PDMODE
 70
     3
  9
$PDSIZE
 40
-2.0
  9
$PLINEWID
 40
0.0
  9
$COORDS
 70
     1
  9
$SPLFRAME
 70
     0
  9
$SPLINETYPE
 70
     6
  9
$SPLINESEGS
 70
     8
  9
$ATTDIA
 70
     0
  9
$ATTREQ
 70
     1
  9
$HANDLING
 70
     1
  9
$HANDSEED
  5
580
  9
$SURFTAB1
 70
     6
  9
$SURFTAB2
 70
     6
  9
$SURFTYPE
 70
     6
  9
$SURFU
 70
     6
  9
$SURFV
 70
     6
  9
$UCSNAME
  2

  9
$UCSORG
 10
0.0
 20
0.0
 30
0.0
  9
$UCSXDIR
 10
1.0
 20
0.0
 30
0.0
  9
$UCSYDIR
 10
0.0
 20
1.0
 30
0.0
  9
$PUCSNAME
  2

  9
$PUCSORG
 10
0.0
 20
0.0
 30
0.0
  9
$PUCSXDIR
 10
1.0
 20
0.0
 30
0.0
  9
$PUCSYDIR
 10
0.0
 20
1.0
 30
0.0
  9
$USERI1
 70
     0
  9
$USERI2
 70
     0
  9
$USERI3
 70
     0
  9
$USERI4
 70
     0
  9
$USERI5
 70
     0
  9
$USERR1
 40
20.0
  9
$USERR2
 40
0.0
  9
$USERR3
 40
0.0
  9
$USERR4
 40
0.0
  9
$USERR5
 40
0.0
  9
$WORLDVIEW
 70
     1
  9
$SHADEDGE
 70
     3
  9
$SHADEDIF
 70
    70
  9
$TILEMODE
 70
     1
  9
$MAXACTVP
 70
    48
  9
$PLIMCHECK
 70
     0
  9
$PEXTMIN
 10
-1.0000000000000000E+020
 20
-1.0000000000000000E+020
 30
-1.0000000000000000E+020
  9
$PEXTMAX
 10
1.0000000000000000E+020
 20
1.0000000000000000E+020
 30
1.0000000000000000E+020
  9
$PLIMMIN
 10
0.0
 20
0.0
  9
$PLIMMAX
 10
12.0
 20
9.0
  9
$UNITMODE
 70
     0
  9
$VISRETAIN
 70
     0
  9
$PLINEGEN
 70
     0
  9
$PSLTSCALE
 70
     0
  0
ENDSEC
  0
SECTION
  2
TABLES
  0
TABLE
  2
VPORT
 70
     1
  0
VPORT
  2
*ACTIVE
 70
     0
 10
0.0
 20
0.0
 11
1.0
 21
1.0
 12
348.77849052177589
 22
-293.47120109385418
 13
0.0
 23
0.0
 14
1.0
 24
1.0
 15
0.0
 25
0.0
 16
0.0
 26
0.0
 36
1.0
 17
0.0
 27
0.0
 37
0.0
 40
2457.076896578787
 41
1.8033946251768029
 42
50.0
 43
0.0
 44
0.0
 50
0.0
 51
0.0
 71
     0
 72
  1000
 73
     1
 74
     0
 75
     0
 76
     0
 77
     0
 78
     0
  0
ENDTAB
  0
TABLE
  2
LTYPE
 70
     4
  0
LTYPE
  2
CONTINUOUS
 70
     0
  3
実線
 72
    65
 73
     0
 40
0.0
  0
LTYPE
  2
DASHDOT
 70
     0
  3
____ _ ____ _ ____ _ ____ _ ____ _ ____ _ ____
 72
    65
 73
     4
 40
5.5
 49
4.0
 49
-0.6
 49
0.3
 49
-0.6
  0
LTYPE
  2
CONTINOUS
 70
     0
  3
Solid line
 72
    65
 73
     0
 40
0.0
  0
ENDTAB
  0
TABLE
  2
LAYER
 70
    12
  0
LAYER
  2
0
 70
     0
 62
     7
  6
CONTINUOUS
  0
LAYER
  2
SIZE
 70
     0
 62
    30
  6
CONTINUOUS
  0
LAYER
  2
BASIS
 70
     0
 62
     6
  6
DASHDOT
  0
LAYER
  2
OUTLINE
 70
     0
 62
     3
  6
CONTINUOUS
  0
LAYER
  2
DETAIL
 70
     0
 62
     5
  6
CONTINUOUS
  0
LAYER
  2
ARRANGE
 70
     0
 62
     1
  6
CONTINUOUS
  0
LAYER
  2
DEFPOINTS
 70
     0
 62
     7
  6
CONTINUOUS
  0
LAYER
  2
ETC
 70
     0
 62
    61
  6
CONTINUOUS
  0
LAYER
  2
FIX
 70
     0
 62
    11
  6
CONTINUOUS
  0
LAYER
  2
NOTE
 70
     0
 62
     4
  6
CONTINUOUS
  0
LAYER
  2
SERVICESPACE
 70
     0
 62
     2
  6
DASHDOT
  0
LAYER
  2
SYMBOLLINE
 70
     0
 62
    15
  6
CONTINUOUS
  0
ENDTAB
  0
TABLE
  2
STYLE
 70
     2
  0
STYLE
  2
STANDARD
 70
     0
 40
64.0
 41
0.9
 50
0.0
 71
     0
 42
64.0
  3
SIMPLEX.shx
  4
BIGFONT.shx
  0
STYLE
  2
ANNOTATIVE
 70
     0
 40
0.0
 41
1.0
 50
0.0
 71
     0
 42
0.2
  3
txt
  4

  0
ENDTAB
  0
TABLE
  2
VIEW
 70
     1
  0
VIEW
  2
ALL
 70
     0
 40
4282.6198079999967
 10
0.0
 20
41.309903999999989
 41
5940.0
 11
0.0
 21
0.0
 31
1.0
 12
0.0
 22
0.0
 32
0.0
 42
50.0
 43
0.0
 44
0.0
 50
0.0
 71
     0
  0
ENDTAB
  0
TABLE
  2
UCS
 70
     0
  0
ENDTAB
  0
TABLE
  2
APPID
 70
     5
  0
APPID
  2
ACAD
 70
     0
  0
APPID
  2
ACADANNOTATIVE
 70
     0
  0
APPID
  2
ACAD_MLEADERVER
 70
     0
  0
APPID
  2
AUTOCAD_POSTSCRIPT_FIGURE
 70
     0
  0
APPID
  2
ACAD_EXEMPT_FROM_CAD_STANDARDS
 70
     0
  0
ENDTAB
  0
TABLE
  2
DIMSTYLE
 70
     2
  0
DIMSTYLE
  2
STANDARD
 70
     0
  3

  4

  5

  6

  7

 40
1.0
 41
0.18
 42
0.0625
 43
0.38
 44
0.18
 45
0.0
 46
0.0
 47
0.0
 48
0.0
140
0.18
141
0.09
142
0.0
143
25.399999999999999
144
1.0
145
0.0
146
1.0
147
0.09
 71
     0
 72
     0
 73
     1
 74
     1
 75
     0
 76
     0
 77
     0
 78
     0
170
     0
171
     2
172
     0
173
     0
174
     0
175
     0
176
     7
177
     7
178
     7
  0
DIMSTYLE
  2
ANNOTATIVE
 70
     0
  3

  4

  5

  6

  7

 40
1.0
 41
0.18
 42
0.0625
 43
0.38
 44
0.18
 45
0.0
 46
0.0
 47
0.0
 48
0.0
140
0.18
141
0.09
142
0.0
143
25.399999999999999
144
1.0
145
0.0
146
1.0
147
0.09
 71
     0
 72
     0
 73
     1
 74
     1
 75
     0
 76
     0
 77
     0
 78
     0
170
     0
171
     2
172
     0
173
     0
174
     0
175
     0
176
     0
177
     0
178
     0
  0
ENDTAB
  0
ENDSEC
  0
SECTION
  2
BLOCKS
  0
BLOCK
  8
0
  2
$MODEL_SPACE
 70
     0
 10
0.0
 20
0.0
 30
0.0
  3
$MODEL_SPACE
  1

  0
ENDBLK
  5
50B
  8
0
  0
BLOCK
 67
     1
  8
0
  2
$PAPER_SPACE
 70
     0
 10
0.0
 20
0.0
 30
0.0
  3
$PAPER_SPACE
  1

  0
ENDBLK
  5
507
 67
     1
  8
0
  0
BLOCK
  8
0
  2
DOT1
 70
     0
 10
0.0
 20
0.0
 30
0.0
  3
DOT1
  1

  0
CIRCLE
  5
212
  8
SIZE
  6
CONTINUOUS
 62
     7
 10
0.0
 20
0.0
 30
0.0
 40
3.0
  0
ENDBLK
  5
213
  8
0
  0
BLOCK
  8
0
  2
_ORIGIN
 70
     0
 10
0.0
 20
0.0
 30
0.0
  3
_ORIGIN
  1

  0
CIRCLE
  5
216
  8
0
  6
CONTINUOUS
 62
     7
 10
0.0
 20
0.0
 30
0.0
 40
0.5
  0
LINE
  5
217
  8
0
  6
CONTINUOUS
 62
     7
 10
0.0
 20
0.0
 30
0.0
 11
-1.0
 21
0.0
 31
0.0
  0
ENDBLK
  5
218
  8
0
  0
BLOCK
  8
0
 62
    30
  2
_NONE
 70
     0
 10
0.0
 20
0.0
 30
0.0
  3
_NONE
  1

  0
ENDBLK
  5
21B
  8
0
 62
    30
  0
BLOCK
  8
0
 62
    30
  2
_OPEN30
 70
     0
 10
0.0
 20
0.0
 30
0.0
  3
_OPEN30
  1

  0
LINE
  5
21E
  8
0
  6
BYBLOCK
 62
     0
 10
-1.0
 20
0.26794919
 30
0.0
 11
0.0
 21
0.0
 31
0.0
  0
LINE
  5
21F
  8
0
  6
BYBLOCK
 62
     0
 10
0.0
 20
0.0
 30
0.0
 11
-1.0
 21
-0.26794919
 31
0.0
  0
LINE
  5
220
  8
0
  6
BYBLOCK
 62
     0
 10
0.0
 20
0.0
 30
0.0
 11
-1.0
 21
0.0
 31
0.0
  0
ENDBLK
  5
221
  8
0
 62
    30
  0
BLOCK
  8
0
 62
    30
  2
*D6
 70
     1
 10
0.0
 20
0.0
 30
0.0
  3
*D6
  1

  0
LINE
  5
224
  8
SIZE
  6
CONTINUOUS
 10
-207.999999
 20
-340.0
 30
0.0
 11
-207.999999
 21
-854.20195640220834
 31
0.0
  0
LINE
  5
225
  8
SIZE
  6
CONTINUOUS
 10
0.0000009999999988
 20
-720.0
 30
0.0
 11
0.0000009999999906
 21
-854.20195640220834
 31
0.0
  0
LINE
  5
226
  8
SIZE
  6
CONTINUOUS
 10
-207.999999
 20
-834.20195640220845
 30
0.0
 11
0.0000009999999918
 21
-834.20195640220845
 31
0.0
  0
TEXT
  5
227
  8
SIZE
  6
CONTINUOUS
 10
-178.0571418571428
 20
-809.20195640220845
 30
0.0
 40
64.0
  1
208
 41
0.9
  0
POINT
  5
228
  8
DEFPOINTS
  6
CONTINUOUS
 62
     0
 10
-207.999999
 20
-320.0
 30
0.0
  0
POINT
  5
229
  8
DEFPOINTS
  6
CONTINUOUS
 62
     0
 10
0.000001
 20
-700.0
 30
0.0
  0
POINT
  5
22A
  8
DEFPOINTS
  6
CONTINUOUS
 62
     0
 10
0.0000009999999918
 20
-834.20195640220845
 30
0.0
  0
ENDBLK
  5
22B
  8
0
 62
    30
  0
ENDSEC
  0
SECTION
  2
ENTITIES
  0
LINE
  5
22C
  8
NOTE
  6
CONTINUOUS
 62
     4
 10
-191.23517453976541
 20
-335.15577567382923
 30
0.0
 11
-207.999999
 21
-300.0
 31
0.0
  0
LINE
  5
22D
  8
NOTE
  6
CONTINUOUS
 62
     4
 10
-207.999999
 20
-300.0
 30
0.0
 11
-213.059962936776
 21
-335.93492957368642
 31
0.0
  0
LINE
  5
22E
  8
NOTE
  6
CONTINUOUS
 62
     4
 10
-184.46964199999999
 20
-463.82716900000003
 30
0.0
 11
-207.60376755547799
 21
-300.0
 31
0.0
  0
LINE
  5
22F
  8
NOTE
  6
CONTINUOUS
 62
     4
 10
-561.41020300000002
 20
137.5056929999997
 30
0.0
 11
-254.999999
 21
-300.0
 31
0.0
  0
LINE
  5
230
  8
NOTE
  6
CONTINUOUS
 62
     4
 10
-288.65481599999993
 20
-278.38164299999988
 30
0.0
 11
-254.999999
 21
-300.0
 31
0.0
  0
LINE
  5
231
  8
NOTE
  6
CONTINUOUS
 62
     4
 10
-254.999999
 20
-300.0
 30
0.0
 11
-268.40138697643658
 21
-261.13643532711808
 31
0.0
  0
LINE
  5
232
  8
NOTE
  6
CONTINUOUS
 62
     4
 10
3.7037589999999989
 20
-320.17184199999991
 30
0.0
 11
0.000001
 21
-360.0
 31
0.0
  0
LINE
  5
233
  8
NOTE
  6
CONTINUOUS
 62
     4
 10
0.000001
 20
-360.0
 30
0.0
 11
23.121628999999999
 21
-327.35968300000002
 31
0.0
  0
LINE
  5
234
  8
NOTE
  6
CONTINUOUS
 62
     4
 10
0.000001
 20
-360.0
 30
0.0
 11
59.866495999999991
 21
-205.96904900000001
 31
0.0
  0
LINE
  5
235
  8
NOTE
  6
CONTINUOUS
 62
     4
 10
59.866495999999991
 20
-205.96904900000001
 30
0.0
 11
324.31849899999992
 21
-205.96904900000001
 31
0.0
  0
TEXT
  5
236
  8
NOTE
  6
CONTINUOUS
 62
     4
 10
76.038093000000003
 20
-184.05081699999991
 30
0.0
 40
64.0
  1
4-φ8
 41
0.9
  0
POINT
  5
237
  8
ARRANGE
  6
CONTINUOUS
 62
     1
 10
0.0
 20
0.0
 30
0.0
  0
LINE
  5
238
  8
DETAIL
  6
CONTINUOUS
 62
     5
 10
-219.999999
 20
-285.0
 30
0.0
 11
-69.999999000000003
 21
-285.0
 31
0.0
  0
TEXT
  5
239
  8
NOTE
  6
CONTINUOUS
 62
     4
 10
-1140.432448
 20
170.683931
 30
0.0
 40
64.0
  1
AH 2×2-φ25
 41
0.9
  0
LINE
  5
23A
  8
NOTE
  6
CONTINUOUS
 62
     4
 10
-184.46964199999999
 20
-463.82716900000003
 30
0.0
 11
-72.772870999999981
 21
-463.82716900000003
 31
0.0
  0
TEXT
  5
23B
  8
NOTE
  6
CONTINUOUS
 62
     4
 10
-166.84125
 20
-443.51026899999988
 30
0.0
 40
64.0
  1
EL
 41
0.9
  0
LINE
  5
23C
  8
DETAIL
  6
CONTINOUS
 62
     5
 10
-369.999999
 20
-700.0
 30
0.0
 11
-369.999999
 21
-300.0
 31
0.0
  0
LINE
  5
23D
  8
BASIS
  6
DASHDOT
 62
     6
 10
-144.999999
 20
-320.65042799999992
 30
0.0
 11
-144.999999
 21
-209.12141800000001
 31
0.0
  0
LINE
  5
23E
  8
DETAIL
  6
CONTINOUS
 62
     5
 10
-344.999999
 20
-300.0
 30
0.0
 11
-344.999999
 21
0.0
 31
0.0
  0
LINE
  5
23F
  8
DETAIL
  6
CONTINOUS
 62
     5
 10
-399.999999
 20
-300.0
 30
0.0
 11
-399.999999
 21
0.0
 31
0.0
  0
LINE
  5
240
  8
DETAIL
  6
CONTINOUS
 62
     5
 10
-399.999999
 20
0.0
 30
0.0
 11
-344.999999
 21
0.0
 31
0.0
  0
LINE
  5
241
  8
DETAIL
  6
CONTINOUS
 62
     5
 10
-464.35512499999987
 20
-300.0
 30
0.0
 11
0.000001
 21
-300.0
 31
0.0
  0
LINE
  5
242
  8
DETAIL
  6
CONTINOUS
 62
     5
 10
0.000001
 20
-700.0
 30
0.0
 11
-372.95429100000001
 21
-700.0
 31
0.0
  0
LINE
  5
243
  8
DETAIL
  6
CONTINOUS
 62
     5
 10
0.000001
 20
-700.0
 30
0.0
 11
0.000001
 21
-300.0
 31
0.0
  0
ARC
  5
244
  8
DETAIL
  6
CONTINOUS
 62
     5
 10
-384.55407599999978
 20
-49.0
 30
0.0
 40
650.0
 50
248.35695200000001
 51
268.63835499999982
  0
LINE
  5
245
  8
DETAIL
  6
CONTINOUS
 62
     5
 10
-646.21892700000001
 20
-559.31670099999997
 30
0.0
 11
-480.20377699999989
 21
-311.41966899999989
 31
0.0
  0
LINE
  5
246
  8
DETAIL
  6
CONTINOUS
 62
     5
 10
-633.84268699999996
 20
-642.44387500000005
 30
0.0
 11
-649.999999
 21
-582.14396500000021
 31
0.0
  0
ARC
  5
247
  8
DETAIL
  6
CONTINOUS
 62
     5
 10
-456.93892599999998
 20
-327.0
 30
0.0
 40
28.0
 50
105.358886
 51
146.19001799999981
  0
ARC
  5
248
  8
DETAIL
  6
CONTINOUS
 62
     5
 10
-622.95407599999987
 20
-574.89703199999985
 30
0.0
 40
28.0
 50
146.19001799999981
 51
195.0
  0
ARC
  5
249
  8
DETAIL
  6
CONTINOUS
 62
     5
 10
-618.3878739999999
 20
-638.30277000000001
 30
0.0
 40
16.0
 50
195.0
 51
248.35695200000001
  0
LINE
  5
24A
  8
DETAIL
  6
CONTINUOUS
 62
     5
 10
-55.499590000000012
 20
-297.0
 30
0.0
 11
-55.499590000000012
 21
-300.0
 31
0.0
  0
ARC
  5
24B
  8
DETAIL
  6
CONTINUOUS
 62
     5
 10
-232.9995899999999
 20
-296.0
 30
0.0
 40
1.0
 50
90.0
 51
180.0
  0
LINE
  5
24C
  8
DETAIL
  6
CONTINUOUS
 62
     5
 10
-218.9995899999999
 20
-245.0
 30
0.0
 11
-70.999589999999998
 21
-245.0
 31
0.0
  0
LINE
  5
24D
  8
DETAIL
  6
CONTINUOUS
 62
     5
 10
-55.499590000000012
 20
-297.0
 30
0.0
 11
-55.499590000000012
 21
-296.0
 31
0.0
  0
LINE
  5
24E
  8
DETAIL
  6
CONTINUOUS
 62
     5
 10
-56.499589999999991
 20
-295.0
 30
0.0
 11
-223.714664
 21
-295.0
 31
0.0
  0
ARC
  5
24F
  8
DETAIL
  6
CONTINUOUS
 62
     5
 10
-56.499589999999991
 20
-296.0
 30
0.0
 40
1.0
 50
0.0
 51
90.0
  0
LINE
  5
250
  8
DETAIL
  6
CONTINUOUS
 62
     5
 10
-67.999589999999998
 20
-289.39999999999992
 30
0.0
 11
-67.999589999999998
 21
-286.64705900000001
 31
0.0
  0
LINE
  5
251
  8
DETAIL
  6
CONTINUOUS
 62
     5
 10
-70.999589999999998
 20
-283.97646999999989
 30
0.0
 11
-70.999589999999998
 21
-245.0
 31
0.0
  0
LINE
  5
252
  8
DETAIL
  6
CONTINUOUS
 62
     5
 10
-233.9995899999999
 20
-300.0
 30
0.0
 11
-233.9995899999999
 21
-296.0
 31
0.0
  0
LINE
  5
253
  8
DETAIL
  6
CONTINUOUS
 62
     5
 10
-223.714664
 20
-295.0
 30
0.0
 11
-232.9995899999999
 21
-295.0
 31
0.0
  0
ARC
  5
254
  8
DETAIL
  6
CONTINUOUS
 62
     5
 10
-69.999589999999998
 20
-283.97646999999989
 30
0.0
 40
1.0
 50
180.0
 51
262.84733099999988
  0
ARC
  5
255
  8
DETAIL
  6
CONTINUOUS
 62
     5
 10
-69.599590000000006
 20
-286.64705900000001
 30
0.0
 40
1.6000000000000001
 50
0.0
 51
82.847331000000025
  0
LINE
  5
256
  8
DETAIL
  6
CONTINUOUS
 62
     5
 10
-70.124104000000003
 20
-284.96868799999982
 30
0.0
 11
-69.400368999999984
 21
-285.05950999999982
 31
0.0
  0
ARC
  5
257
  8
DETAIL
  6
CONTINUOUS
 62
     5
 10
-57.999590000000012
 20
-289.39999999999992
 30
0.0
 40
10.0
 50
180.0
 51
214.05579800000001
  0
LINE
  5
258
  8
DETAIL
  6
CONTINUOUS
 62
     5
 10
-218.9995899999999
 20
-283.97646999999989
 30
0.0
 11
-218.9995899999999
 21
-245.0
 31
0.0
  0
LINE
  5
259
  8
DETAIL
  6
CONTINUOUS
 62
     5
 10
-219.875077
 20
-284.96868799999982
 30
0.0
 11
-220.59881200000001
 21
-285.05950999999982
 31
0.0
  0
ARC
  5
25A
  8
DETAIL
  6
CONTINUOUS
 62
     5
 10
-219.9995899999999
 20
-283.97646999999989
 30
0.0
 40
1.0
 50
277.15266899999989
 51
0.0
  0
LINE
  5
25B
  8
DETAIL
  6
CONTINUOUS
 62
     5
 10
-221.9995899999999
 20
-289.39999999999992
 30
0.0
 11
-221.9995899999999
 21
-286.64705900000001
 31
0.0
  0
ARC
  5
25C
  8
DETAIL
  6
CONTINUOUS
 62
     5
 10
-231.9995899999999
 20
-289.39999999999992
 30
0.0
 40
10.0
 50
325.94420200000002
 51
0.0
  0
ARC
  5
25D
  8
DETAIL
  6
CONTINUOUS
 62
     5
 10
-220.3995899999999
 20
-286.64705900000001
 30
0.0
 40
1.6000000000000001
 50
97.152669000000003
 51
180.0
  0
CIRCLE
  5
25E
  8
ARRANGE
  6
CONTINUOUS
 62
     1
 10
0.0
 20
0.0
 30
0.0
 40
40.0
  0
LINE
  5
26C
  8
NOTE
  6
CONTINUOUS
 62
     4
 10
0.000001
 20
-380.0
 30
0.0
 11
0.000001
 21
-340.0
 31
0.0
  0
LINE
  5
26D
  8
NOTE
  6
CONTINUOUS
 62
     4
 10
-19.999998999999981
 20
-360.0
 30
0.0
 11
20.000001000000001
 21
-360.0
 31
0.0
  0
LINE
  5
26E
  8
NOTE
  6
CONTINUOUS
 62
     4
 10
0.000001
 20
-615.0
 30
0.0
 11
0.000001
 21
-575.0
 31
0.0
  0
LINE
  5
26F
  8
NOTE
  6
CONTINUOUS
 62
     4
 10
-19.999998999999981
 20
-595.0
 30
0.0
 11
20.000001000000001
 21
-595.0
 31
0.0
  0
LINE
  5
270
  8
NOTE
  6
CONTINUOUS
 62
     4
 10
-254.999999
 20
-320.0
 30
0.0
 11
-254.999999
 21
-280.0
 31
0.0
  0
LINE
  5
271
  8
NOTE
  6
CONTINUOUS
 62
     4
 10
-274.999999
 20
-300.0
 30
0.0
 11
-234.999999
 21
-300.0
 31
0.0
  0
LINE
  5
272
  8
NOTE
  6
CONTINUOUS
 62
     4
 10
-289.99999899999989
 20
-320.0
 30
0.0
 11
-289.99999899999989
 21
-280.0
 31
0.0
  0
LINE
  5
273
  8
NOTE
  6
CONTINUOUS
 62
     4
 10
-309.999999
 20
-300.0
 30
0.0
 11
-269.999999
 21
-300.0
 31
0.0
  0
LINE
  5
274
  8
NOTE
  6
CONTINUOUS
 62
     4
 10
-289.99999899999989
 20
-320.0
 30
0.0
 11
-289.99999899999989
 21
-280.0
 31
0.0
  0
LINE
  5
275
  8
NOTE
  6
CONTINUOUS
 62
     4
 10
-309.999999
 20
-300.0
 30
0.0
 11
-269.999999
 21
-300.0
 31
0.0
  0
LINE
  5
276
  8
NOTE
  6
CONTINUOUS
 62
     4
 10
-561.41020300000002
 20
137.5056929999997
 30
0.0
 11
-1145.4834510000001
 21
137.5056929999997
 31
0.0
  0
CIRCLE
  5
277
  8
FIX
  6
CONTINUOUS
 62
    11
 10
0.000001
 20
-360.0
 30
0.0
 40
4.0
  0
CIRCLE
  5
278
  8
FIX
  6
CONTINUOUS
 62
    11
 10
0.000001
 20
-595.0
 30
0.0
 40
4.0
  0
CIRCLE
  5
279
  8
FIX
  6
CONTINUOUS
 62
    11
 10
-289.99999899999989
 20
-300.0
 30
0.0
 40
12.5
  0
CIRCLE
  5
27A
  8
FIX
  6
CONTINUOUS
 62
    11
 10
-254.999999
 20
-300.0
 30
0.0
 40
12.5
  0
LINE
  5
27B
  8
BASIS
  6
DASHDOT
 62
     6
 10
-151.999999
 20
-313.65235699999999
 30
0.0
 11
-151.999999
 21
-221.53725399999999
 31
0.0
  0
LINE
  5
27C
  8
BASIS
  6
DASHDOT
 62
     6
 10
-144.999999
 20
-320.65042799999992
 30
0.0
 11
-144.999999
 21
-201.08692099999999
 31
0.0
  0
LINE
  5
27D
  8
BASIS
  6
DASHDOT
 62
     6
 10
-137.9999989999998
 20
-313.65235699999999
 30
0.0
 11
-137.9999989999998
 21
-221.53725399999999
 31
0.0
  0
TEXT
  5
27E
  8
NOTE
  6
CONTINUOUS
 62
     4
 10
-133.84905900000001
 20
66.962050000000005
 30
0.0
 40
64.0
  1
ダクト接続口可動寸法
 41
0.9
  0
TEXT
  5
27F
  8
NOTE
  6
CONTINUOUS
 62
     4
 10
-197.04969600000001
 20
-185.4648949999999
 30
0.0
 40
64.0
  1
EA
 41
0.9
  0
LINE
  5
281
  8
DETAIL
  6
CONTINUOUS
 62
     5
 10
-372.95429100000001
 20
-700.0
 30
0.0
 11
-399.999999
 21
-698.81645400000002
 31
0.0
  0
LINE
  5
282
  8
SIZE
  6
CONTINUOUS
 62
    30
 10
-419.999999
 20
0.0
 30
0.0
 11
-892.30590500000005
 21
0.0
 31
0.0
  0
LINE
  5
283
  8
SIZE
  6
CONTINUOUS
 62
    30
 10
-392.95429100000001
 20
-700.0
 30
0.0
 11
-892.30590500000005
 21
-700.0
 31
0.0
  0
LINE
  5
284
  8
SIZE
  6
CONTINUOUS
 62
    30
 10
-872.30590500000005
 20
-12.0
 30
0.0
 11
-872.30590500000005
 21
-688.0
 31
0.0
  0
CIRCLE
  5
285
  8
SIZE
  6
CONTINUOUS
 62
    30
 10
-872.30590500000005
 20
0.0
 30
0.0
 40
6.0
  0
LINE
  5
286
  8
SIZE
  6
CONTINUOUS
 62
    30
 10
-872.30590500000005
 20
0.0
 30
0.0
 11
-872.30590500000005
 21
-12.0
 31
0.0
  0
CIRCLE
  5
287
  8
SIZE
  6
CONTINUOUS
 62
    30
 10
-872.30590500000005
 20
-700.0
 30
0.0
 40
6.0
  0
LINE
  5
288
  8
SIZE
  6
CONTINUOUS
 62
    30
 10
-872.30590500000005
 20
-700.0
 30
0.0
 11
-872.30590500000005
 21
-688.0
 31
0.0
  0
TEXT
  5
289
  8
SIZE
  6
CONTINUOUS
 62
    30
 10
-897.30590500000005
 20
-424.05714285714288
 30
0.0
 40
64.0
  1
700
 50
90.0
 41
0.9
 72
     1
 11
-897.30590500000005
 21
-350.0
 31
0.0
  0
LINE
  5
28D
  8
SIZE
  6
CONTINUOUS
 62
    30
 10
20.000001000000001
 20
-700.0
 30
0.0
 11
410.18732499999987
 21
-700.0
 31
0.0
  0
LINE
  5
28E
  8
SIZE
  6
CONTINUOUS
 62
    30
 10
40.000000999999997
 20
-360.0
 30
0.0
 11
410.18732499999987
 21
-360.0
 31
0.0
  0
LINE
  5
28F
  8
SIZE
  6
CONTINUOUS
 62
    30
 10
390.18732499999987
 20
-688.0
 30
0.0
 11
390.18732499999987
 21
-372.0
 31
0.0
  0
CIRCLE
  5
290
  8
SIZE
  6
CONTINUOUS
 62
    30
 10
390.18732499999987
 20
-700.0
 30
0.0
 40
6.0
  0
LINE
  5
291
  8
SIZE
  6
CONTINUOUS
 62
    30
 10
390.18732499999987
 20
-700.0
 30
0.0
 11
390.18732499999987
 21
-688.0
 31
0.0
  0
CIRCLE
  5
292
  8
SIZE
  6
CONTINUOUS
 62
    30
 10
390.18732499999987
 20
-360.0
 30
0.0
 40
6.0
  0
LINE
  5
293
  8
SIZE
  6
CONTINUOUS
 62
    30
 10
390.18732499999987
 20
-360.0
 30
0.0
 11
390.18732499999987
 21
-372.0
 31
0.0
  0
TEXT
  5
294
  8
SIZE
  6
CONTINUOUS
 62
    30
 10
365.18732499999987
 20
-604.05714285714282
 30
0.0
 40
64.0
  1
340
 50
90.0
 41
0.9
 72
     1
 11
365.18732499999987
 21
-530.0
 31
0.0
  0
LINE
  5
298
  8
SIZE
  6
CONTINUOUS
 62
    30
 10
20.000001000000001
 20
-700.0
 30
0.0
 11
275.94392599999992
 21
-700.0
 31
0.0
  0
LINE
  5
299
  8
SIZE
  6
CONTINUOUS
 62
    30
 10
40.000000999999997
 20
-595.0
 30
0.0
 11
275.94392599999992
 21
-595.0
 31
0.0
  0
LINE
  5
29A
  8
SIZE
  6
CONTINUOUS
 62
    30
 10
255.94392599999989
 20
-688.0
 30
0.0
 11
255.94392599999989
 21
-607.0
 31
0.0
  0
LINE
  5
29B
  8
SIZE
  6
CONTINUOUS
 62
    30
 10
255.94392599999989
 20
-906.56023799999991
 30
0.0
 11
255.94392599999989
 21
-700.0
 31
0.0
  0
TEXT
  5
29C
  8
SIZE
  6
CONTINUOUS
 62
    30
 10
230.94392599999989
 20
-881.56023757142816
 30
0.0
 40
64.0
  1
105
 50
90.0
 41
0.9
 72
     1
 11
230.94392599999989
 21
-812.98880899999972
 31
0.0
  0
CIRCLE
  5
29D
  8
SIZE
  6
CONTINUOUS
 62
    30
 10
255.94392599999989
 20
-700.0
 30
0.0
 40
6.0
  0
LINE
  5
29E
  8
SIZE
  6
CONTINUOUS
 62
    30
 10
255.94392599999989
 20
-700.0
 30
0.0
 11
255.94392599999989
 21
-688.0
 31
0.0
  0
CIRCLE
  5
29F
  8
SIZE
  6
CONTINUOUS
 62
    30
 10
255.94392599999989
 20
-595.0
 30
0.0
 40
6.0
  0
LINE
  5
2A0
  8
SIZE
  6
CONTINUOUS
 62
    30
 10
255.94392599999989
 20
-595.0
 30
0.0
 11
255.94392599999989
 21
-607.0
 31
0.0
  0
LINE
  5
2A4
  8
SIZE
  6
CONTINUOUS
 62
    30
 10
20.000001000000001
 20
-700.0
 30
0.0
 11
595.35245099999997
 21
-700.0
 31
0.0
  0
LINE
  5
2A5
  8
SIZE
  6
CONTINUOUS
 62
    30
 10
20.000001000000001
 20
-300.0
 30
0.0
 11
595.35245099999997
 21
-300.0
 31
0.0
  0
LINE
  5
2A6
  8
SIZE
  6
CONTINUOUS
 62
    30
 10
575.35245099999997
 20
-688.0
 30
0.0
 11
575.35245099999997
 21
-312.0
 31
0.0
  0
CIRCLE
  5
2A7
  8
SIZE
  6
CONTINUOUS
 62
    30
 10
575.35245099999997
 20
-700.0
 30
0.0
 40
6.0
  0
LINE
  5
2A8
  8
SIZE
  6
CONTINUOUS
 62
    30
 10
575.35245099999997
 20
-700.0
 30
0.0
 11
575.35245099999997
 21
-688.0
 31
0.0
  0
CIRCLE
  5
2A9
  8
SIZE
  6
CONTINUOUS
 62
    30
 10
575.35245099999997
 20
-300.0
 30
0.0
 40
6.0
  0
LINE
  5
2AA
  8
SIZE
  6
CONTINUOUS
 62
    30
 10
575.35245099999997
 20
-300.0
 30
0.0
 11
575.35245099999997
 21
-312.0
 31
0.0
  0
TEXT
  5
2AB
  8
SIZE
  6
CONTINUOUS
 62
    30
 10
550.35245099999997
 20
-574.05714285714282
 30
0.0
 40
64.0
  1
400
 50
90.0
 41
0.9
 72
     1
 11
550.35245099999997
 21
-500.0
 31
0.0
  0
LINE
  5
2AE
  8
SIZE
  6
CONTINUOUS
 62
    30
 10
20.000001000000001
 20
-300.0
 30
0.0
 11
595.35245099999997
 21
-300.0
 31
0.0
  0
LINE
  5
2AF
  8
SIZE
  6
CONTINUOUS
 62
    30
 10
-50.999590000000012
 20
-245.0
 30
0.0
 11
595.35245099999997
 21
-245.0
 31
0.0
  0
LINE
  5
2B0
  8
SIZE
  6
CONTINUOUS
 62
    30
 10
575.35245099999997
 20
-312.0
 30
0.0
 11
575.35245099999997
 21
-324.0
 31
0.0
  0
LINE
  5
2B1
  8
SIZE
  6
CONTINUOUS
 62
    30
 10
575.35245099999997
 20
-233.0
 30
0.0
 11
575.35245099999997
 21
-221.0
 31
0.0
  0
LINE
  5
2B2
  8
SIZE
  6
CONTINUOUS
 62
    30
 10
575.35245099999997
 20
23.049503999999999
 30
0.0
 11
575.35245099999997
 21
-245.0
 31
0.0
  0
TEXT
  5
2B3
  8
SIZE
  6
CONTINUOUS
 62
    30
 10
550.35245099999997
 20
-95.207639428571426
 30
0.0
 40
64.0
  1
55
 50
90.0
 41
0.9
 72
     1
 11
550.35245099999997
 21
-48.579067999999999
 31
0.0
  0
LINE
  5
2B4
  8
SIZE
  6
CONTINUOUS
 62
    30
 10
575.35245099999997
 20
-300.0
 30
0.0
 11
575.35245099999997
 21
-245.0
 31
0.0
  0
LINE
  5
2B5
  8
SIZE
  6
CONTINUOUS
 62
    30
 10
575.35245099999997
 20
-300.0
 30
0.0
 11
575.35245099999997
 21
-245.0
 31
0.0
  0
CIRCLE
  5
2B6
  8
SIZE
  6
CONTINUOUS
 62
    30
 10
575.35245099999997
 20
-300.0
 30
0.0
 40
6.0
  0
LINE
  5
2B7
  8
SIZE
  6
CONTINUOUS
 62
    30
 10
575.35245099999997
 20
-300.0
 30
0.0
 11
575.35245099999997
 21
-312.0
 31
0.0
  0
CIRCLE
  5
2B8
  8
SIZE
  6
CONTINUOUS
 62
    30
 10
575.35245099999997
 20
-245.0
 30
0.0
 40
6.0
  0
LINE
  5
2B9
  8
SIZE
  6
CONTINUOUS
 62
    30
 10
575.35245099999997
 20
-245.0
 30
0.0
 11
575.35245099999997
 21
-233.0
 31
0.0
  0
LINE
  5
2BB
  8
SIZE
  6
CONTINUOUS
 62
    30
 10
20.000001000000001
 20
-300.0
 30
0.0
 11
471.40994999999992
 21
-300.0
 31
0.0
  0
LINE
  5
2BC
  8
SIZE
  6
CONTINUOUS
 62
    30
 10
-49.999999000000003
 20
-285.0
 30
0.0
 11
471.40994999999992
 21
-285.0
 31
0.0
  0
LINE
  5
2BD
  8
SIZE
  6
CONTINUOUS
 62
    30
 10
451.40994999999992
 20
-312.0
 30
0.0
 11
451.40994999999992
 21
-324.0
 31
0.0
  0
LINE
  5
2BE
  8
SIZE
  6
CONTINUOUS
 62
    30
 10
451.40994999999992
 20
-273.0
 30
0.0
 11
451.40994999999992
 21
-261.0
 31
0.0
  0
LINE
  5
2BF
  8
SIZE
  6
CONTINUOUS
 62
    30
 10
451.40994999999992
 20
-113.435097
 30
0.0
 11
451.40994999999992
 21
-285.0
 31
0.0
  0
TEXT
  5
2C0
  8
SIZE
  6
CONTINUOUS
 62
    30
 10
426.40994999999992
 20
-220.72081114285709
 30
0.0
 40
64.0
  1
15
 50
90.0
 41
0.9
 72
     1
 11
426.40994999999992
 21
-179.57795400000001
 31
0.0
  0
LINE
  5
2C1
  8
SIZE
  6
CONTINUOUS
 62
    30
 10
451.40994999999992
 20
-300.0
 30
0.0
 11
451.40994999999992
 21
-285.0
 31
0.0
  0
LINE
  5
2C2
  8
SIZE
  6
CONTINUOUS
 62
    30
 10
451.40994999999992
 20
-300.0
 30
0.0
 11
451.40994999999992
 21
-285.0
 31
0.0
  0
CIRCLE
  5
2C3
  8
SIZE
  6
CONTINUOUS
 62
    30
 10
451.40994999999992
 20
-300.0
 30
0.0
 40
6.0
  0
LINE
  5
2C4
  8
SIZE
  6
CONTINUOUS
 62
    30
 10
451.40994999999992
 20
-300.0
 30
0.0
 11
451.40994999999992
 21
-312.0
 31
0.0
  0
CIRCLE
  5
2C5
  8
SIZE
  6
CONTINUOUS
 62
    30
 10
451.40994999999992
 20
-285.0
 30
0.0
 40
6.0
  0
LINE
  5
2C6
  8
SIZE
  6
CONTINUOUS
 62
    30
 10
451.40994999999992
 20
-285.0
 30
0.0
 11
451.40994999999992
 21
-273.0
 31
0.0
  0
LINE
  5
2C8
  8
SIZE
  6
CONTINUOUS
 62
    30
 10
0.000001
 20
-280.0
 30
0.0
 11
0.000001
 21
666.47351900000001
 31
0.0
  0
LINE
  5
2C9
  8
SIZE
  6
CONTINUOUS
 62
    30
 10
-399.999999
 20
20.0
 30
0.0
 11
-399.999999
 21
666.47351900000001
 31
0.0
  0
LINE
  5
2CA
  8
SIZE
  6
CONTINUOUS
 62
    30
 10
0.000001
 20
646.47351899999978
 30
0.0
 11
-399.999999
 21
646.47351899999978
 31
0.0
  0
CIRCLE
  5
2CB
  8
SIZE
  6
CONTINUOUS
 62
    30
 10
0.000001
 20
646.47351899999978
 30
0.0
 40
6.0
  0
CIRCLE
  5
2CC
  8
SIZE
  6
CONTINUOUS
 62
    30
 10
-399.999999
 20
646.47351899999978
 30
0.0
 40
6.0
  0
TEXT
  5
2CD
  8
SIZE
  6
CONTINUOUS
 62
    30
 10
-390.90285614285722
 20
671.47351899999978
 30
0.0
 40
64.0
  1
400～450
 41
0.9
 72
     1
 11
-199.999999
 21
671.47351899999978
 31
0.0
  0
TEXT
  5
2D0
  8
SIZE
  6
CONTINUOUS
 62
    30
 10
-555.04200600000001
 20
553.53505199999995
 30
0.0
 40
64.0
  1
（350～375も可能）
 41
0.9
  0
LINE
  5
2D1
  8
SIZE
  6
CONTINUOUS
 62
    30
 10
0.000001
 20
-280.0
 30
0.0
 11
0.000001
 21
423.022783
 31
0.0
  0
LINE
  5
2D2
  8
SIZE
  6
CONTINUOUS
 62
    30
 10
-144.999999
 20
-181.0869209999999
 30
0.0
 11
-144.999999
 21
423.022783
 31
0.0
  0
LINE
  5
2D3
  8
SIZE
  6
CONTINUOUS
 62
    30
 10
0.000001
 20
403.022783
 30
0.0
 11
-144.999999
 21
403.022783
 31
0.0
  0
CIRCLE
  5
2D4
  8
SIZE
  6
CONTINUOUS
 62
    30
 10
0.000001
 20
403.022783
 30
0.0
 40
6.0
  0
CIRCLE
  5
2D5
  8
SIZE
  6
CONTINUOUS
 62
    30
 10
-144.999999
 20
403.022783
 30
0.0
 40
6.0
  0
TEXT
  5
2D6
  8
SIZE
  6
CONTINUOUS
 62
    30
 10
-141.0714275714285
 20
428.022783
 30
0.0
 40
64.0
  1
145
 41
0.9
 72
     1
 11
-72.499999000000003
 21
428.022783
 31
0.0
  0
LINE
  5
2D9
  8
SIZE
  6
CONTINUOUS
 62
    30
 10
-344.999999
 20
20.0
 30
0.0
 11
-344.999999
 21
423.51239500000003
 31
0.0
  0
LINE
  5
2DA
  8
SIZE
  6
CONTINUOUS
 62
    30
 10
-399.999999
 20
20.0
 30
0.0
 11
-399.999999
 21
423.51239500000003
 31
0.0
  0
LINE
  5
2DB
  8
SIZE
  6
CONTINUOUS
 62
    30
 10
-332.999999
 20
403.51239500000003
 30
0.0
 11
-320.999999
 21
403.51239500000003
 31
0.0
  0
LINE
  5
2DC
  8
SIZE
  6
CONTINUOUS
 62
    30
 10
-411.999999
 20
403.51239500000003
 30
0.0
 11
-423.999999
 21
403.51239500000003
 31
0.0
  0
LINE
  5
2DD
  8
SIZE
  6
CONTINUOUS
 62
    30
 10
-580.25835800000004
 20
403.51239500000003
 30
0.0
 11
-399.999999
 21
403.51239500000003
 31
0.0
  0
TEXT
  5
2DE
  8
SIZE
  6
CONTINUOUS
 62
    30
 10
-555.25835842857146
 20
428.51239500000003
 30
0.0
 40
64.0
  1
55
 41
0.9
 72
     1
 11
-508.62978700000002
 21
428.51239500000003
 31
0.0
  0
LINE
  5
2DF
  8
SIZE
  6
CONTINUOUS
 62
    30
 10
-344.999999
 20
403.51239500000003
 30
0.0
 11
-399.999999
 21
403.51239500000003
 31
0.0
  0
LINE
  5
2E0
  8
SIZE
  6
CONTINUOUS
 62
    30
 10
-344.999999
 20
403.51239500000003
 30
0.0
 11
-399.999999
 21
403.51239500000003
 31
0.0
  0
CIRCLE
  5
2E1
  8
SIZE
  6
CONTINUOUS
 62
    30
 10
-344.999999
 20
403.51239500000003
 30
0.0
 40
6.0
  0
LINE
  5
2E2
  8
SIZE
  6
CONTINUOUS
 62
    30
 10
-344.999999
 20
403.51239500000003
 30
0.0
 11
-332.999999
 21
403.51239500000003
 31
0.0
  0
CIRCLE
  5
2E3
  8
SIZE
  6
CONTINUOUS
 62
    30
 10
-399.999999
 20
403.51239500000003
 30
0.0
 40
6.0
  0
LINE
  5
2E4
  8
SIZE
  6
CONTINUOUS
 62
    30
 10
-399.999999
 20
403.51239500000003
 30
0.0
 11
-411.999999
 21
403.51239500000003
 31
0.0
  0
LINE
  5
2E8
  8
SIZE
  6
CONTINUOUS
 62
    30
 10
-70.999589999999998
 20
-225.0
 30
0.0
 11
-70.999589999999998
 21
307.30102299999982
 31
0.0
  0
LINE
  5
2E9
  8
SIZE
  6
CONTINUOUS
 62
    30
 10
-218.9995899999999
 20
-225.0
 30
0.0
 11
-218.9995899999999
 21
307.30102299999982
 31
0.0
  0
LINE
  5
2EA
  8
SIZE
  6
CONTINUOUS
 62
    30
 10
-82.999589999999984
 20
287.30102299999982
 30
0.0
 11
-206.9995899999999
 21
287.30102299999982
 31
0.0
  0
LINE
  5
2EB
  8
SIZE
  6
CONTINUOUS
 62
    30
 10
233.879931
 20
287.30102299999982
 30
0.0
 11
-70.999589999999998
 21
287.30102299999982
 31
0.0
  0
TEXT
  5
2EC
  8
SIZE
  6
CONTINUOUS
 62
    30
 10
5.3599314285714419
 20
312.30102299999982
 30
0.0
 40
64.0
  1
φ148
 41
0.9
 72
     1
 11
114.25136000000001
 21
312.30102299999982
 31
0.0
  0
CIRCLE
  5
2ED
  8
SIZE
  6
CONTINUOUS
 62
    30
 10
-70.999589999999998
 20
287.30102299999982
 30
0.0
 40
6.0
  0
LINE
  5
2EE
  8
SIZE
  6
CONTINUOUS
 62
    30
 10
-70.999589999999998
 20
287.30102299999982
 30
0.0
 11
-82.999589999999984
 21
287.30102299999982
 31
0.0
  0
CIRCLE
  5
2EF
  8
SIZE
  6
CONTINUOUS
 62
    30
 10
-218.9995899999999
 20
287.30102299999982
 30
0.0
 40
6.0
  0
LINE
  5
2F0
  8
SIZE
  6
CONTINUOUS
 62
    30
 10
-218.9995899999999
 20
287.30102299999982
 30
0.0
 11
-206.9995899999999
 21
287.30102299999982
 31
0.0
  0
LINE
  5
2F2
  8
SIZE
  6
CONTINUOUS
 62
    30
 10
-137.9999989999998
 20
-201.5372539999999
 30
0.0
 11
-137.9999989999998
 21
175.87384
 31
0.0
  0
LINE
  5
2F3
  8
SIZE
  6
CONTINUOUS
 62
    30
 10
-151.999999
 20
-201.5372539999999
 30
0.0
 11
-151.999999
 21
175.87384
 31
0.0
  0
LINE
  5
2F4
  8
SIZE
  6
CONTINUOUS
 62
    30
 10
-125.999999
 20
155.87384
 30
0.0
 11
-113.9999989999999
 21
155.87384
 31
0.0
  0
LINE
  5
2F5
  8
SIZE
  6
CONTINUOUS
 62
    30
 10
-163.9999989999998
 20
155.87384
 30
0.0
 11
-175.999999
 21
155.87384
 31
0.0
  0
LINE
  5
2F6
  8
SIZE
  6
CONTINUOUS
 62
    30
 10
257.06537099999991
 20
155.87384
 30
0.0
 11
-137.9999989999998
 21
155.87384
 31
0.0
  0
TEXT
  5
2F7
  8
SIZE
  6
CONTINUOUS
 62
    30
 10
147.0367992857141
 20
180.87384
 30
0.0
 40
64.0
  1
14
 41
0.9
 72
     1
 11
189.5510849999998
 21
180.87384
 31
0.0
  0
LINE
  5
2F8
  8
SIZE
  6
CONTINUOUS
 62
    30
 10
-137.9999989999998
 20
155.87384
 30
0.0
 11
-151.999999
 21
155.87384
 31
0.0
  0
LINE
  5
2F9
  8
SIZE
  6
CONTINUOUS
 62
    30
 10
-137.9999989999998
 20
155.87384
 30
0.0
 11
-151.999999
 21
155.87384
 31
0.0
  0
CIRCLE
  5
2FA
  8
SIZE
  6
CONTINUOUS
 62
    30
 10
-137.9999989999998
 20
155.87384
 30
0.0
 40
6.0
  0
LINE
  5
2FB
  8
SIZE
  6
CONTINUOUS
 62
    30
 10
-137.9999989999998
 20
155.87384
 30
0.0
 11
-125.999999
 21
155.87384
 31
0.0
  0
CIRCLE
  5
2FC
  8
SIZE
  6
CONTINUOUS
 62
    30
 10
-151.999999
 20
155.87384
 30
0.0
 40
6.0
  0
LINE
  5
2FD
  8
SIZE
  6
CONTINUOUS
 62
    30
 10
-151.999999
 20
155.87384
 30
0.0
 11
-163.9999989999998
 21
155.87384
 31
0.0
  0
LINE
  5
301
  8
SIZE
  6
CONTINUOUS
 62
    30
 39
50.0
 10
257.06537099999991
 20
155.87384
 30
0.0
 11
561.19258300000001
 21
155.87384
 31
0.0
  0
LINE
  5
302
  8
SIZE
  6
CONTINUOUS
 62
    30
 10
0.000001
 20
-720.0
 30
0.0
 11
0.000001
 21
-1370.2578025558121
 31
0.0
  0
LINE
  5
303
  8
SIZE
  6
CONTINUOUS
 62
    30
 10
-649.999999
 20
-602.14396500000021
 30
0.0
 11
-649.999999
 21
-1370.2578025558121
 31
0.0
  0
LINE
  5
304
  8
SIZE
  6
CONTINUOUS
 62
    30
 10
-11.999999000000001
 20
-1334.3814342672299
 30
0.0
 11
-637.99999899999989
 21
-1334.3814342672299
 31
0.0
  0
CIRCLE
  5
305
  8
SIZE
  6
CONTINUOUS
 62
    30
 10
0.0000009999999975
 20
-1334.3814342672299
 30
0.0
 40
6.0
  0
LINE
  5
306
  8
SIZE
  6
CONTINUOUS
 62
    30
 10
0.0000009999999975
 20
-1334.3814342672299
 30
0.0
 11
-11.999999000000001
 21
-1334.3814342672299
 31
0.0
  0
CIRCLE
  5
307
  8
SIZE
  6
CONTINUOUS
 62
    30
 10
-649.999999
 20
-1334.3814342672299
 30
0.0
 40
6.0
  0
LINE
  5
308
  8
SIZE
  6
CONTINUOUS
 62
    30
 10
-649.999999
 20
-1334.3814342672299
 30
0.0
 11
-637.99999899999989
 21
-1334.3814342672299
 31
0.0
  0
TEXT
  5
309
  8
SIZE
  6
CONTINUOUS
 62
    30
 10
-399.05714185714282
 20
-1309.3814342672299
 30
0.0
 40
64.0
  1
650
 41
0.9
 72
     1
 11
-324.999999
 21
-1309.3814342672299
 31
0.0
  0
LINE
  5
30D
  8
SIZE
  6
CONTINUOUS
 62
    30
 10
0.000001
 20
-720.0
 30
0.0
 11
0.000001
 21
-1094.512684
 31
0.0
  0
LINE
  5
30E
  8
SIZE
  6
CONTINUOUS
 62
    30
 10
-369.999999
 20
-720.0
 30
0.0
 11
-369.999999
 21
-1226.8940310171381
 31
0.0
  0
LINE
  5
30F
  8
SIZE
  6
CONTINUOUS
 62
    30
 10
-11.999999000000001
 20
-1202.29343926723
 30
0.0
 11
-357.999999
 21
-1202.29343926723
 31
0.0
  0
CIRCLE
  5
310
  8
SIZE
  6
CONTINUOUS
 62
    30
 10
0.0000009999999975
 20
-1202.29343926723
 30
0.0
 40
6.0
  0
LINE
  5
311
  8
SIZE
  6
CONTINUOUS
 62
    30
 10
0.0000009999999975
 20
-1202.29343926723
 30
0.0
 11
-11.999999000000001
 21
-1202.29343926723
 31
0.0
  0
CIRCLE
  5
312
  8
SIZE
  6
CONTINUOUS
 62
    30
 10
-369.999999
 20
-1202.29343926723
 30
0.0
 40
6.0
  0
LINE
  5
313
  8
SIZE
  6
CONTINUOUS
 62
    30
 10
-369.999999
 20
-1202.29343926723
 30
0.0
 11
-357.999999
 21
-1202.29343926723
 31
0.0
  0
TEXT
  5
314
  8
SIZE
  6
CONTINUOUS
 62
    30
 10
-259.05714185714282
 20
-1177.29343926723
 30
0.0
 40
64.0
  1
370
 41
0.9
 72
     1
 11
-184.999999
 21
-1177.29343926723
 31
0.0
  0
LINE
  5
318
  8
SIZE
  6
CONTINUOUS
 62
    30
 10
0.000001
 20
-720.0
 30
0.0
 11
0.000001
 21
-972.60021600000005
 31
0.0
  0
LINE
  5
319
  8
SIZE
  6
CONTINUOUS
 62
    30
 10
-289.99999899999989
 20
-340.0
 30
0.0
 11
-289.99999899999989
 21
-1108.4630893112781
 31
0.0
  0
LINE
  5
31A
  8
SIZE
  6
CONTINUOUS
 62
    30
 10
-11.999999000000001
 20
-1080.3809712672301
 30
0.0
 11
-277.99999899999972
 21
-1080.3809712672301
 31
0.0
  0
CIRCLE
  5
31B
  8
SIZE
  6
CONTINUOUS
 62
    30
 10
0.0000009999999975
 20
-1080.3809712672301
 30
0.0
 40
6.0
  0
LINE
  5
31C
  8
SIZE
  6
CONTINUOUS
 62
    30
 10
0.0000009999999975
 20
-1080.3809712672301
 30
0.0
 11
-11.999999000000001
 21
-1080.3809712672301
 31
0.0
  0
CIRCLE
  5
31D
  8
SIZE
  6
CONTINUOUS
 62
    30
 10
-289.99999899999989
 20
-1080.3809712672301
 30
0.0
 40
6.0
  0
LINE
  5
31E
  8
SIZE
  6
CONTINUOUS
 62
    30
 10
-289.99999899999989
 20
-1080.3809712672301
 30
0.0
 11
-277.99999899999972
 21
-1080.3809712672301
 31
0.0
  0
TEXT
  5
31F
  8
SIZE
  6
CONTINUOUS
 62
    30
 10
-219.0571418571428
 20
-1055.3809712672301
 30
0.0
 40
64.0
  1
290
 41
0.9
 72
     1
 11
-144.999999
 21
-1055.3809712672301
 31
0.0
  0
LINE
  5
323
  8
SIZE
  6
CONTINUOUS
 62
    30
 10
0.000001
 20
-720.0
 30
0.0
 11
0.000001
 21
-853.72500500000001
 31
0.0
  0
LINE
  5
324
  8
SIZE
  6
CONTINUOUS
 62
    30
 10
-254.999999
 20
-340.0
 30
0.0
 11
-254.999999
 21
-990.03214285728779
 31
0.0
  0
LINE
  5
325
  8
SIZE
  6
CONTINUOUS
 62
    30
 10
-11.999999000000001
 20
-961.50576026723024
 30
0.0
 11
-242.999999
 21
-961.50576026723024
 31
0.0
  0
CIRCLE
  5
326
  8
SIZE
  6
CONTINUOUS
 62
    30
 10
0.0000009999999975
 20
-961.50576026723024
 30
0.0
 40
6.0
  0
LINE
  5
327
  8
SIZE
  6
CONTINUOUS
 62
    30
 10
0.0000009999999975
 20
-961.50576026723024
 30
0.0
 11
-11.999999000000001
 21
-961.50576026723024
 31
0.0
  0
CIRCLE
  5
328
  8
SIZE
  6
CONTINUOUS
 62
    30
 10
-254.999999
 20
-961.50576026723024
 30
0.0
 40
6.0
  0
LINE
  5
329
  8
SIZE
  6
CONTINUOUS
 62
    30
 10
-254.999999
 20
-961.50576026723024
 30
0.0
 11
-242.999999
 21
-961.50576026723024
 31
0.0
  0
TEXT
  5
32A
  8
SIZE
  6
CONTINUOUS
 62
    30
 10
-201.5571418571428
 20
-936.50576026723024
 30
0.0
 40
64.0
  1
255
 41
0.9
 72
     1
 11
-127.4999989999999
 21
-936.50576026723024
 31
0.0
  0
ARC
  5
32E
  8
DETAIL
  6
CONTINUOUS
 62
     5
 10
-649.5506059999999
 20
-597.34393599999999
 30
0.0
 40
0.5
 50
181.83616599999991
 51
195.000148
  0
ARC
  5
32F
  8
DETAIL
  6
CONTINUOUS
 62
     5
 10
-646.08210699999995
 20
-628.4487069999999
 30
0.0
 40
0.5
 50
216.03737000000001
 51
285.00014800000002
  0
ARC
  5
330
  8
DETAIL
  6
CONTINUOUS
 62
     5
 10
-649.70560899999998
 20
-614.92575499999975
 30
0.0
 40
0.5
 50
105.0001479999999
 51
173.96292700000001
  0
ARC
  5
331
  8
DETAIL
  6
CONTINUOUS
 62
     5
 10
-630.31375500000001
 20
-616.97660800000017
 30
0.0
 40
20.0
 50
173.96292700000001
 51
216.03737000000001
  0
ARC
  5
332
  8
DETAIL
  6
CONTINUOUS
 62
     5
 10
-618.79297400000019
 20
-619.95942200000002
 30
0.0
 40
25.0
 50
208.1641299999998
 51
222.64836099999991
  0
ARC
  5
333
  8
DETAIL
  6
CONTINUOUS
 62
     5
 10
-636.44558600000005
 20
-636.21935099999985
 30
0.0
 40
1.0
 50
222.64836099999991
 51
285.00014800000002
  0
ARC
  5
334
  8
DETAIL
  6
CONTINUOUS
 62
     5
 10
-640.39215299999978
 20
-631.52339600000005
 30
0.0
 40
0.5
 50
195.000148
 51
208.1641299999998
  0
LINE
  5
335
  8
DETAIL
  6
CONTINUOUS
 62
     5
 10
-640.87511500000005
 20
-631.65280700000017
 30
0.0
 11
-650.03356900000006
 21
-597.47334699999999
 31
0.0
  0
LINE
  5
336
  8
DETAIL
  6
CONTINUOUS
 62
     5
 10
-635.31421899999975
 20
-636.95147599999984
 30
0.0
 11
-636.18676500000004
 21
-637.18527599999982
 31
0.0
  0
LINE
  5
337
  8
DETAIL
  6
CONTINUOUS
 62
     5
 10
-641.89554599999985
 20
-627.84454800000003
 30
0.0
 11
-645.95269699999994
 21
-628.93166900000006
 31
0.0
  0
LINE
  5
338
  8
DETAIL
  6
CONTINUOUS
 62
     5
 10
-645.77786900000001
 20
-613.35567000000003
 30
0.0
 11
-649.83501999999987
 21
-614.44279200000005
 31
0.0
  0
LINE
  5
339
  8
DETAIL
  6
CONTINUOUS
 62
     5
 10
-648.73960899999975
 20
-590.33790599999975
 30
0.0
 11
-647.8670639999998
 21
-590.10410599999977
 31
0.0
  0
ARC
  5
33A
  8
DETAIL
  6
CONTINUOUS
 62
     5
 10
-648.48078799999985
 20
-591.30383099999995
 30
0.0
 40
1.0
 50
105.0001479999999
 51
167.351935
  0
ARC
  5
33B
  8
DETAIL
  6
CONTINUOUS
 62
     5
 10
-625.0631860000002
 20
-596.55891599999995
 30
0.0
 40
25.0
 50
167.351935
 51
181.83616599999991
  0
LINE
  5
342
  8
NOTE
  6
CONTINUOUS
 62
     4
 10
-207.999999
 20
-320.0
 30
0.0
 11
-207.999999
 21
-280.0
 31
0.0
  0
LINE
  5
343
  8
NOTE
  6
CONTINUOUS
 62
     4
 39
50.0
 10
-223.19289721633029
 20
-300.0
 30
0.0
 11
-192.01463789462559
 21
-300.0
 31
0.0
  0
CIRCLE
  5
344
  8
SIZE
  6
CONTINUOUS
 62
    30
 39
50.0
 10
0.000001
 20
-834.20195640220845
 30
0.0
 40
6.0
  0
CIRCLE
  5
345
  8
SIZE
  6
CONTINUOUS
 62
    30
 39
50.0
 10
-207.999999
 20
-834.20195640220845
 30
0.0
 40
6.0
  0
LINE
  5
346
  8
SIZE
  6
CONTINUOUS
 10
-207.999999
 20
-340.0
 30
0.0
 11
-207.999999
 21
-854.20195640220834
 31
0.0
  0
LINE
  5
347
  8
SIZE
  6
CONTINUOUS
 10
0.0000009999999988
 20
-720.0
 30
0.0
 11
0.0000009999999906
 21
-854.20195640220834
 31
0.0
  0
LINE
  5
348
  8
SIZE
  6
CONTINUOUS
 10
-207.999999
 20
-834.20195640220845
 30
0.0
 11
0.0000009999999918
 21
-834.20195640220845
 31
0.0
  0
TEXT
  5
349
  8
SIZE
  6
CONTINUOUS
 10
-178.0571418571428
 20
-809.20195640220845
 30
0.0
 40
64.0
  1
208
 41
0.9
  0
ARC
  5
449
  8
OUTLINE
  6
CONTINOUS
 62
     3
 10
-384.5540759999999
 20
-49.0
 30
0.0
 40
650.0
 50
248.35695200000001
 51
268.63835499999982
  0
LINE
  5
44A
  8
OUTLINE
  6
CONTINOUS
 62
     3
 10
0.0000010000001112
 20
-700.0
 30
0.0
 11
0.0000010000001112
 21
-300.0
 31
0.0
  0
LINE
  5
44B
  8
OUTLINE
  6
CONTINOUS
 62
     3
 10
0.0000010000001112
 20
-700.0
 30
0.0
 11
-372.95429100000001
 21
-700.0
 31
0.0
  0
LINE
  5
44C
  8
OUTLINE
  6
CONTINUOUS
 62
     3
 10
-372.95429100000001
 20
-700.0
 30
0.0
 11
-399.999999
 21
-698.81645400000002
 31
0.0
  0
LINE
  5
44D
  8
OUTLINE
  6
CONTINOUS
 62
     3
 10
-424.99999899999989
 20
-300.0
 30
0.0
 11
0.0000010000001112
 21
-300.0
 31
0.0
  0
LINE
  5
44E
  8
OUTLINE
  6
CONTINOUS
 62
     3
 10
-646.21892700000012
 20
-559.31670099999997
 30
0.0
 11
-480.20377699999989
 21
-311.41966899999989
 31
0.0
  0
ARC
  5
44F
  8
OUTLINE
  6
CONTINOUS
 62
     3
 10
-622.95407599999976
 20
-574.89703199999985
 30
0.0
 40
28.0
 50
146.19001799999981
 51
195.0
  0
ARC
  5
450
  8
OUTLINE
  6
CONTINOUS
 62
     3
 10
-618.38787399999978
 20
-638.30277000000001
 30
0.0
 40
16.0
 50
195.0
 51
248.35695200000001
  0
LINE
  5
451
  8
OUTLINE
  6
CONTINOUS
 62
     3
 10
-633.84268700000007
 20
-642.44387500000005
 30
0.0
 11
-649.99999899999989
 21
-582.14396500000021
 31
0.0
  0
LINE
  5
452
  8
OUTLINE
  6
CONTINOUS
 62
     3
 10
-399.999999
 20
-300.0
 30
0.0
 11
-399.999999
 21
0.0
 31
0.0
  0
LINE
  5
453
  8
OUTLINE
  6
CONTINOUS
 62
     3
 10
-344.99999899999978
 20
-300.0
 30
0.0
 11
-344.99999899999978
 21
0.0
 31
0.0
  0
LINE
  5
454
  8
OUTLINE
  6
CONTINOUS
 62
     3
 10
-464.35512499999982
 20
-300.0
 30
0.0
 11
-399.999999
 21
-300.0
 31
0.0
  0
ARC
  5
455
  8
OUTLINE
  6
CONTINOUS
 62
     3
 10
-456.93892599999998
 20
-327.0
 30
0.0
 40
28.0
 50
105.358886
 51
146.19001799999981
  0
LINE
  5
456
  8
OUTLINE
  6
CONTINOUS
 62
     3
 10
-399.999999
 20
0.0
 30
0.0
 11
-344.99999899999978
 21
0.0
 31
0.0
  0
TEXT
  5
53C
  8
ETC
  6
CONTINUOUS
 62
    61
 10
834.49258958036444
 20
595.18318580575783
 30
0.0
 40
50.0
  1
V-6037K6-BL
 41
0.9
  0
TEXT
  5
53D
  8
ETC
  6
CONTINUOUS
 62
    61
 10
831.9251429586875
 20
515.62344552411423
 30
0.0
 40
50.0
  1
V-6047K6-BL
 41
0.9
  0
TEXT
  5
53E
  8
ETC
  6
CONTINUOUS
 62
    61
 10
834.49258958036444
 20
441.19659064900628
 30
0.0
 40
50.0
  1
V-6037KLR6-BL
 41
0.9
  0
TEXT
  5
53F
  8
ETC
  6
CONTINUOUS
 62
    61
 10
837.06004301674693
 20
369.33618083149992
 30
0.0
 40
50.0
  1
V-6047KLR6-BL
 41
0.9
  0
TEXT
  5
540
  8
ETC
  6
CONTINUOUS
 62
    61
 10
697.77807745300061
 20
785.23009866005805
 30
0.0
 40
64.0
  1
V-6037K7-BL_4
 41
0.9
  0
TEXT
  5
541
  8
ETC
  6
CONTINUOUS
 62
    61
 10
702.32278445300062
 20
675.92746866005791
 30
0.0
 40
64.0
  1
換気扇
 41
0.9
  0
TEXT
  5
542
  8
ETC
  6
CONTINUOUS
 62
    61
 10
834.49258958036444
 20
298.5080247901999
 30
0.0
 40
50.0
  1
V-6037K7-BL
 41
0.9
  0
TEXT
  5
543
  8
ETC
  6
CONTINUOUS
 62
    61
 10
831.9251429586875
 20
218.94828450855621
 30
0.0
 40
50.0
  1
V-6047K7-BL
 41
0.9
  0
TEXT
  5
544
  8
ETC
  6
CONTINUOUS
 62
    61
 10
834.49258958036444
 20
144.52142963344841
 30
0.0
 40
50.0
  1
V-6037KLR7-BL
 41
0.9
  0
TEXT
  5
545
  8
ETC
  6
CONTINUOUS
 62
    61
 10
837.06004301674693
 20
72.661019815941927
 30
0.0
 40
50.0
  1
V-6047KLR7-BL
 41
0.9
  0
ENDSEC
  0
EOF
