  0
SECTION
  2
HEADER
  9
$ACADVER
  1
AC1009
  9
$INSBASE
 10
0.0
 20
0.0
 30
0.0
  9
$EXTMIN
 10
-664.37071102481775
 20
-1371.139515739794
 30
-0.0015257624927045
  9
$EXTMAX
 10
1912.8982669940419
 20
861.00769876619779
 30
50.001525995323327
  9
$LIMMIN
 10
-2970.0
 20
-2100.0
  9
$LIMMAX
 10
2970.0
 20
2100.0
  9
$ORTHOMODE
 70
     1
  9
$REGENMODE
 70
     0
  9
$FILLMODE
 70
     1
  9
$QTEXTMODE
 70
     0
  9
$MIRRTEXT
 70
     0
  9
$DRAGMODE
 70
     2
  9
$LTSCALE
 40
20.0
  9
$OSMODE
 70
    32
  9
$ATTMODE
 70
     1
  9
$TEXTSIZE
 40
64.0
  9
$TRACEWID
 40
0.05
  9
$TEXTSTYLE
  7
STANDARD
  9
$CLAYER
  8
ETC
  9
$CELTYPE
  6
CONTINUOUS
  9
$CECOLOR
 62
    30
  9
$DIMSCALE
 40
1.0
  9
$DIMASZ
 40
12.0
  9
$DIMEXO
 40
20.0
  9
$DIMDLI
 40
200.0
  9
$DIMRND
 40
0.0
  9
$DIMDLE
 40
0.0
  9
$DIMEXE
 40
20.0
  9
$DIMTP
 40
0.0
  9
$DIMTM
 40
0.0
  9
$DIMTXT
 40
64.0
  9
$DIMCEN
 40
0.09
  9
$DIMTSZ
 40
0.0
  9
$DIMTOL
 70
     0
  9
$DIMLIM
 70
     0
  9
$DIMTIH
 70
     0
  9
$DIMTOH
 70
     0
  9
$DIMSE1
 70
     0
  9
$DIMSE2
 70
     0
  9
$DIMTAD
 70
     1
  9
$DIMZIN
 70
     8
  9
$DIMBLK
  1
NONE
  9
$DIMASO
 70
     1
  9
$DIMSHO
 70
     0
  9
$DIMPOST
  1

  9
$DIMAPOST
  1

  9
$DIMALT
 70
     0
  9
$DIMALTD
 70
     2
  9
$DIMALTF
 40
25.399999999999999
  9
$DIMLFAC
 40
1.0
  9
$DIMTOFL
 70
     1
  9
$DIMTVP
 40
0.0
  9
$DIMTIX
 70
     1
  9
$DIMSOXD
 70
     0
  9
$DIMSAH
 70
     0
  9
$DIMBLK1
  1
NONE
  9
$DIMBLK2
  1
ORIGIN
  9
$DIMSTYLE
  2
STANDARD
  9
$DIMCLRD
 70
   256
  9
$DIMCLRE
 70
   256
  9
$DIMCLRT
 70
   256
  9
$DIMTFAC
 40
1.0
  9
$DIMGAP
 40
25.0
  9
$LUNITS
 70
     2
  9
$LUPREC
 70
     4
  9
$SKETCHINC
 40
0.1
  9
$FILLETRAD
 40
4.0
  9
$AUNITS
 70
     1
  9
$AUPREC
 70
     3
  9
$MENU
  1
ACAD
  9
$ELEVATION
 40
0.0
  9
$PELEVATION
 40
0.0
  9
$THICKNESS
 40
50.0
  9
$LIMCHECK
 70
     0
  9
$BLIPMODE
 70
     0
  9
$CHAMFERA
 40
0.0
  9
$CHAMFERB
 40
0.0
  9
$SKPOLY
 70
     0
  9
$TDCREATE
 40
2453091.3854939472
  9
$TDUPDATE
 40
2454743.5479385071
  9
$TDINDWG
 40
0.0408391204
  9
$TDUSRTIMER
 40
0.0408389468
  9
$USRTIMER
 70
     1
  9
$ANGBASE
 50
0.0
  9
$ANGDIR
 70
     0
  9
$PDMODE
 70
     3
  9
$PDSIZE
 40
-2.0
  9
$PLINEWID
 40
0.0
  9
$COORDS
 70
     1
  9
$SPLFRAME
 70
     0
  9
$SPLINETYPE
 70
     6
  9
$SPLINESEGS
 70
     8
  9
$ATTDIA
 70
     0
  9
$ATTREQ
 70
     1
  9
$HANDLING
 70
     1
  9
$HANDSEED
  5
AFE
  9
$SURFTAB1
 70
     6
  9
$SURFTAB2
 70
     6
  9
$SURFTYPE
 70
     6
  9
$SURFU
 70
     6
  9
$SURFV
 70
     6
  9
$UCSNAME
  2

  9
$UCSORG
 10
0.0
 20
0.0
 30
0.0
  9
$UCSXDIR
 10
1.0
 20
0.0
 30
0.0
  9
$UCSYDIR
 10
0.0
 20
1.0
 30
0.0
  9
$PUCSNAME
  2

  9
$PUCSORG
 10
0.0
 20
0.0
 30
0.0
  9
$PUCSXDIR
 10
1.0
 20
0.0
 30
0.0
  9
$PUCSYDIR
 10
0.0
 20
1.0
 30
0.0
  9
$USERI1
 70
     0
  9
$USERI2
 70
     0
  9
$USERI3
 70
     0
  9
$USERI4
 70
     0
  9
$USERI5
 70
     0
  9
$USERR1
 40
20.0
  9
$USERR2
 40
0.0
  9
$USERR3
 40
0.0
  9
$USERR4
 40
0.0
  9
$USERR5
 40
0.0
  9
$WORLDVIEW
 70
     1
  9
$SHADEDGE
 70
     3
  9
$SHADEDIF
 70
    70
  9
$TILEMODE
 70
     1
  9
$MAXACTVP
 70
    48
  9
$PLIMCHECK
 70
     0
  9
$PEXTMIN
 10
-1.0000000000000000E+020
 20
-1.0000000000000000E+020
 30
-1.0000000000000000E+020
  9
$PEXTMAX
 10
1.0000000000000000E+020
 20
1.0000000000000000E+020
 30
1.0000000000000000E+020
  9
$PLIMMIN
 10
0.0
 20
0.0
  9
$PLIMMAX
 10
12.0
 20
9.0
  9
$UNITMODE
 70
     0
  9
$VISRETAIN
 70
     0
  9
$PLINEGEN
 70
     0
  9
$PSLTSCALE
 70
     0
  0
ENDSEC
  0
SECTION
  2
TABLES
  0
TABLE
  2
VPORT
 70
     1
  0
VPORT
  2
*ACTIVE
 70
     0
 10
0.0
 20
0.0
 11
1.0
 21
1.0
 12
1008.582555466525
 22
-323.37644434766298
 13
0.0
 23
0.0
 14
1.0
 24
1.0
 15
0.0
 25
0.0
 16
0.0
 26
0.0
 36
1.0
 17
0.0
 27
0.0
 37
0.0
 40
2825.8995399798082
 41
1.8033946251768029
 42
50.0
 43
0.0
 44
0.0
 50
0.0
 51
0.0
 71
     0
 72
  1000
 73
     1
 74
     0
 75
     0
 76
     0
 77
     0
 78
     0
  0
ENDTAB
  0
TABLE
  2
LTYPE
 70
     4
  0
LTYPE
  2
CONTINUOUS
 70
     0
  3
実線
 72
    65
 73
     0
 40
0.0
  0
LTYPE
  2
DASHDOT
 70
     0
  3
____ _ ____ _ ____ _ ____ _ ____ _ ____ _ ____
 72
    65
 73
     4
 40
5.5
 49
4.0
 49
-0.6
 49
0.3
 49
-0.6
  0
LTYPE
  2
CONTINOUS
 70
     0
  3
Solid line
 72
    65
 73
     0
 40
0.0
  0
ENDTAB
  0
TABLE
  2
LAYER
 70
    12
  0
LAYER
  2
0
 70
     0
 62
     7
  6
CONTINUOUS
  0
LAYER
  2
SIZE
 70
     0
 62
    30
  6
CONTINUOUS
  0
LAYER
  2
BASIS
 70
     0
 62
     6
  6
DASHDOT
  0
LAYER
  2
OUTLINE
 70
     0
 62
     3
  6
CONTINUOUS
  0
LAYER
  2
DETAIL
 70
     0
 62
     5
  6
CONTINUOUS
  0
LAYER
  2
ARRANGE
 70
     0
 62
     1
  6
CONTINUOUS
  0
LAYER
  2
DEFPOINTS
 70
     0
 62
     7
  6
CONTINUOUS
  0
LAYER
  2
ETC
 70
     0
 62
    61
  6
CONTINUOUS
  0
LAYER
  2
FIX
 70
     0
 62
    11
  6
CONTINUOUS
  0
LAYER
  2
NOTE
 70
     0
 62
     4
  6
CONTINUOUS
  0
LAYER
  2
SERVICESPACE
 70
     0
 62
     2
  6
DASHDOT
  0
LAYER
  2
SYMBOLLINE
 70
     0
 62
    15
  6
CONTINUOUS
  0
ENDTAB
  0
TABLE
  2
STYLE
 70
     2
  0
STYLE
  2
STANDARD
 70
     0
 40
64.0
 41
0.9
 50
0.0
 71
     0
 42
64.0
  3
SIMPLEX.shx
  4
BIGFONT.shx
  0
STYLE
  2
ANNOTATIVE
 70
     0
 40
0.0
 41
1.0
 50
0.0
 71
     0
 42
0.2
  3
txt
  4

  0
ENDTAB
  0
TABLE
  2
VIEW
 70
     1
  0
VIEW
  2
ALL
 70
     0
 40
4282.6198079999967
 10
0.0
 20
41.309903999999989
 41
5940.0
 11
0.0
 21
0.0
 31
1.0
 12
0.0
 22
0.0
 32
0.0
 42
50.0
 43
0.0
 44
0.0
 50
0.0
 71
     0
  0
ENDTAB
  0
TABLE
  2
UCS
 70
     0
  0
ENDTAB
  0
TABLE
  2
APPID
 70
     5
  0
APPID
  2
ACAD
 70
     0
  0
APPID
  2
ACADANNOTATIVE
 70
     0
  0
APPID
  2
ACAD_MLEADERVER
 70
     0
  0
APPID
  2
AUTOCAD_POSTSCRIPT_FIGURE
 70
     0
  0
APPID
  2
ACAD_EXEMPT_FROM_CAD_STANDARDS
 70
     0
  0
ENDTAB
  0
TABLE
  2
DIMSTYLE
 70
     2
  0
DIMSTYLE
  2
STANDARD
 70
     0
  3

  4

  5

  6

  7

 40
1.0
 41
0.18
 42
0.0625
 43
0.38
 44
0.18
 45
0.0
 46
0.0
 47
0.0
 48
0.0
140
0.18
141
0.09
142
0.0
143
25.399999999999999
144
1.0
145
0.0
146
1.0
147
0.09
 71
     0
 72
     0
 73
     1
 74
     1
 75
     0
 76
     0
 77
     0
 78
     0
170
     0
171
     2
172
     0
173
     0
174
     0
175
     0
176
     7
177
     7
178
     7
  0
DIMSTYLE
  2
ANNOTATIVE
 70
     0
  3

  4

  5

  6

  7

 40
1.0
 41
0.18
 42
0.0625
 43
0.38
 44
0.18
 45
0.0
 46
0.0
 47
0.0
 48
0.0
140
0.18
141
0.09
142
0.0
143
25.399999999999999
144
1.0
145
0.0
146
1.0
147
0.09
 71
     0
 72
     0
 73
     1
 74
     1
 75
     0
 76
     0
 77
     0
 78
     0
170
     0
171
     2
172
     0
173
     0
174
     0
175
     0
176
     0
177
     0
178
     0
  0
ENDTAB
  0
ENDSEC
  0
SECTION
  2
BLOCKS
  0
BLOCK
  8
0
  2
$MODEL_SPACE
 70
     0
 10
0.0
 20
0.0
 30
0.0
  3
$MODEL_SPACE
  1

  0
ENDBLK
  5
A89
  8
0
  0
BLOCK
 67
     1
  8
0
  2
$PAPER_SPACE
 70
     0
 10
0.0
 20
0.0
 30
0.0
  3
$PAPER_SPACE
  1

  0
ENDBLK
  5
A85
 67
     1
  8
0
  0
BLOCK
  8
0
  2
DOT1
 70
     0
 10
0.0
 20
0.0
 30
0.0
  3
DOT1
  1

  0
CIRCLE
  5
802
  8
SIZE
  6
CONTINUOUS
 62
     7
 10
0.0
 20
0.0
 30
0.0
 40
3.0
  0
ENDBLK
  5
803
  8
0
  0
BLOCK
  8
0
  2
_ORIGIN
 70
     0
 10
0.0
 20
0.0
 30
0.0
  3
_ORIGIN
  1

  0
CIRCLE
  5
806
  8
0
  6
CONTINUOUS
 62
     7
 10
0.0
 20
0.0
 30
0.0
 40
0.5
  0
LINE
  5
807
  8
0
  6
CONTINUOUS
 62
     7
 10
0.0
 20
0.0
 30
0.0
 11
-1.0
 21
0.0
 31
0.0
  0
ENDBLK
  5
808
  8
0
  0
BLOCK
  8
0
 62
    30
  2
_NONE
 70
     0
 10
0.0
 20
0.0
 30
0.0
  3
_NONE
  1

  0
ENDBLK
  5
80B
  8
0
 62
    30
  0
BLOCK
  8
0
 62
    30
  2
_OPEN30
 70
     0
 10
0.0
 20
0.0
 30
0.0
  3
_OPEN30
  1

  0
LINE
  5
80E
  8
0
  6
BYBLOCK
 62
     0
 10
-1.0
 20
0.26794919
 30
0.0
 11
0.0
 21
0.0
 31
0.0
  0
LINE
  5
80F
  8
0
  6
BYBLOCK
 62
     0
 10
0.0
 20
0.0
 30
0.0
 11
-1.0
 21
-0.26794919
 31
0.0
  0
LINE
  5
810
  8
0
  6
BYBLOCK
 62
     0
 10
0.0
 20
0.0
 30
0.0
 11
-1.0
 21
0.0
 31
0.0
  0
ENDBLK
  5
811
  8
0
 62
    30
  0
BLOCK
  8
0
 62
    30
  2
_BOXBLANK
 70
     0
 10
0.0
 20
0.0
 30
0.0
  3
_BOXBLANK
  1

  0
LINE
  5
814
  8
0
  6
BYBLOCK
 62
     0
 10
-0.5
 20
-0.5
 30
0.0
 11
0.5
 21
-0.5
 31
0.0
  0
LINE
  5
815
  8
0
  6
BYBLOCK
 62
     0
 10
0.5
 20
-0.5
 30
0.0
 11
0.5
 21
0.5
 31
0.0
  0
LINE
  5
816
  8
0
  6
BYBLOCK
 62
     0
 10
0.5
 20
0.5
 30
0.0
 11
-0.5
 21
0.5
 31
0.0
  0
LINE
  5
817
  8
0
  6
BYBLOCK
 62
     0
 10
-0.5
 20
0.5
 30
0.0
 11
-0.5
 21
-0.5
 31
0.0
  0
LINE
  5
818
  8
0
  6
BYBLOCK
 62
     0
 10
-0.5
 20
0.0
 30
0.0
 11
-1.0
 21
0.0
 31
0.0
  0
ENDBLK
  5
819
  8
0
 62
    30
  0
ENDSEC
  0
SECTION
  2
ENTITIES
  0
LINE
  5
81A
  8
NOTE
  6
CONTINUOUS
 62
     4
 10
546.03808440495141
 20
54.885682657203681
 30
0.0
 11
254.999999
 21
-300.0
 31
0.0
  0
LINE
  5
81B
  8
NOTE
  6
CONTINUOUS
 62
     4
 10
294.36115481791768
 20
-276.90588684534191
 30
0.0
 11
254.999999
 21
-300.0
 31
0.0
  0
LINE
  5
81C
  8
NOTE
  6
CONTINUOUS
 62
     4
 10
254.999999
 20
-300.0
 30
0.0
 11
270.85509300542071
 21
-259.8909329170865
 31
0.0
  0
LINE
  5
81D
  8
NOTE
  6
CONTINUOUS
 62
     4
 10
-3.7037589999999989
 20
-320.17184199999991
 30
0.0
 11
-0.000001
 21
-360.0
 31
0.0
  0
LINE
  5
81E
  8
NOTE
  6
CONTINUOUS
 62
     4
 10
-0.000001
 20
-360.0
 30
0.0
 11
-23.121628999999999
 21
-327.35968300000002
 31
0.0
  0
LINE
  5
81F
  8
NOTE
  6
CONTINUOUS
 62
     4
 10
-0.000001
 20
-360.0
 30
0.0
 11
-59.866495999999991
 21
-205.96904900000001
 31
0.0
  0
LINE
  5
820
  8
NOTE
  6
CONTINUOUS
 62
     4
 10
-59.866495999999991
 20
-205.96904900000001
 30
0.0
 11
-324.31849899999992
 21
-205.96904900000001
 31
0.0
  0
TEXT
  5
821
  8
NOTE
  6
CONTINUOUS
 62
     4
 10
-309.72952199999992
 20
-184.05081699999991
 30
0.0
 40
64.0
  1
4-φ8
 41
0.9
  0
POINT
  5
822
  8
ARRANGE
  6
CONTINUOUS
 62
     1
 10
0.0
 20
0.0
 30
0.0
  0
LINE
  5
823
  8
DETAIL
  6
CONTINUOUS
 62
     5
 10
219.999999
 20
-285.0
 30
0.0
 11
69.999999000000003
 21
-285.0
 31
0.0
  0
TEXT
  5
824
  8
NOTE
  6
CONTINUOUS
 62
     4
 10
584.94465859108175
 20
74.331342971789127
 30
0.0
 40
64.0
  1
AH 2×2-φ25
 41
0.9
  0
LINE
  5
825
  8
DETAIL
  6
CONTINOUS
 62
     5
 10
369.999999
 20
-700.0
 30
0.0
 11
369.999999
 21
-300.0
 31
0.0
  0
LINE
  5
826
  8
BASIS
  6
DASHDOT
 62
     6
 10
144.999999
 20
-320.65042799999992
 30
0.0
 11
144.999999
 21
-209.12141800000001
 31
0.0
  0
LINE
  5
827
  8
DETAIL
  6
CONTINOUS
 62
     5
 10
344.999999
 20
-300.0
 30
0.0
 11
344.999999
 21
0.0
 31
0.0
  0
LINE
  5
828
  8
DETAIL
  6
CONTINOUS
 62
     5
 10
399.999999
 20
-300.0
 30
0.0
 11
399.999999
 21
0.0
 31
0.0
  0
LINE
  5
829
  8
DETAIL
  6
CONTINOUS
 62
     5
 10
399.999999
 20
0.0
 30
0.0
 11
344.999999
 21
0.0
 31
0.0
  0
LINE
  5
82A
  8
DETAIL
  6
CONTINOUS
 62
     5
 10
464.35512499999987
 20
-300.0
 30
0.0
 11
-0.000001
 21
-300.0
 31
0.0
  0
LINE
  5
82B
  8
DETAIL
  6
CONTINOUS
 62
     5
 10
-0.000001
 20
-700.0
 30
0.0
 11
372.95429100000001
 21
-700.0
 31
0.0
  0
LINE
  5
82C
  8
DETAIL
  6
CONTINOUS
 62
     5
 10
-0.000001
 20
-700.0
 30
0.0
 11
-0.000001
 21
-300.0
 31
0.0
  0
ARC
  5
82D
  8
DETAIL
  6
CONTINOUS
 62
     5
 10
384.55407599999961
 20
-49.0
 30
0.0
 40
650.0
 50
271.3616449999999
 51
291.64304800000002
  0
LINE
  5
82E
  8
DETAIL
  6
CONTINOUS
 62
     5
 10
646.21892700000001
 20
-559.31670099999997
 30
0.0
 11
480.20377699999989
 21
-311.41966899999989
 31
0.0
  0
LINE
  5
82F
  8
DETAIL
  6
CONTINOUS
 62
     5
 10
633.84268699999996
 20
-642.44387500000005
 30
0.0
 11
649.999999
 21
-582.14396500000021
 31
0.0
  0
ARC
  5
830
  8
DETAIL
  6
CONTINOUS
 62
     5
 10
456.93892599999998
 20
-327.0
 30
0.0
 40
28.0
 50
33.809981999999998
 51
74.641114000000002
  0
ARC
  5
831
  8
DETAIL
  6
CONTINOUS
 62
     5
 10
622.95407599999987
 20
-574.89703199999985
 30
0.0
 40
28.0
 50
345.0
 51
33.809981999999998
  0
ARC
  5
832
  8
DETAIL
  6
CONTINOUS
 62
     5
 10
618.3878739999999
 20
-638.30277000000001
 30
0.0
 40
16.0
 50
291.64304800000002
 51
345.0
  0
LINE
  5
833
  8
DETAIL
  6
CONTINUOUS
 62
     5
 10
55.499590000000012
 20
-297.0
 30
0.0
 11
55.499590000000012
 21
-300.0
 31
0.0
  0
ARC
  5
834
  8
DETAIL
  6
CONTINUOUS
 62
     5
 10
232.9995899999999
 20
-296.0
 30
0.0
 40
1.0
 50
0.0
 51
90.0
  0
LINE
  5
835
  8
DETAIL
  6
CONTINUOUS
 62
     5
 10
218.9995899999999
 20
-245.0
 30
0.0
 11
70.999589999999998
 21
-245.0
 31
0.0
  0
LINE
  5
836
  8
DETAIL
  6
CONTINUOUS
 62
     5
 10
55.499590000000012
 20
-297.0
 30
0.0
 11
55.499590000000012
 21
-296.0
 31
0.0
  0
LINE
  5
837
  8
DETAIL
  6
CONTINUOUS
 62
     5
 10
56.499589999999991
 20
-295.0
 30
0.0
 11
223.714664
 21
-295.0
 31
0.0
  0
ARC
  5
838
  8
DETAIL
  6
CONTINUOUS
 62
     5
 10
56.499589999999991
 20
-296.0
 30
0.0
 40
1.0
 50
90.0
 51
180.0
  0
LINE
  5
839
  8
DETAIL
  6
CONTINUOUS
 62
     5
 10
67.999589999999998
 20
-289.39999999999992
 30
0.0
 11
67.999589999999998
 21
-286.64705900000001
 31
0.0
  0
LINE
  5
83A
  8
DETAIL
  6
CONTINUOUS
 62
     5
 10
70.999589999999998
 20
-283.97646999999989
 30
0.0
 11
70.999589999999998
 21
-245.0
 31
0.0
  0
LINE
  5
83B
  8
DETAIL
  6
CONTINUOUS
 62
     5
 10
233.9995899999999
 20
-300.0
 30
0.0
 11
233.9995899999999
 21
-296.0
 31
0.0
  0
LINE
  5
83C
  8
DETAIL
  6
CONTINUOUS
 62
     5
 10
223.714664
 20
-295.0
 30
0.0
 11
232.9995899999999
 21
-295.0
 31
0.0
  0
ARC
  5
83D
  8
DETAIL
  6
CONTINUOUS
 62
     5
 10
69.999589999999998
 20
-283.97646999999989
 30
0.0
 40
1.0
 50
277.15266899999989
 51
0.0
  0
ARC
  5
83E
  8
DETAIL
  6
CONTINUOUS
 62
     5
 10
69.599590000000006
 20
-286.64705900000001
 30
0.0
 40
1.6000000000000001
 50
97.152669000000003
 51
180.0
  0
LINE
  5
83F
  8
DETAIL
  6
CONTINUOUS
 62
     5
 10
70.124104000000003
 20
-284.96868799999982
 30
0.0
 11
69.400368999999984
 21
-285.05950999999982
 31
0.0
  0
ARC
  5
840
  8
DETAIL
  6
CONTINUOUS
 62
     5
 10
57.999590000000012
 20
-289.39999999999992
 30
0.0
 40
10.0
 50
325.94420200000002
 51
0.0
  0
LINE
  5
841
  8
DETAIL
  6
CONTINUOUS
 62
     5
 10
218.9995899999999
 20
-283.97646999999989
 30
0.0
 11
218.9995899999999
 21
-245.0
 31
0.0
  0
LINE
  5
842
  8
DETAIL
  6
CONTINUOUS
 62
     5
 10
219.875077
 20
-284.96868799999982
 30
0.0
 11
220.59881200000001
 21
-285.05950999999982
 31
0.0
  0
ARC
  5
843
  8
DETAIL
  6
CONTINUOUS
 62
     5
 10
219.9995899999999
 20
-283.97646999999989
 30
0.0
 40
1.0
 50
180.0
 51
262.84733099999988
  0
LINE
  5
844
  8
DETAIL
  6
CONTINUOUS
 62
     5
 10
221.9995899999999
 20
-289.39999999999992
 30
0.0
 11
221.9995899999999
 21
-286.64705900000001
 31
0.0
  0
ARC
  5
845
  8
DETAIL
  6
CONTINUOUS
 62
     5
 10
231.9995899999999
 20
-289.39999999999992
 30
0.0
 40
10.0
 50
180.0
 51
214.05579800000001
  0
ARC
  5
846
  8
DETAIL
  6
CONTINUOUS
 62
     5
 10
220.3995899999999
 20
-286.64705900000001
 30
0.0
 40
1.6000000000000001
 50
0.0
 51
82.847331000000025
  0
CIRCLE
  5
847
  8
ARRANGE
  6
CONTINUOUS
 62
     1
 10
0.0
 20
0.0
 30
0.0
 40
40.0
  0
LINE
  5
848
  8
NOTE
  6
CONTINUOUS
 62
     4
 10
-0.000001
 20
-380.0
 30
0.0
 11
-0.000001
 21
-340.0
 31
0.0
  0
LINE
  5
849
  8
NOTE
  6
CONTINUOUS
 62
     4
 10
19.999998999999981
 20
-360.0
 30
0.0
 11
-20.000001000000001
 21
-360.0
 31
0.0
  0
LINE
  5
84A
  8
NOTE
  6
CONTINUOUS
 62
     4
 10
-0.000001
 20
-615.0
 30
0.0
 11
-0.000001
 21
-575.0
 31
0.0
  0
LINE
  5
84B
  8
NOTE
  6
CONTINUOUS
 62
     4
 10
19.999998999999981
 20
-595.0
 30
0.0
 11
-20.000001000000001
 21
-595.0
 31
0.0
  0
LINE
  5
84C
  8
NOTE
  6
CONTINUOUS
 62
     4
 10
254.999999
 20
-320.0
 30
0.0
 11
254.999999
 21
-280.0
 31
0.0
  0
LINE
  5
84D
  8
NOTE
  6
CONTINUOUS
 62
     4
 10
274.999999
 20
-300.0
 30
0.0
 11
234.999999
 21
-300.0
 31
0.0
  0
LINE
  5
84E
  8
NOTE
  6
CONTINUOUS
 62
     4
 10
289.99999899999989
 20
-320.0
 30
0.0
 11
289.99999899999989
 21
-280.0
 31
0.0
  0
LINE
  5
84F
  8
NOTE
  6
CONTINUOUS
 62
     4
 10
309.999999
 20
-300.0
 30
0.0
 11
269.999999
 21
-300.0
 31
0.0
  0
LINE
  5
850
  8
NOTE
  6
CONTINUOUS
 62
     4
 10
289.99999899999989
 20
-320.0
 30
0.0
 11
289.99999899999989
 21
-280.0
 31
0.0
  0
LINE
  5
851
  8
NOTE
  6
CONTINUOUS
 62
     4
 10
309.999999
 20
-300.0
 30
0.0
 11
269.999999
 21
-300.0
 31
0.0
  0
CIRCLE
  5
852
  8
FIX
  6
CONTINUOUS
 62
    11
 10
-0.000001
 20
-360.0
 30
0.0
 40
4.0
  0
CIRCLE
  5
853
  8
FIX
  6
CONTINUOUS
 62
    11
 10
-0.000001
 20
-595.0
 30
0.0
 40
4.0
  0
CIRCLE
  5
854
  8
FIX
  6
CONTINUOUS
 62
    11
 10
289.99999899999989
 20
-300.0
 30
0.0
 40
12.5
  0
CIRCLE
  5
855
  8
FIX
  6
CONTINUOUS
 62
    11
 10
254.999999
 20
-300.0
 30
0.0
 40
12.5
  0
LINE
  5
856
  8
BASIS
  6
DASHDOT
 62
     6
 10
151.999999
 20
-313.65235699999999
 30
0.0
 11
151.999999
 21
-221.53725399999999
 31
0.0
  0
LINE
  5
857
  8
BASIS
  6
DASHDOT
 62
     6
 10
144.999999
 20
-320.65042799999992
 30
0.0
 11
144.999999
 21
-201.08692099999999
 31
0.0
  0
LINE
  5
858
  8
BASIS
  6
DASHDOT
 62
     6
 10
137.9999989999996
 20
-313.65235699999999
 30
0.0
 11
137.9999989999996
 21
-221.53725399999999
 31
0.0
  0
TEXT
  5
859
  8
NOTE
  6
CONTINUOUS
 62
     4
 10
-544.92370199999993
 20
66.962050000000005
 30
0.0
 40
64.0
  1
ダクト接続口可動寸法
 41
0.9
  0
TEXT
  5
85A
  8
NOTE
  6
CONTINUOUS
 62
     4
 10
101.0496959999997
 20
-185.4648949999999
 30
0.0
 40
64.0
  1
EA
 41
0.9
  0
LINE
  5
85B
  8
DETAIL
  6
CONTINUOUS
 62
     5
 10
372.95429100000001
 20
-700.0
 30
0.0
 11
399.999999
 21
-698.81645400000002
 31
0.0
  0
LINE
  5
85C
  8
SIZE
  6
CONTINUOUS
 62
    30
 10
419.999999
 20
0.0
 30
0.0
 11
892.30590500000005
 21
0.0
 31
0.0
  0
LINE
  5
85D
  8
SIZE
  6
CONTINUOUS
 62
    30
 10
392.95429100000001
 20
-700.0
 30
0.0
 11
892.30590500000005
 21
-700.0
 31
0.0
  0
LINE
  5
85E
  8
SIZE
  6
CONTINUOUS
 62
    30
 10
872.30590500000005
 20
-12.0
 30
0.0
 11
872.30590500000005
 21
-688.0
 31
0.0
  0
CIRCLE
  5
85F
  8
SIZE
  6
CONTINUOUS
 62
    30
 10
872.30590500000005
 20
0.0
 30
0.0
 40
6.0
  0
LINE
  5
860
  8
SIZE
  6
CONTINUOUS
 62
    30
 10
872.30590500000005
 20
0.0
 30
0.0
 11
872.30590500000005
 21
-12.0
 31
0.0
  0
CIRCLE
  5
861
  8
SIZE
  6
CONTINUOUS
 62
    30
 10
872.30590500000005
 20
-700.0
 30
0.0
 40
6.0
  0
LINE
  5
862
  8
SIZE
  6
CONTINUOUS
 62
    30
 10
872.30590500000005
 20
-700.0
 30
0.0
 11
872.30590500000005
 21
-688.0
 31
0.0
  0
TEXT
  5
863
  8
SIZE
  6
CONTINUOUS
 62
    30
 10
847.30590499999983
 20
-424.05714285714288
 30
0.0
 40
64.0
  1
700
 50
90.0
 41
0.9
 72
     1
 11
847.30590499999983
 21
-350.0
 31
0.0
  0
LINE
  5
864
  8
SIZE
  6
CONTINUOUS
 62
    30
 10
-20.000001000000001
 20
-700.0
 30
0.0
 11
-410.18732499999987
 21
-700.0
 31
0.0
  0
LINE
  5
865
  8
SIZE
  6
CONTINUOUS
 62
    30
 10
-40.000000999999997
 20
-360.0
 30
0.0
 11
-410.18732499999987
 21
-360.0
 31
0.0
  0
LINE
  5
866
  8
SIZE
  6
CONTINUOUS
 62
    30
 10
-390.18732499999987
 20
-688.0
 30
0.0
 11
-390.18732499999987
 21
-372.0
 31
0.0
  0
CIRCLE
  5
867
  8
SIZE
  6
CONTINUOUS
 62
    30
 10
-390.18732499999987
 20
-700.0
 30
0.0
 40
6.0
  0
LINE
  5
868
  8
SIZE
  6
CONTINUOUS
 62
    30
 10
-390.18732499999987
 20
-700.0
 30
0.0
 11
-390.18732499999987
 21
-688.0
 31
0.0
  0
CIRCLE
  5
869
  8
SIZE
  6
CONTINUOUS
 62
    30
 10
-390.18732499999987
 20
-360.0
 30
0.0
 40
6.0
  0
LINE
  5
86A
  8
SIZE
  6
CONTINUOUS
 62
    30
 10
-390.18732499999987
 20
-360.0
 30
0.0
 11
-390.18732499999987
 21
-372.0
 31
0.0
  0
TEXT
  5
86B
  8
SIZE
  6
CONTINUOUS
 62
    30
 10
-415.18732499999987
 20
-604.05714285714282
 30
0.0
 40
64.0
  1
340
 50
90.0
 41
0.9
 72
     1
 11
-415.18732499999987
 21
-530.0
 31
0.0
  0
LINE
  5
86C
  8
SIZE
  6
CONTINUOUS
 62
    30
 10
-20.000001000000001
 20
-700.0
 30
0.0
 11
-275.94392599999992
 21
-700.0
 31
0.0
  0
LINE
  5
86D
  8
SIZE
  6
CONTINUOUS
 62
    30
 10
-40.000000999999997
 20
-595.0
 30
0.0
 11
-275.94392599999992
 21
-595.0
 31
0.0
  0
LINE
  5
86E
  8
SIZE
  6
CONTINUOUS
 62
    30
 10
-255.94392599999989
 20
-688.0
 30
0.0
 11
-255.94392599999989
 21
-607.0
 31
0.0
  0
LINE
  5
86F
  8
SIZE
  6
CONTINUOUS
 62
    30
 10
-255.94392599999989
 20
-906.56023799999991
 30
0.0
 11
-255.94392599999989
 21
-700.0
 31
0.0
  0
TEXT
  5
870
  8
SIZE
  6
CONTINUOUS
 62
    30
 10
-280.94392599999992
 20
-881.56023757142816
 30
0.0
 40
64.0
  1
105
 50
90.0
 41
0.9
 72
     1
 11
-280.94392599999992
 21
-812.98880899999972
 31
0.0
  0
CIRCLE
  5
871
  8
SIZE
  6
CONTINUOUS
 62
    30
 10
-255.94392599999989
 20
-700.0
 30
0.0
 40
6.0
  0
LINE
  5
872
  8
SIZE
  6
CONTINUOUS
 62
    30
 10
-255.94392599999989
 20
-700.0
 30
0.0
 11
-255.94392599999989
 21
-688.0
 31
0.0
  0
CIRCLE
  5
873
  8
SIZE
  6
CONTINUOUS
 62
    30
 10
-255.94392599999989
 20
-595.0
 30
0.0
 40
6.0
  0
LINE
  5
874
  8
SIZE
  6
CONTINUOUS
 62
    30
 10
-255.94392599999989
 20
-595.0
 30
0.0
 11
-255.94392599999989
 21
-607.0
 31
0.0
  0
LINE
  5
875
  8
SIZE
  6
CONTINUOUS
 62
    30
 10
-20.000001000000001
 20
-700.0
 30
0.0
 11
-595.35245099999997
 21
-700.0
 31
0.0
  0
LINE
  5
876
  8
SIZE
  6
CONTINUOUS
 62
    30
 10
-20.000001000000001
 20
-300.0
 30
0.0
 11
-595.35245099999997
 21
-300.0
 31
0.0
  0
LINE
  5
877
  8
SIZE
  6
CONTINUOUS
 62
    30
 10
-575.35245099999997
 20
-688.0
 30
0.0
 11
-575.35245099999997
 21
-312.0
 31
0.0
  0
CIRCLE
  5
878
  8
SIZE
  6
CONTINUOUS
 62
    30
 10
-575.35245099999997
 20
-700.0
 30
0.0
 40
6.0
  0
LINE
  5
879
  8
SIZE
  6
CONTINUOUS
 62
    30
 10
-575.35245099999997
 20
-700.0
 30
0.0
 11
-575.35245099999997
 21
-688.0
 31
0.0
  0
CIRCLE
  5
87A
  8
SIZE
  6
CONTINUOUS
 62
    30
 10
-575.35245099999997
 20
-300.0
 30
0.0
 40
6.0
  0
LINE
  5
87B
  8
SIZE
  6
CONTINUOUS
 62
    30
 10
-575.35245099999997
 20
-300.0
 30
0.0
 11
-575.35245099999997
 21
-312.0
 31
0.0
  0
TEXT
  5
87C
  8
SIZE
  6
CONTINUOUS
 62
    30
 10
-600.35245099999997
 20
-574.05714285714282
 30
0.0
 40
64.0
  1
400
 50
90.0
 41
0.9
 72
     1
 11
-600.35245099999997
 21
-500.0
 31
0.0
  0
LINE
  5
87D
  8
SIZE
  6
CONTINUOUS
 62
    30
 10
-20.000001000000001
 20
-300.0
 30
0.0
 11
-595.35245099999997
 21
-300.0
 31
0.0
  0
LINE
  5
87E
  8
SIZE
  6
CONTINUOUS
 62
    30
 10
50.999590000000012
 20
-245.0
 30
0.0
 11
-595.35245099999997
 21
-245.0
 31
0.0
  0
LINE
  5
87F
  8
SIZE
  6
CONTINUOUS
 62
    30
 10
-575.35245099999997
 20
-312.0
 30
0.0
 11
-575.35245099999997
 21
-324.0
 31
0.0
  0
LINE
  5
880
  8
SIZE
  6
CONTINUOUS
 62
    30
 10
-575.35245099999997
 20
-233.0
 30
0.0
 11
-575.35245099999997
 21
-221.0
 31
0.0
  0
LINE
  5
881
  8
SIZE
  6
CONTINUOUS
 62
    30
 10
-575.35245099999997
 20
23.049503999999999
 30
0.0
 11
-575.35245099999997
 21
-245.0
 31
0.0
  0
TEXT
  5
882
  8
SIZE
  6
CONTINUOUS
 62
    30
 10
-600.35245099999997
 20
-95.207639428571426
 30
0.0
 40
64.0
  1
55
 50
90.0
 41
0.9
 72
     1
 11
-600.35245099999997
 21
-48.579067999999999
 31
0.0
  0
LINE
  5
883
  8
SIZE
  6
CONTINUOUS
 62
    30
 10
-575.35245099999997
 20
-300.0
 30
0.0
 11
-575.35245099999997
 21
-245.0
 31
0.0
  0
LINE
  5
884
  8
SIZE
  6
CONTINUOUS
 62
    30
 10
-575.35245099999997
 20
-300.0
 30
0.0
 11
-575.35245099999997
 21
-245.0
 31
0.0
  0
CIRCLE
  5
885
  8
SIZE
  6
CONTINUOUS
 62
    30
 10
-575.35245099999997
 20
-300.0
 30
0.0
 40
6.0
  0
LINE
  5
886
  8
SIZE
  6
CONTINUOUS
 62
    30
 10
-575.35245099999997
 20
-300.0
 30
0.0
 11
-575.35245099999997
 21
-312.0
 31
0.0
  0
CIRCLE
  5
887
  8
SIZE
  6
CONTINUOUS
 62
    30
 10
-575.35245099999997
 20
-245.0
 30
0.0
 40
6.0
  0
LINE
  5
888
  8
SIZE
  6
CONTINUOUS
 62
    30
 10
-575.35245099999997
 20
-245.0
 30
0.0
 11
-575.35245099999997
 21
-233.0
 31
0.0
  0
LINE
  5
889
  8
SIZE
  6
CONTINUOUS
 62
    30
 10
-20.000001000000001
 20
-300.0
 30
0.0
 11
-471.40994999999992
 21
-300.0
 31
0.0
  0
LINE
  5
88A
  8
SIZE
  6
CONTINUOUS
 62
    30
 10
49.999999000000003
 20
-285.0
 30
0.0
 11
-471.40994999999992
 21
-285.0
 31
0.0
  0
LINE
  5
88B
  8
SIZE
  6
CONTINUOUS
 62
    30
 10
-451.40994999999992
 20
-312.0
 30
0.0
 11
-451.40994999999992
 21
-324.0
 31
0.0
  0
LINE
  5
88C
  8
SIZE
  6
CONTINUOUS
 62
    30
 10
-451.40994999999992
 20
-273.0
 30
0.0
 11
-451.40994999999992
 21
-261.0
 31
0.0
  0
LINE
  5
88D
  8
SIZE
  6
CONTINUOUS
 62
    30
 10
-451.40994999999992
 20
-113.435097
 30
0.0
 11
-451.40994999999992
 21
-285.0
 31
0.0
  0
TEXT
  5
88E
  8
SIZE
  6
CONTINUOUS
 62
    30
 10
-476.40994999999992
 20
-220.72081114285709
 30
0.0
 40
64.0
  1
15
 50
90.0
 41
0.9
 72
     1
 11
-476.40994999999992
 21
-179.57795400000001
 31
0.0
  0
LINE
  5
88F
  8
SIZE
  6
CONTINUOUS
 62
    30
 10
-451.40994999999992
 20
-300.0
 30
0.0
 11
-451.40994999999992
 21
-285.0
 31
0.0
  0
LINE
  5
890
  8
SIZE
  6
CONTINUOUS
 62
    30
 10
-451.40994999999992
 20
-300.0
 30
0.0
 11
-451.40994999999992
 21
-285.0
 31
0.0
  0
CIRCLE
  5
891
  8
SIZE
  6
CONTINUOUS
 62
    30
 10
-451.40994999999992
 20
-300.0
 30
0.0
 40
6.0
  0
LINE
  5
892
  8
SIZE
  6
CONTINUOUS
 62
    30
 10
-451.40994999999992
 20
-300.0
 30
0.0
 11
-451.40994999999992
 21
-312.0
 31
0.0
  0
CIRCLE
  5
893
  8
SIZE
  6
CONTINUOUS
 62
    30
 10
-451.40994999999992
 20
-285.0
 30
0.0
 40
6.0
  0
LINE
  5
894
  8
SIZE
  6
CONTINUOUS
 62
    30
 10
-451.40994999999992
 20
-285.0
 30
0.0
 11
-451.40994999999992
 21
-273.0
 31
0.0
  0
LINE
  5
895
  8
SIZE
  6
CONTINUOUS
 62
    30
 10
-0.000001
 20
-280.0
 30
0.0
 11
-0.000001
 21
666.47351900000001
 31
0.0
  0
LINE
  5
896
  8
SIZE
  6
CONTINUOUS
 62
    30
 10
399.999999
 20
20.0
 30
0.0
 11
399.999999
 21
666.47351900000001
 31
0.0
  0
LINE
  5
897
  8
SIZE
  6
CONTINUOUS
 62
    30
 10
-0.000001
 20
646.47351899999978
 30
0.0
 11
399.999999
 21
646.47351899999978
 31
0.0
  0
CIRCLE
  5
898
  8
SIZE
  6
CONTINUOUS
 62
    30
 10
-0.000001
 20
646.47351899999978
 30
0.0
 40
6.0
  0
CIRCLE
  5
899
  8
SIZE
  6
CONTINUOUS
 62
    30
 10
399.999999
 20
646.47351899999978
 30
0.0
 40
6.0
  0
TEXT
  5
89A
  8
SIZE
  6
CONTINUOUS
 62
    30
 10
9.0971418571428444
 20
671.47351899999978
 30
0.0
 40
64.0
  1
400～450
 41
0.9
 72
     1
 11
199.999999
 21
671.47351899999978
 31
0.0
  0
TEXT
  5
89B
  8
SIZE
  6
CONTINUOUS
 62
    30
 10
-115.860851
 20
553.53505199999995
 30
0.0
 40
64.0
  1
（350～375も可能）
 41
0.9
  0
LINE
  5
89C
  8
SIZE
  6
CONTINUOUS
 62
    30
 10
-0.000001
 20
-280.0
 30
0.0
 11
-0.000001
 21
423.022783
 31
0.0
  0
LINE
  5
89D
  8
SIZE
  6
CONTINUOUS
 62
    30
 10
144.999999
 20
-181.0869209999999
 30
0.0
 11
144.999999
 21
423.022783
 31
0.0
  0
LINE
  5
89E
  8
SIZE
  6
CONTINUOUS
 62
    30
 10
-0.000001
 20
403.022783
 30
0.0
 11
144.999999
 21
403.022783
 31
0.0
  0
CIRCLE
  5
89F
  8
SIZE
  6
CONTINUOUS
 62
    30
 10
-0.000001
 20
403.022783
 30
0.0
 40
6.0
  0
CIRCLE
  5
8A0
  8
SIZE
  6
CONTINUOUS
 62
    30
 10
144.999999
 20
403.022783
 30
0.0
 40
6.0
  0
TEXT
  5
8A1
  8
SIZE
  6
CONTINUOUS
 62
    30
 10
3.9285704285714331
 20
428.022783
 30
0.0
 40
64.0
  1
145
 41
0.9
 72
     1
 11
72.499999000000003
 21
428.022783
 31
0.0
  0
LINE
  5
8A2
  8
SIZE
  6
CONTINUOUS
 62
    30
 10
344.999999
 20
20.0
 30
0.0
 11
344.999999
 21
423.51239500000003
 31
0.0
  0
LINE
  5
8A3
  8
SIZE
  6
CONTINUOUS
 62
    30
 10
399.999999
 20
20.0
 30
0.0
 11
399.999999
 21
423.51239500000003
 31
0.0
  0
LINE
  5
8A4
  8
SIZE
  6
CONTINUOUS
 62
    30
 10
332.999999
 20
403.51239500000003
 30
0.0
 11
320.999999
 21
403.51239500000003
 31
0.0
  0
LINE
  5
8A5
  8
SIZE
  6
CONTINUOUS
 62
    30
 10
411.999999
 20
403.51239500000003
 30
0.0
 11
423.999999
 21
403.51239500000003
 31
0.0
  0
LINE
  5
8A6
  8
SIZE
  6
CONTINUOUS
 62
    30
 10
580.25835800000004
 20
403.51239500000003
 30
0.0
 11
399.999999
 21
403.51239500000003
 31
0.0
  0
TEXT
  5
8A7
  8
SIZE
  6
CONTINUOUS
 62
    30
 10
462.00121557142847
 20
428.51239500000003
 30
0.0
 40
64.0
  1
55
 41
0.9
 72
     1
 11
508.62978700000002
 21
428.51239500000003
 31
0.0
  0
LINE
  5
8A8
  8
SIZE
  6
CONTINUOUS
 62
    30
 10
344.999999
 20
403.51239500000003
 30
0.0
 11
399.999999
 21
403.51239500000003
 31
0.0
  0
LINE
  5
8A9
  8
SIZE
  6
CONTINUOUS
 62
    30
 10
344.999999
 20
403.51239500000003
 30
0.0
 11
399.999999
 21
403.51239500000003
 31
0.0
  0
CIRCLE
  5
8AA
  8
SIZE
  6
CONTINUOUS
 62
    30
 10
344.999999
 20
403.51239500000003
 30
0.0
 40
6.0
  0
LINE
  5
8AB
  8
SIZE
  6
CONTINUOUS
 62
    30
 10
344.999999
 20
403.51239500000003
 30
0.0
 11
332.999999
 21
403.51239500000003
 31
0.0
  0
CIRCLE
  5
8AC
  8
SIZE
  6
CONTINUOUS
 62
    30
 10
399.999999
 20
403.51239500000003
 30
0.0
 40
6.0
  0
LINE
  5
8AD
  8
SIZE
  6
CONTINUOUS
 62
    30
 10
399.999999
 20
403.51239500000003
 30
0.0
 11
411.999999
 21
403.51239500000003
 31
0.0
  0
LINE
  5
8AE
  8
SIZE
  6
CONTINUOUS
 62
    30
 10
70.999589999999998
 20
-225.0
 30
0.0
 11
70.999589999999998
 21
307.30102299999982
 31
0.0
  0
LINE
  5
8AF
  8
SIZE
  6
CONTINUOUS
 62
    30
 10
218.9995899999999
 20
-225.0
 30
0.0
 11
218.9995899999999
 21
307.30102299999982
 31
0.0
  0
LINE
  5
8B0
  8
SIZE
  6
CONTINUOUS
 62
    30
 10
82.999589999999984
 20
287.30102299999982
 30
0.0
 11
206.9995899999999
 21
287.30102299999982
 31
0.0
  0
LINE
  5
8B1
  8
SIZE
  6
CONTINUOUS
 62
    30
 10
-233.879931
 20
287.30102299999982
 30
0.0
 11
70.999589999999998
 21
287.30102299999982
 31
0.0
  0
TEXT
  5
8B2
  8
SIZE
  6
CONTINUOUS
 62
    30
 10
-223.14278857142861
 20
312.30102299999982
 30
0.0
 40
64.0
  1
φ148
 41
0.9
 72
     1
 11
-114.25136000000001
 21
312.30102299999982
 31
0.0
  0
CIRCLE
  5
8B3
  8
SIZE
  6
CONTINUOUS
 62
    30
 10
70.999589999999998
 20
287.30102299999982
 30
0.0
 40
6.0
  0
LINE
  5
8B4
  8
SIZE
  6
CONTINUOUS
 62
    30
 10
70.999589999999998
 20
287.30102299999982
 30
0.0
 11
82.999589999999984
 21
287.30102299999982
 31
0.0
  0
CIRCLE
  5
8B5
  8
SIZE
  6
CONTINUOUS
 62
    30
 10
218.9995899999999
 20
287.30102299999982
 30
0.0
 40
6.0
  0
LINE
  5
8B6
  8
SIZE
  6
CONTINUOUS
 62
    30
 10
218.9995899999999
 20
287.30102299999982
 30
0.0
 11
206.9995899999999
 21
287.30102299999982
 31
0.0
  0
LINE
  5
8B7
  8
SIZE
  6
CONTINUOUS
 62
    30
 10
137.9999989999996
 20
-201.5372539999999
 30
0.0
 11
137.9999989999996
 21
175.87384
 31
0.0
  0
LINE
  5
8B8
  8
SIZE
  6
CONTINUOUS
 62
    30
 10
151.999999
 20
-201.5372539999999
 30
0.0
 11
151.999999
 21
175.87384
 31
0.0
  0
LINE
  5
8B9
  8
SIZE
  6
CONTINUOUS
 62
    30
 10
125.999999
 20
155.87384
 30
0.0
 11
113.9999989999999
 21
155.87384
 31
0.0
  0
LINE
  5
8BA
  8
SIZE
  6
CONTINUOUS
 62
    30
 10
163.9999989999996
 20
155.87384
 30
0.0
 11
175.999999
 21
155.87384
 31
0.0
  0
LINE
  5
8BB
  8
SIZE
  6
CONTINUOUS
 62
    30
 10
-257.06537099999991
 20
155.87384
 30
0.0
 11
137.9999989999996
 21
155.87384
 31
0.0
  0
TEXT
  5
8BC
  8
SIZE
  6
CONTINUOUS
 62
    30
 10
-232.06537071428551
 20
180.87384
 30
0.0
 40
64.0
  1
14
 41
0.9
 72
     1
 11
-189.5510849999998
 21
180.87384
 31
0.0
  0
LINE
  5
8BD
  8
SIZE
  6
CONTINUOUS
 62
    30
 10
137.9999989999996
 20
155.87384
 30
0.0
 11
151.999999
 21
155.87384
 31
0.0
  0
LINE
  5
8BE
  8
SIZE
  6
CONTINUOUS
 62
    30
 10
137.9999989999996
 20
155.87384
 30
0.0
 11
151.999999
 21
155.87384
 31
0.0
  0
CIRCLE
  5
8BF
  8
SIZE
  6
CONTINUOUS
 62
    30
 10
137.9999989999996
 20
155.87384
 30
0.0
 40
6.0
  0
LINE
  5
8C0
  8
SIZE
  6
CONTINUOUS
 62
    30
 10
137.9999989999996
 20
155.87384
 30
0.0
 11
125.999999
 21
155.87384
 31
0.0
  0
CIRCLE
  5
8C1
  8
SIZE
  6
CONTINUOUS
 62
    30
 10
151.999999
 20
155.87384
 30
0.0
 40
6.0
  0
LINE
  5
8C2
  8
SIZE
  6
CONTINUOUS
 62
    30
 10
151.999999
 20
155.87384
 30
0.0
 11
163.9999989999996
 21
155.87384
 31
0.0
  0
LINE
  5
8C3
  8
SIZE
  6
CONTINUOUS
 62
    30
 39
50.0
 10
-257.06537099999991
 20
155.87384
 30
0.0
 11
-561.19258300000001
 21
155.87384
 31
0.0
  0
LINE
  5
8C4
  8
SIZE
  6
CONTINUOUS
 62
    30
 10
-0.000001
 20
-720.0
 30
0.0
 11
-0.000001
 21
-1367.888416616689
 31
0.0
  0
LINE
  5
8C5
  8
SIZE
  6
CONTINUOUS
 62
    30
 10
649.999999
 20
-602.14396500000021
 30
0.0
 11
649.999999
 21
-1371.12936080036
 31
0.0
  0
LINE
  5
8C6
  8
SIZE
  6
CONTINUOUS
 62
    30
 10
11.99999899999994
 20
-1338.6886739999991
 30
0.0
 11
637.99999899999989
 21
-1338.6886739999991
 31
0.0
  0
CIRCLE
  5
8C7
  8
SIZE
  6
CONTINUOUS
 62
    30
 10
-0.0000010000000543
 20
-1338.6886739999991
 30
0.0
 40
6.0
  0
LINE
  5
8C8
  8
SIZE
  6
CONTINUOUS
 62
    30
 10
-0.0000010000000543
 20
-1338.6886739999991
 30
0.0
 11
11.99999899999994
 21
-1338.6886739999991
 31
0.0
  0
CIRCLE
  5
8C9
  8
SIZE
  6
CONTINUOUS
 62
    30
 10
649.99999899999989
 20
-1338.6886739999991
 30
0.0
 40
6.0
  0
LINE
  5
8CA
  8
SIZE
  6
CONTINUOUS
 62
    30
 10
649.99999899999989
 20
-1338.6886739999991
 30
0.0
 11
637.99999899999989
 21
-1338.6886739999991
 31
0.0
  0
TEXT
  5
8CB
  8
SIZE
  6
CONTINUOUS
 62
    30
 10
250.94285614285701
 20
-1313.6886739999991
 30
0.0
 40
64.0
  1
650
 41
0.9
 72
     1
 11
324.99999899999989
 21
-1313.6886739999991
 31
0.0
  0
LINE
  5
8CC
  8
SIZE
  6
CONTINUOUS
 62
    30
 10
-0.000001
 20
-720.0
 30
0.0
 11
-0.000001
 21
-1094.512684
 31
0.0
  0
LINE
  5
8CD
  8
SIZE
  6
CONTINUOUS
 62
    30
 10
369.999999
 20
-720.0
 30
0.0
 11
369.999999
 21
-1231.7687992020419
 31
0.0
  0
LINE
  5
8CE
  8
SIZE
  6
CONTINUOUS
 62
    30
 10
11.99999899999994
 20
-1206.6006789999999
 30
0.0
 11
357.99999899999972
 21
-1206.6006789999999
 31
0.0
  0
CIRCLE
  5
8CF
  8
SIZE
  6
CONTINUOUS
 62
    30
 10
-0.0000010000000543
 20
-1206.6006789999999
 30
0.0
 40
6.0
  0
LINE
  5
8D0
  8
SIZE
  6
CONTINUOUS
 62
    30
 10
-0.0000010000000543
 20
-1206.6006789999999
 30
0.0
 11
11.99999899999994
 21
-1206.6006789999999
 31
0.0
  0
CIRCLE
  5
8D1
  8
SIZE
  6
CONTINUOUS
 62
    30
 10
369.99999899999989
 20
-1206.6006789999999
 30
0.0
 40
6.0
  0
LINE
  5
8D2
  8
SIZE
  6
CONTINUOUS
 62
    30
 10
369.99999899999989
 20
-1206.6006789999999
 30
0.0
 11
357.99999899999972
 21
-1206.6006789999999
 31
0.0
  0
TEXT
  5
8D3
  8
SIZE
  6
CONTINUOUS
 62
    30
 10
110.9428561428569
 20
-1181.600678999999
 30
0.0
 40
64.0
  1
370
 41
0.9
 72
     1
 11
184.9999989999998
 21
-1181.600678999999
 31
0.0
  0
LINE
  5
8D4
  8
SIZE
  6
CONTINUOUS
 62
    30
 10
-0.000001
 20
-720.0
 30
0.0
 11
-0.000001
 21
-972.60021600000005
 31
0.0
  0
LINE
  5
8D5
  8
SIZE
  6
CONTINUOUS
 62
    30
 10
289.99999899999989
 20
-340.0
 30
0.0
 11
289.99999899999989
 21
-1111.853897918309
 31
0.0
  0
LINE
  5
8D6
  8
SIZE
  6
CONTINUOUS
 62
    30
 10
11.99999899999994
 20
-1084.6882109999999
 30
0.0
 11
277.99999899999972
 21
-1084.6882109999999
 31
0.0
  0
CIRCLE
  5
8D7
  8
SIZE
  6
CONTINUOUS
 62
    30
 10
-0.0000010000000543
 20
-1084.6882109999999
 30
0.0
 40
6.0
  0
LINE
  5
8D8
  8
SIZE
  6
CONTINUOUS
 62
    30
 10
-0.0000010000000543
 20
-1084.6882109999999
 30
0.0
 11
11.99999899999994
 21
-1084.6882109999999
 31
0.0
  0
CIRCLE
  5
8D9
  8
SIZE
  6
CONTINUOUS
 62
    30
 10
289.99999899999989
 20
-1084.6882109999999
 30
0.0
 40
6.0
  0
LINE
  5
8DA
  8
SIZE
  6
CONTINUOUS
 62
    30
 10
289.99999899999989
 20
-1084.6882109999999
 30
0.0
 11
277.99999899999972
 21
-1084.6882109999999
 31
0.0
  0
TEXT
  5
8DB
  8
SIZE
  6
CONTINUOUS
 62
    30
 10
70.942856142856954
 20
-1059.6882109999981
 30
0.0
 40
64.0
  1
290
 41
0.9
 72
     1
 11
144.9999989999998
 21
-1059.6882109999981
 31
0.0
  0
LINE
  5
8DC
  8
SIZE
  6
CONTINUOUS
 62
    30
 10
-0.000001
 20
-720.0
 30
0.0
 11
-0.000001
 21
-853.72500500000001
 31
0.0
  0
LINE
  5
8DD
  8
SIZE
  6
CONTINUOUS
 62
    30
 10
254.999999
 20
-340.0
 30
0.0
 11
254.999999
 21
-995.17994081824679
 31
0.0
  0
LINE
  5
8DE
  8
SIZE
  6
CONTINUOUS
 62
    30
 10
11.99999899999994
 20
-965.81299999999965
 30
0.0
 11
242.9999989999998
 21
-965.81299999999965
 31
0.0
  0
CIRCLE
  5
8DF
  8
SIZE
  6
CONTINUOUS
 62
    30
 10
-0.0000010000000543
 20
-965.81299999999965
 30
0.0
 40
6.0
  0
LINE
  5
8E0
  8
SIZE
  6
CONTINUOUS
 62
    30
 10
-0.0000010000000543
 20
-965.81299999999965
 30
0.0
 11
11.99999899999994
 21
-965.81299999999965
 31
0.0
  0
CIRCLE
  5
8E1
  8
SIZE
  6
CONTINUOUS
 62
    30
 10
254.9999989999998
 20
-965.81299999999965
 30
0.0
 40
6.0
  0
LINE
  5
8E2
  8
SIZE
  6
CONTINUOUS
 62
    30
 10
254.9999989999998
 20
-965.81299999999965
 30
0.0
 11
242.9999989999998
 21
-965.81299999999965
 31
0.0
  0
TEXT
  5
8E3
  8
SIZE
  6
CONTINUOUS
 62
    30
 10
53.44285614285706
 20
-940.81299999999965
 30
0.0
 40
64.0
  1
255
 41
0.9
 72
     1
 11
127.4999989999999
 21
-940.81299999999965
 31
0.0
  0
LINE
  5
8E4
  8
NOTE
  6
CONTINUOUS
 62
     4
 10
207.999999
 20
-300.0
 30
0.0
 11
523.34258221898097
 21
210.4509603864353
 31
0.0
  0
LINE
  5
8E5
  8
NOTE
  6
CONTINUOUS
 62
     4
 10
219.79021536502199
 20
-261.91223799999972
 30
0.0
 11
207.999999
 21
-300.0
 31
0.0
  0
LINE
  5
8E6
  8
NOTE
  6
CONTINUOUS
 62
     4
 10
207.999999
 20
-300.0
 30
0.0
 11
242.48571755099209
 21
-276.09564694978587
 31
0.0
  0
LINE
  5
8E7
  8
NOTE
  6
CONTINUOUS
 62
     4
 10
523.34258221898097
 20
210.4509603864353
 30
0.0
 11
1652.24386221898
 21
210.4509603864353
 31
0.0
  0
TEXT
  5
8E8
  8
NOTE
  6
CONTINUOUS
 62
     4
 10
547.06596821898086
 20
248.20796438643529
 30
0.0
 40
64.0
  1
電動給気シャッター連動出力コード
 41
0.9
  0
ARC
  5
8E9
  8
DETAIL
  6
CONTINUOUS
 62
     5
 10
649.5506059999999
 20
-597.34393599999999
 30
0.0
 40
0.5
 50
344.99985199999992
 51
358.16383400000001
  0
ARC
  5
8EA
  8
DETAIL
  6
CONTINUOUS
 62
     5
 10
646.08210699999995
 20
-628.4487069999999
 30
0.0
 40
0.5
 50
254.99985199999989
 51
323.96262999999999
  0
ARC
  5
8EB
  8
DETAIL
  6
CONTINUOUS
 62
     5
 10
649.70560899999998
 20
-614.92575499999975
 30
0.0
 40
0.5
 50
6.0370729999999986
 51
74.999852000000004
  0
ARC
  5
8EC
  8
DETAIL
  6
CONTINUOUS
 62
     5
 10
630.31375500000001
 20
-616.97660800000017
 30
0.0
 40
20.0
 50
323.96262999999999
 51
6.0370729999999986
  0
ARC
  5
8ED
  8
DETAIL
  6
CONTINUOUS
 62
     5
 10
640.39215299999978
 20
-631.52339600000005
 30
0.0
 40
0.5
 50
331.83587
 51
344.99985199999992
  0
LINE
  5
8EE
  8
DETAIL
  6
CONTINUOUS
 62
     5
 10
640.87511500000005
 20
-631.65280700000017
 30
0.0
 11
650.03356900000006
 21
-597.47334699999999
 31
0.0
  0
LINE
  5
8EF
  8
DETAIL
  6
CONTINUOUS
 62
     5
 10
641.89554599999985
 20
-627.84454800000003
 30
0.0
 11
645.95269699999994
 21
-628.93166900000006
 31
0.0
  0
LINE
  5
8F0
  8
DETAIL
  6
CONTINUOUS
 62
     5
 10
645.77786900000001
 20
-613.35567000000003
 30
0.0
 11
649.83501999999987
 21
-614.44279200000005
 31
0.0
  0
LINE
  5
8F1
  8
DETAIL
  6
CONTINUOUS
 62
     5
 10
648.73960899999975
 20
-590.33790599999975
 30
0.0
 11
647.8670639999998
 21
-590.10410599999977
 31
0.0
  0
ARC
  5
8F2
  8
DETAIL
  6
CONTINUOUS
 62
     5
 10
648.48078799999985
 20
-591.30383099999995
 30
0.0
 40
1.0
 50
12.64806499999999
 51
74.999852000000004
  0
ARC
  5
8F3
  8
DETAIL
  6
CONTINUOUS
 62
     5
 10
625.0631860000002
 20
-596.55891599999995
 30
0.0
 40
25.0
 50
358.16383400000001
 51
12.64806499999999
  0
ARC
  5
8F4
  8
DETAIL
  6
CONTINUOUS
 62
     5
 10
618.79297400000019
 20
-619.95942200000002
 30
0.0
 40
25.0
 50
317.35163899999992
 51
331.83587
  0
ARC
  5
8F5
  8
DETAIL
  6
CONTINUOUS
 62
     5
 10
636.44558600000005
 20
-636.21935099999985
 30
0.0
 40
1.0
 50
254.99985199999989
 51
317.35163899999992
  0
LINE
  5
8F6
  8
DETAIL
  6
CONTINUOUS
 62
     5
 10
635.31421899999975
 20
-636.95147599999984
 30
0.0
 11
636.18676500000004
 21
-637.18527599999982
 31
0.0
  0
LINE
  5
8FD
  8
NOTE
  6
CONTINUOUS
 62
     4
 10
207.999999
 20
-320.0
 30
0.0
 11
207.999999
 21
-280.0
 31
0.0
  0
LINE
  5
8FE
  8
NOTE
  6
CONTINUOUS
 62
     4
 39
50.0
 10
224.65353280783791
 20
-300.0
 30
0.0
 11
192.23138880751591
 21
-300.0
 31
0.0
  0
LINE
  5
8FF
  8
NOTE
  6
CONTINUOUS
 62
     4
 39
50.0
 10
546.03808440495141
 20
54.885682657203681
 30
0.0
 11
1181.5121871844301
 21
54.885682657203681
 31
0.0
  0
CIRCLE
  5
900
  8
SIZE
  6
CONTINUOUS
 62
    30
 39
50.0
 10
-0.0000009999999975
 20
-842.85560727268785
 30
0.0
 40
6.0
  0
CIRCLE
  5
901
  8
SIZE
  6
CONTINUOUS
 62
    30
 39
50.0
 10
207.99999899999969
 20
-842.85560727268785
 30
0.0
 40
6.0
  0
LINE
  5
902
  8
SIZE
  6
CONTINUOUS
 10
207.999999
 20
-340.0
 30
0.0
 11
207.99999899999969
 21
-862.85560727268785
 31
0.0
  0
LINE
  5
903
  8
SIZE
  6
CONTINUOUS
 10
-0.0000010000000012
 20
-720.0
 30
0.0
 11
-0.00000100000001
 21
-862.85560727268785
 31
0.0
  0
LINE
  5
904
  8
SIZE
  6
CONTINUOUS
 10
207.99999899999969
 20
-842.85560727268785
 30
0.0
 11
-0.0000010000000087
 21
-842.85560727268785
 31
0.0
  0
TEXT
  5
906
  8
SIZE
  6
CONTINUOUS
 10
29.942856142857131
 20
-817.85560727268785
 30
0.0
 40
64.0
  1
208
 41
0.9
  0
LINE
  5
907
  8
OUTLINE
  6
CONTINOUS
 62
     3
 10
646.21892700000012
 20
-559.31670099999997
 30
0.0
 11
480.20377699999989
 21
-311.41966899999989
 31
0.0
  0
ARC
  5
908
  8
OUTLINE
  6
CONTINOUS
 62
     3
 10
384.55407599999961
 20
-49.0
 30
0.0
 40
650.0
 50
271.3616449999999
 51
291.64304800000002
  0
LINE
  5
909
  8
OUTLINE
  6
CONTINOUS
 62
     3
 10
-0.0000010000001112
 20
-700.0
 30
0.0
 11
-0.0000010000001112
 21
-300.0
 31
0.0
  0
LINE
  5
90A
  8
OUTLINE
  6
CONTINOUS
 62
     3
 10
-0.0000010000001112
 20
-700.0
 30
0.0
 11
372.95429100000001
 21
-700.0
 31
0.0
  0
LINE
  5
90B
  8
OUTLINE
  6
CONTINUOUS
 62
     3
 10
372.95429100000001
 20
-700.0
 30
0.0
 11
399.999999
 21
-698.81645400000002
 31
0.0
  0
LINE
  5
90C
  8
OUTLINE
  6
CONTINOUS
 62
     3
 10
424.99999899999989
 20
-300.0
 30
0.0
 11
-0.0000010000001112
 21
-300.0
 31
0.0
  0
LINE
  5
90D
  8
OUTLINE
  6
CONTINOUS
 62
     3
 10
399.999999
 20
-300.0
 30
0.0
 11
399.999999
 21
0.0
 31
0.0
  0
LINE
  5
90E
  8
OUTLINE
  6
CONTINOUS
 62
     3
 10
344.99999899999978
 20
-300.0
 30
0.0
 11
344.99999899999978
 21
0.0
 31
0.0
  0
LINE
  5
90F
  8
OUTLINE
  6
CONTINOUS
 62
     3
 10
464.35512499999982
 20
-300.0
 30
0.0
 11
399.999999
 21
-300.0
 31
0.0
  0
ARC
  5
910
  8
OUTLINE
  6
CONTINOUS
 62
     3
 10
456.93892599999998
 20
-327.0
 30
0.0
 40
28.0
 50
33.809981999999998
 51
74.641114000000002
  0
LINE
  5
911
  8
OUTLINE
  6
CONTINOUS
 62
     3
 10
399.999999
 20
0.0
 30
0.0
 11
344.99999899999978
 21
0.0
 31
0.0
  0
ARC
  5
912
  8
OUTLINE
  6
CONTINOUS
 62
     3
 10
622.95407599999976
 20
-574.89703199999985
 30
0.0
 40
28.0
 50
345.0
 51
33.809981999999998
  0
ARC
  5
913
  8
OUTLINE
  6
CONTINOUS
 62
     3
 10
618.38787399999978
 20
-638.30277000000001
 30
0.0
 40
16.0
 50
291.64304800000002
 51
345.0
  0
LINE
  5
914
  8
OUTLINE
  6
CONTINOUS
 62
     3
 10
633.84268700000007
 20
-642.44387500000005
 30
0.0
 11
649.99999899999989
 21
-582.14396500000021
 31
0.0
  0
TEXT
  5
ABA
  8
ETC
  6
CONTINUOUS
 62
    61
 10
631.04513321601121
 20
796.88807752071477
 30
0.0
 40
64.0
  1
V-6037K7-BL_5
 41
0.9
  0
TEXT
  5
ABB
  8
ETC
  6
CONTINUOUS
 62
    61
 10
635.58984021601123
 20
687.58544752071521
 30
0.0
 40
64.0
  1
換気扇
 41
0.9
  0
TEXT
  5
ABC
  8
ETC
  6
CONTINUOUS
 62
    61
 10
742.37997120389355
 20
606.84116466641535
 30
0.0
 40
50.0
  1
V-6037K6-BL
 41
0.9
  0
TEXT
  5
ABD
  8
ETC
  6
CONTINUOUS
 62
    61
 10
739.81252458221536
 20
527.2814243847713
 30
0.0
 40
50.0
  1
V-6047K6-BL
 41
0.9
  0
TEXT
  5
ABE
  8
ETC
  6
CONTINUOUS
 62
    61
 10
742.37997120389355
 20
452.85456950966358
 30
0.0
 40
50.0
  1
V-6037KLR6-BL
 41
0.9
  0
TEXT
  5
ABF
  8
ETC
  6
CONTINUOUS
 62
    61
 10
744.94742464027559
 20
380.99415969215698
 30
0.0
 40
50.0
  1
V-6047KLR6-BL
 41
0.9
  0
TEXT
  5
AC0
  8
ETC
  6
CONTINUOUS
 62
    61
 10
1344.5705046024441
 20
606.84116466641535
 30
0.0
 40
50.0
  1
V-6037K7-BL
 41
0.9
  0
TEXT
  5
AC1
  8
ETC
  6
CONTINUOUS
 62
    61
 10
1342.003057980766
 20
527.2814243847713
 30
0.0
 40
50.0
  1
V-6047K7-BL
 41
0.9
  0
TEXT
  5
AC2
  8
ETC
  6
CONTINUOUS
 62
    61
 10
1344.5705046024441
 20
452.85456950966358
 30
0.0
 40
50.0
  1
V-6037KLR7-BL
 41
0.9
  0
TEXT
  5
AC3
  8
ETC
  6
CONTINUOUS
 62
    61
 10
1347.1379580388259
 20
380.99415969215698
 30
0.0
 40
50.0
  1
V-6047KLR7-BL
 41
0.9
  0
ENDSEC
  0
EOF
