  0
SECTION
  2
HEADER
  9
$ACADVER
  1
AC1009
  9
$DWGCODEPAGE
  3
ansi_932
  9
$INSBASE
 10
0.0
 20
0.0
 30
0.0
  9
$EXTMIN
 10
-306.0
 20
-972.449882
 30
0.0
  9
$EXTMAX
 10
1502.530366083037
 20
221.5620469961104
 30
50.0
  9
$LIMMIN
 10
-2970.0
 20
-2100.0
  9
$LIMMAX
 10
2970.0
 20
2100.0
  9
$ORTHOMODE
 70
     1
  9
$REGENMODE
 70
     0
  9
$FILLMODE
 70
     1
  9
$QTEXTMODE
 70
     0
  9
$MIRRTEXT
 70
     0
  9
$DRAGMODE
 70
     2
  9
$LTSCALE
 40
20.0
  9
$OSMODE
 70
    37
  9
$ATTMODE
 70
     1
  9
$TEXTSIZE
 40
64.0
  9
$TRACEWID
 40
0.05
  9
$TEXTSTYLE
  7
STANDARD
  9
$CLAYER
  8
SIZE
  9
$CELTYPE
  6
CONTINUOUS
  9
$CECOLOR
 62
    30
  9
$DIMSCALE
 40
1.0
  9
$DIMASZ
 40
12.0
  9
$DIMEXO
 40
20.0
  9
$DIMDLI
 40
200.0
  9
$DIMRND
 40
0.0
  9
$DIMDLE
 40
0.0
  9
$DIMEXE
 40
20.0
  9
$DIMTP
 40
0.0
  9
$DIMTM
 40
0.0
  9
$DIMTXT
 40
64.0
  9
$DIMCEN
 40
0.09
  9
$DIMTSZ
 40
0.0
  9
$DIMTOL
 70
     0
  9
$DIMLIM
 70
     0
  9
$DIMTIH
 70
     0
  9
$DIMTOH
 70
     0
  9
$DIMSE1
 70
     0
  9
$DIMSE2
 70
     0
  9
$DIMTAD
 70
     1
  9
$DIMZIN
 70
     8
  9
$DIMBLK
  1
DOT1
  9
$DIMASO
 70
     1
  9
$DIMSHO
 70
     0
  9
$DIMPOST
  1

  9
$DIMAPOST
  1

  9
$DIMALT
 70
     0
  9
$DIMALTD
 70
     2
  9
$DIMALTF
 40
25.4
  9
$DIMLFAC
 40
1.0
  9
$DIMTOFL
 70
     1
  9
$DIMTVP
 40
0.0
  9
$DIMTIX
 70
     1
  9
$DIMSOXD
 70
     0
  9
$DIMSAH
 70
     1
  9
$DIMBLK1
  1
ORIGIN
  9
$DIMBLK2
  1
ORIGIN
  9
$DIMSTYLE
  2
STANDARD
  9
$DIMCLRD
 70
     7
  9
$DIMCLRE
 70
     7
  9
$DIMCLRT
 70
     7
  9
$DIMTFAC
 40
1.0
  9
$DIMGAP
 40
25.0
  9
$LUNITS
 70
     2
  9
$LUPREC
 70
     4
  9
$SKETCHINC
 40
0.1
  9
$FILLETRAD
 40
4.0
  9
$AUNITS
 70
     1
  9
$AUPREC
 70
     3
  9
$MENU
  1
ACAD
  9
$ELEVATION
 40
0.0
  9
$PELEVATION
 40
0.0
  9
$THICKNESS
 40
50.0
  9
$LIMCHECK
 70
     0
  9
$CHAMFERA
 40
0.0
  9
$CHAMFERB
 40
0.0
  9
$SKPOLY
 70
     0
  9
$TDCREATE
 40
2453090.679102697
  9
$TDUPDATE
 40
2457485.588765162
  9
$TDINDWG
 40
0.0203971296
  9
$TDUSRTIMER
 40
0.0203967708
  9
$USRTIMER
 70
     1
  9
$ANGBASE
 50
0.0
  9
$ANGDIR
 70
     0
  9
$PDMODE
 70
     3
  9
$PDSIZE
 40
-2.0
  9
$PLINEWID
 40
0.0
  9
$COORDS
 70
     1
  9
$SPLFRAME
 70
     0
  9
$SPLINETYPE
 70
     6
  9
$SPLINESEGS
 70
     8
  9
$ATTDIA
 70
     0
  9
$ATTREQ
 70
     1
  9
$HANDLING
 70
     1
  9
$HANDSEED
  5
386
  9
$SURFTAB1
 70
     6
  9
$SURFTAB2
 70
     6
  9
$SURFTYPE
 70
     6
  9
$SURFU
 70
     6
  9
$SURFV
 70
     6
  9
$UCSNAME
  2

  9
$UCSORG
 10
0.0
 20
0.0
 30
0.0
  9
$UCSXDIR
 10
1.0
 20
0.0
 30
0.0
  9
$UCSYDIR
 10
0.0
 20
1.0
 30
0.0
  9
$PUCSNAME
  2

  9
$PUCSORG
 10
0.0
 20
0.0
 30
0.0
  9
$PUCSXDIR
 10
1.0
 20
0.0
 30
0.0
  9
$PUCSYDIR
 10
0.0
 20
1.0
 30
0.0
  9
$USERI1
 70
     0
  9
$USERI2
 70
     0
  9
$USERI3
 70
     0
  9
$USERI4
 70
     0
  9
$USERI5
 70
     0
  9
$USERR1
 40
20.0
  9
$USERR2
 40
0.0
  9
$USERR3
 40
0.0
  9
$USERR4
 40
0.0
  9
$USERR5
 40
0.0
  9
$WORLDVIEW
 70
     1
  9
$SHADEDGE
 70
     3
  9
$SHADEDIF
 70
    70
  9
$TILEMODE
 70
     1
  9
$MAXACTVP
 70
    48
  9
$PLIMCHECK
 70
     0
  9
$PEXTMIN
 10
-1.000000000000000E+20
 20
-1.000000000000000E+20
 30
-1.000000000000000E+20
  9
$PEXTMAX
 10
1.000000000000000E+20
 20
1.000000000000000E+20
 30
1.000000000000000E+20
  9
$PLIMMIN
 10
0.0
 20
0.0
  9
$PLIMMAX
 10
12.0
 20
9.0
  9
$UNITMODE
 70
     0
  9
$VISRETAIN
 70
     0
  9
$PLINEGEN
 70
     0
  9
$PSLTSCALE
 70
     0
  0
ENDSEC
  0
SECTION
  2
TABLES
  0
TABLE
  2
VPORT
 70
     1
  0
VPORT
  2
*ACTIVE
 70
     0
 10
0.0
 20
0.0
 11
1.0
 21
1.0
 12
149.0818913180191
 22
-403.1329929086727
 13
0.0
 23
0.0
 14
1.0
 24
1.0
 15
0.0
 25
0.0
 16
0.0
 26
0.0
 36
1.0
 17
0.0
 27
0.0
 37
0.0
 40
2205.130302260195
 41
1.447268106734434
 42
50.0
 43
0.0
 44
0.0
 50
0.0
 51
0.0
 71
     0
 72
  1000
 73
     1
 74
     0
 75
     0
 76
     0
 77
     0
 78
     0
  0
ENDTAB
  0
TABLE
  2
LTYPE
 70
     3
  0
LTYPE
  2
CONTINUOUS
 70
     0
  3
実線
 72
    65
 73
     0
 40
0.0
  0
LTYPE
  2
DASHDOT
 70
     0
  3
____ _ ____ _ ____ _ ____ _ ____ _ ____ _ ____
 72
    65
 73
     4
 40
5.5
 49
4.0
 49
-0.6
 49
0.3
 49
-0.6
  0
LTYPE
  2
CONTINOUS
 70
     0
  3
Solid line
 72
    65
 73
     0
 40
0.0
  0
ENDTAB
  0
TABLE
  2
LAYER
 70
    12
  0
LAYER
  2
0
 70
     0
 62
     7
  6
CONTINUOUS
  0
LAYER
  2
SIZE
 70
     0
 62
    30
  6
CONTINUOUS
  0
LAYER
  2
BASIS
 70
     0
 62
     6
  6
DASHDOT
  0
LAYER
  2
OUTLINE
 70
     0
 62
     3
  6
CONTINUOUS
  0
LAYER
  2
DETAIL
 70
     0
 62
     5
  6
CONTINUOUS
  0
LAYER
  2
ARRANGE
 70
     0
 62
     1
  6
CONTINUOUS
  0
LAYER
  2
DEFPOINTS
 70
     0
 62
     7
  6
CONTINUOUS
  0
LAYER
  2
ETC
 70
     0
 62
    61
  6
CONTINUOUS
  0
LAYER
  2
FIX
 70
     0
 62
    11
  6
CONTINUOUS
  0
LAYER
  2
NOTE
 70
     0
 62
     4
  6
CONTINUOUS
  0
LAYER
  2
SERVICESPACE
 70
     0
 62
     2
  6
DASHDOT
  0
LAYER
  2
SYMBOLLINE
 70
     0
 62
    15
  6
CONTINUOUS
  0
ENDTAB
  0
TABLE
  2
STYLE
 70
     1
  0
STYLE
  2
STANDARD
 70
     0
 40
64.0
 41
0.9
 50
0.0
 71
     0
 42
64.0
  3
SIMPLEX.shx
  4
BIGFONT.shx
  0
ENDTAB
  0
TABLE
  2
VIEW
 70
     1
  0
VIEW
  2
ALL
 70
     0
 40
4282.619807999997
 10
0.0
 20
41.30990399999999
 41
5940.0
 11
0.0
 21
0.0
 31
1.0
 12
0.0
 22
0.0
 32
0.0
 42
50.0
 43
0.0
 44
0.0
 50
0.0
 71
     0
  0
ENDTAB
  0
TABLE
  2
UCS
 70
     0
  0
ENDTAB
  0
TABLE
  2
APPID
 70
     2
  0
APPID
  2
ACAD
 70
     0
  0
APPID
  2
AUTOCAD_POSTSCRIPT_FIGURE
 70
     0
  0
ENDTAB
  0
TABLE
  2
DIMSTYLE
 70
     1
  0
DIMSTYLE
  2
STANDARD
 70
     0
  3

  4

  5

  6

  7

 40
1.0
 41
0.18
 42
0.0625
 43
0.38
 44
0.18
 45
0.0
 46
0.0
 47
0.0
 48
0.0
140
0.18
141
0.09
142
0.0
143
25.4
144
1.0
145
0.0
146
1.0
147
0.09
 71
     0
 72
     0
 73
     1
 74
     1
 75
     0
 76
     0
 77
     0
 78
     0
170
     0
171
     2
172
     0
173
     0
174
     0
175
     0
176
     7
177
     7
178
     7
  0
ENDTAB
  0
ENDSEC
  0
SECTION
  2
BLOCKS
  0
BLOCK
  8
0
  2
$MODEL_SPACE
 70
     0
 10
0.0
 20
0.0
 30
0.0
  3
$MODEL_SPACE
  1

  0
ENDBLK
  5
201
  8
0
  0
BLOCK
 67
     1
  8
0
  2
$PAPER_SPACE
 70
     0
 10
0.0
 20
0.0
 30
0.0
  3
$PAPER_SPACE
  1

  0
ENDBLK
  5
1FD
 67
     1
  8
0
  0
BLOCK
  8
0
  2
DOT1
 70
     0
 10
0.0
 20
0.0
 30
0.0
  3
DOT1
  1

  0
CIRCLE
  5
21E
  8
SIZE
  6
CONTINUOUS
 62
     7
 10
0.0
 20
0.0
 30
0.0
 40
3.0
  0
ENDBLK
  5
21F
  8
0
  0
BLOCK
  8
0
  2
_ORIGIN
 70
     0
 10
0.0
 20
0.0
 30
0.0
  3
_ORIGIN
  1

  0
CIRCLE
  5
222
  8
0
  6
CONTINUOUS
 62
     7
 10
0.0
 20
0.0
 30
0.0
 40
0.5
  0
LINE
  5
223
  8
0
  6
CONTINUOUS
 62
     7
 10
0.0
 20
0.0
 30
0.0
 11
-1.0
 21
0.0
 31
0.0
  0
ENDBLK
  5
224
  8
0
  0
BLOCK
  8
0
  2
_NONE
 70
     0
 10
0.0
 20
0.0
 30
0.0
  3
_NONE
  1

  0
ENDBLK
  5
227
  8
0
 62
    30
  0
BLOCK
  8
0
  2
_OPEN30
 70
     0
 10
0.0
 20
0.0
 30
0.0
  3
_OPEN30
  1

  0
LINE
  5
22A
  8
0
  6
BYBLOCK
 62
     0
 10
-1.0
 20
0.26794919
 30
0.0
 11
0.0
 21
0.0
 31
0.0
  0
LINE
  5
22B
  8
0
  6
BYBLOCK
 62
     0
 10
0.0
 20
0.0
 30
0.0
 11
-1.0
 21
-0.26794919
 31
0.0
  0
LINE
  5
22C
  8
0
  6
BYBLOCK
 62
     0
 10
0.0
 20
0.0
 30
0.0
 11
-1.0
 21
0.0
 31
0.0
  0
ENDBLK
  5
22D
  8
0
 62
    30
  0
ENDSEC
  0
SECTION
  2
ENTITIES
  0
LINE
  5
22E
  8
DETAIL
  6
CONTINUOUS
 62
     5
 10
-300.0
 20
-200.0
 30
0.0
 11
-300.0
 21
0.0
 31
0.0
  0
LINE
  5
22F
  8
DETAIL
  6
CONTINOUS
 62
     5
 10
0.0
 20
-553.0
 30
0.0
 11
-273.279895
 21
-553.0
 31
0.0
  0
LINE
  5
230
  8
DETAIL
  6
CONTINOUS
 62
     5
 10
0.0
 20
-470.0
 30
0.0
 11
-273.640779
 21
-470.0
 31
0.0
  0
LINE
  5
231
  8
BASIS
  6
DASHDOT
 62
     6
 10
0.0
 20
-671.940068
 30
0.0
 11
0.0
 21
80.30222249222699
 31
0.0
  0
LINE
  5
232
  8
DETAIL
  6
CONTINOUS
 62
     5
 10
-300.0
 20
-600.0
 30
0.0
 11
-300.0
 21
-200.0
 31
0.0
  0
LINE
  5
233
  8
DETAIL
  6
CONTINOUS
 62
     5
 10
0.0
 20
-553.0
 30
0.0
 11
274.667085
 21
-553.0
 31
0.0
  0
LINE
  5
234
  8
DETAIL
  6
CONTINOUS
 62
     5
 10
0.0
 20
-470.0
 30
0.0
 11
274.667085
 21
-470.0
 31
0.0
  0
LINE
  5
235
  8
DETAIL
  6
CONTINOUS
 62
     5
 10
-300.0
 20
-200.0
 30
0.0
 11
300.0
 21
-200.0
 31
0.0
  0
LINE
  5
236
  8
DETAIL
  6
CONTINOUS
 62
     5
 10
300.0
 20
-600.0
 30
0.0
 11
300.0
 21
0.0
 31
0.0
  0
LINE
  5
237
  8
DETAIL
  6
CONTINOUS
 62
     5
 10
-300.0
 20
-600.0
 30
0.0
 11
300.0
 21
-600.0
 31
0.0
  0
LINE
  5
238
  8
DETAIL
  6
CONTINOUS
 62
     5
 10
-280.0
 20
-600.0
 30
0.0
 11
-280.0
 21
-200.0
 31
0.0
  0
LINE
  5
239
  8
DETAIL
  6
CONTINOUS
 62
     5
 10
280.0
 20
-600.0
 30
0.0
 11
280.0
 21
-200.0
 31
0.0
  0
LINE
  5
23A
  8
OUTLINE
  6
CONTINOUS
 62
     3
 10
-300.0
 20
-600.0
 30
0.0
 11
300.0
 21
-600.0
 31
0.0
  0
LINE
  5
23B
  8
OUTLINE
  6
CONTINOUS
 62
     3
 10
-300.0
 20
-600.0
 30
0.0
 11
-300.0
 21
-200.0
 31
0.0
  0
LINE
  5
23C
  8
OUTLINE
  6
CONTINUOUS
 62
     3
 10
-300.0
 20
-200.0
 30
0.0
 11
-300.0
 21
0.0
 31
0.0
  0
LINE
  5
23D
  8
OUTLINE
  6
CONTINOUS
 62
     3
 10
300.0
 20
-600.0
 30
0.0
 11
300.0
 21
0.0
 31
0.0
  0
POINT
  5
23E
  8
ARRANGE
  6
CONTINUOUS
 62
     1
 10
0.0
 20
0.0
 30
0.0
  0
CIRCLE
  5
23F
  8
ARRANGE
  6
CONTINUOUS
 62
     1
 10
0.0
 20
0.0
 30
0.0
 40
40.0
  0
LINE
  5
240
  8
SIZE
  6
CONTINUOUS
 62
    30
 10
320.0
 20
-600.0
 30
0.0
 11
647.0004669999998
 21
-600.0
 31
0.0
  0
LINE
  5
241
  8
SIZE
  6
CONTINUOUS
 62
    30
 10
627.0004669999998
 20
-6.8510515840252
 30
0.0
 11
627.0004669999998
 21
-588.0
 31
0.0
  0
CIRCLE
  5
242
  8
SIZE
  6
CONTINUOUS
 62
    30
 10
627.0004669999998
 20
-600.0
 30
0.0
 40
6.0
  0
LINE
  5
243
  8
SIZE
  6
CONTINUOUS
 62
    30
 10
627.0004669999998
 20
-600.0
 30
0.0
 11
627.0004669999998
 21
-588.0
 31
0.0
  0
TEXT
  5
244
  8
SIZE
  6
CONTINUOUS
 62
    30
 10
602.0004669999998
 20
-379.8383581546836
 30
0.0
 40
64.0
  1
600
 50
90.0
 41
0.9
 72
     1
 11
602.0004669999998
 21
-296.1812152975408
 31
0.0
  0
LINE
  5
247
  8
SIZE
  6
CONTINUOUS
 62
    30
 10
320.0
 20
-600.0
 30
0.0
 11
513.772361
 21
-600.0
 31
0.0
  0
LINE
  5
248
  8
SIZE
  6
CONTINUOUS
 62
    30
 10
320.0
 20
-200.0
 30
0.0
 11
513.772361
 21
-200.0
 31
0.0
  0
LINE
  5
249
  8
SIZE
  6
CONTINUOUS
 62
    30
 10
493.7723609999999
 20
-588.0
 30
0.0
 11
493.7723609999999
 21
-212.0
 31
0.0
  0
CIRCLE
  5
24A
  8
SIZE
  6
CONTINUOUS
 62
    30
 10
493.7723609999999
 20
-600.0
 30
0.0
 40
6.0
  0
LINE
  5
24B
  8
SIZE
  6
CONTINUOUS
 62
    30
 10
493.7723609999999
 20
-600.0
 30
0.0
 11
493.7723609999999
 21
-588.0
 31
0.0
  0
CIRCLE
  5
24C
  8
SIZE
  6
CONTINUOUS
 62
    30
 10
493.7723609999999
 20
-200.0
 30
0.0
 40
6.0
  0
LINE
  5
24D
  8
SIZE
  6
CONTINUOUS
 62
    30
 10
493.7723609999999
 20
-200.0
 30
0.0
 11
493.7723609999999
 21
-212.0
 31
0.0
  0
TEXT
  5
24E
  8
SIZE
  6
CONTINUOUS
 62
    30
 10
468.7723609999999
 20
-482.2857142857143
 30
0.0
 40
64.0
  1
400
 50
90.0
 41
0.9
 72
     1
 11
468.7723609999999
 21
-400.0
 31
0.0
  0
LINE
  5
252
  8
SIZE
  6
CONTINUOUS
 62
    30
 10
300.0
 20
-620.0
 30
0.0
 11
300.0
 21
-872.449882
 31
0.0
  0
LINE
  5
253
  8
SIZE
  6
CONTINUOUS
 62
    30
 10
-300.0
 20
-620.0
 30
0.0
 11
-300.0
 21
-872.449882
 31
0.0
  0
LINE
  5
254
  8
SIZE
  6
CONTINUOUS
 62
    30
 10
288.0
 20
-852.4498819999999
 30
0.0
 11
-288.0
 21
-852.4498819999999
 31
0.0
  0
CIRCLE
  5
255
  8
SIZE
  6
CONTINUOUS
 62
    30
 10
300.0
 20
-852.4498819999999
 30
0.0
 40
6.0
  0
LINE
  5
256
  8
SIZE
  6
CONTINUOUS
 62
    30
 10
300.0
 20
-852.4498819999999
 30
0.0
 11
288.0
 21
-852.4498819999999
 31
0.0
  0
CIRCLE
  5
257
  8
SIZE
  6
CONTINUOUS
 62
    30
 10
-300.0
 20
-852.4498819999999
 30
0.0
 40
6.0
  0
LINE
  5
258
  8
SIZE
  6
CONTINUOUS
 62
    30
 10
-300.0
 20
-852.4498819999999
 30
0.0
 11
-288.0
 21
-852.4498819999999
 31
0.0
  0
TEXT
  5
259
  8
SIZE
  6
CONTINUOUS
 62
    30
 10
-83.65714285714286
 20
-827.4498819999999
 30
0.0
 40
64.0
  1
600
 41
0.9
 72
     1
 11
0.0
 21
-827.4498819999999
 31
0.0
  0
LINE
  5
25D
  8
DETAIL
  6
CONTINOUS
 62
     5
 10
-95.83069899999998
 20
-535.247808
 30
0.0
 11
109.2157959999999
 21
-535.247808
 31
0.0
  0
LINE
  5
25E
  8
DETAIL
  6
CONTINOUS
 62
     5
 10
-95.83069899999998
 20
-526.550637
 30
0.0
 11
113.8306989999999
 21
-526.550637
 31
0.0
  0
LINE
  5
25F
  8
DETAIL
  6
CONTINOUS
 62
     5
 10
-95.87108699999999
 20
-505.2316070000001
 30
0.0
 11
113.874861
 21
-505.2316070000001
 31
0.0
  0
LINE
  5
260
  8
DETAIL
  6
CONTINOUS
 62
     5
 10
74.66930099999998
 20
-496.2478079999998
 30
0.0
 11
109.813372
 21
-496.2478079999998
 31
0.0
  0
LINE
  5
261
  8
DETAIL
  6
CONTINOUS
 62
     5
 10
-95.83069899999998
 20
-496.2478079999998
 30
0.0
 11
74.66930099999998
 21
-496.2478079999998
 31
0.0
  0
CIRCLE
  5
262
  8
DETAIL
  6
CONTINOUS
 62
     5
 10
-25.33069899999998
 20
-518.247808
 30
0.0
 40
8.3
  0
ARC
  5
263
  8
DETAIL
  6
CONTINOUS
 62
     5
 10
-95.83069899999998
 20
-515.7478079999998
 30
0.0
 40
19.5
 50
90.0
 51
270.0
  0
ARC
  5
264
  8
DETAIL
  6
CONTINOUS
 62
     5
 10
-95.83069899999998
 20
-515.7478079999998
 30
0.0
 40
10.5
 50
90.0
 51
270.0
  0
CIRCLE
  5
265
  8
DETAIL
  6
CONTINOUS
 62
     5
 10
-25.33069899999998
 20
-518.247808
 30
0.0
 40
6.5
  0
CIRCLE
  5
266
  8
DETAIL
  6
CONTINOUS
 62
     5
 10
-46.83069899999998
 20
-518.247808
 30
0.0
 40
6.5
  0
CIRCLE
  5
267
  8
DETAIL
  6
CONTINOUS
 62
     5
 10
-46.83069899999998
 20
-518.247808
 30
0.0
 40
8.3
  0
CIRCLE
  5
268
  8
DETAIL
  6
CONTINOUS
 62
     5
 10
39.16930100000001
 20
-518.247808
 30
0.0
 40
6.5
  0
CIRCLE
  5
269
  8
DETAIL
  6
CONTINOUS
 62
     5
 10
39.16930100000001
 20
-518.247808
 30
0.0
 40
8.3
  0
CIRCLE
  5
26A
  8
DETAIL
  6
CONTINOUS
 62
     5
 10
17.66930100000001
 20
-518.247808
 30
0.0
 40
6.5
  0
CIRCLE
  5
26B
  8
DETAIL
  6
CONTINOUS
 62
     5
 10
17.66930100000001
 20
-518.247808
 30
0.0
 40
8.3
  0
CIRCLE
  5
26C
  8
DETAIL
  6
CONTINOUS
 62
     5
 10
82.16930099999998
 20
-518.247808
 30
0.0
 40
6.5
  0
CIRCLE
  5
26D
  8
DETAIL
  6
CONTINOUS
 62
     5
 10
60.66930100000002
 20
-518.247808
 30
0.0
 40
6.5
  0
CIRCLE
  5
26E
  8
DETAIL
  6
CONTINOUS
 62
     5
 10
82.16930099999998
 20
-518.247808
 30
0.0
 40
8.3
  0
CIRCLE
  5
26F
  8
DETAIL
  6
CONTINOUS
 62
     5
 10
60.66930100000002
 20
-518.247808
 30
0.0
 40
8.3
  0
ARC
  5
270
  8
DETAIL
  6
CONTINOUS
 62
     5
 10
44.66930100000001
 20
-515.7478079999998
 30
0.0
 40
70.0
 50
346.077956
 51
0.0
  0
ARC
  5
271
  8
DETAIL
  6
CONTINOUS
 62
     5
 10
109.2157959999999
 20
-531.7478079999998
 30
0.0
 40
3.5
 50
270.0
 51
346.0779559999993
  0
ARC
  5
272
  8
DETAIL
  6
CONTINOUS
 62
     5
 10
44.66930100000001
 20
-515.7478079999998
 30
0.0
 40
70.0
 50
0.0
 51
13.92204400000001
  0
ARC
  5
273
  8
DETAIL
  6
CONTINOUS
 62
     5
 10
109.2157959999999
 20
-499.7478079999998
 30
0.0
 40
3.5
 50
13.92204400000069
 51
90.0
  0
LINE
  5
274
  8
DETAIL
  6
CONTINOUS
 62
     5
 10
-276.4996019999999
 20
-562.53605
 30
0.0
 11
278.0
 21
-562.53605
 31
0.0
  0
TEXT
  5
275
  8
ETC
  6
CONTINUOUS
 62
    61
 10
956.273449638973
 20
67.51513414181045
 30
0.0
 40
50.0
  1
V-603K6-BL
 41
0.9
  0
TEXT
  5
276
  8
ETC
  6
CONTINUOUS
 62
    61
 10
953.7060030172959
 20
-12.04460613983331
 30
0.0
 40
50.0
  1
V-604K6-BL
 41
0.9
  0
TEXT
  5
277
  8
ETC
  6
CONTINUOUS
 62
    61
 10
819.5589375116087
 20
257.5620469961104
 30
0.0
 40
64.0
  1
V-603K6-BL_2
 41
0.9
  0
TEXT
  5
278
  8
ETC
  6
CONTINUOUS
 62
    61
 10
824.1036445116092
 20
148.2594169961104
 30
0.0
 40
64.0
  1
換気扇
 41
0.9
  0
LINE
  5
279
  8
DETAIL
  6
CONTINUOUS
 62
     5
 10
300.0
 20
0.0
 30
0.0
 11
-300.0
 21
0.0
 31
0.0
  0
LINE
  5
27A
  8
OUTLINE
  6
CONTINUOUS
 62
     3
 10
300.0
 20
0.0
 30
0.0
 11
-300.0
 21
0.0
 31
0.0
  0
LINE
  5
27B
  8
SIZE
  6
CONTINUOUS
 62
    30
 39
50.0
 10
329.6487765072315
 20
0.0
 30
0.0
 11
645.9907702253921
 21
0.0
 31
0.0
  0
CIRCLE
  5
27C
  8
SIZE
  6
CONTINUOUS
 62
    30
 39
50.0
 10
623.5948781799643
 20
0.0
 30
0.0
 40
6.0
  0
ENDSEC
  0
EOF
