  0
SECTION
  2
HEADER
  9
$ACADVER
  1
AC1009
  9
$INSBASE
 10
0.0
 20
0.0
 30
0.0
  9
$EXTMIN
 10
-1159.710048445339
 20
-1370.2578025558121
 30
0.0
  9
$EXTMAX
 10
1343.6971092911269
 20
783.44544725181242
 30
50.0
  9
$LIMMIN
 10
-2970.0
 20
-2100.0
  9
$LIMMAX
 10
2970.0
 20
2100.0
  9
$ORTHOMODE
 70
     1
  9
$REGENMODE
 70
     0
  9
$FILLMODE
 70
     1
  9
$QTEXTMODE
 70
     0
  9
$MIRRTEXT
 70
     0
  9
$DRAGMODE
 70
     2
  9
$LTSCALE
 40
20.0
  9
$OSMODE
 70
    32
  9
$ATTMODE
 70
     1
  9
$TEXTSIZE
 40
64.0
  9
$TRACEWID
 40
0.05
  9
$TEXTSTYLE
  7
STANDARD
  9
$CLAYER
  8
ETC
  9
$CELTYPE
  6
CONTINUOUS
  9
$CECOLOR
 62
    30
  9
$DIMSCALE
 40
1.0
  9
$DIMASZ
 40
12.0
  9
$DIMEXO
 40
20.0
  9
$DIMDLI
 40
200.0
  9
$DIMRND
 40
0.0
  9
$DIMDLE
 40
0.0
  9
$DIMEXE
 40
20.0
  9
$DIMTP
 40
0.0
  9
$DIMTM
 40
0.0
  9
$DIMTXT
 40
64.0
  9
$DIMCEN
 40
0.09
  9
$DIMTSZ
 40
0.0
  9
$DIMTOL
 70
     0
  9
$DIMLIM
 70
     0
  9
$DIMTIH
 70
     0
  9
$DIMTOH
 70
     0
  9
$DIMSE1
 70
     0
  9
$DIMSE2
 70
     0
  9
$DIMTAD
 70
     1
  9
$DIMZIN
 70
     8
  9
$DIMBLK
  1
NONE
  9
$DIMASO
 70
     1
  9
$DIMSHO
 70
     0
  9
$DIMPOST
  1

  9
$DIMAPOST
  1

  9
$DIMALT
 70
     0
  9
$DIMALTD
 70
     2
  9
$DIMALTF
 40
25.399999999999999
  9
$DIMLFAC
 40
1.0
  9
$DIMTOFL
 70
     1
  9
$DIMTVP
 40
0.0
  9
$DIMTIX
 70
     1
  9
$DIMSOXD
 70
     0
  9
$DIMSAH
 70
     0
  9
$DIMBLK1
  1
NONE
  9
$DIMBLK2
  1
ORIGIN
  9
$DIMSTYLE
  2
STANDARD
  9
$DIMCLRD
 70
   256
  9
$DIMCLRE
 70
   256
  9
$DIMCLRT
 70
   256
  9
$DIMTFAC
 40
1.0
  9
$DIMGAP
 40
25.0
  9
$LUNITS
 70
     2
  9
$LUPREC
 70
     4
  9
$SKETCHINC
 40
0.1
  9
$FILLETRAD
 40
4.0
  9
$AUNITS
 70
     1
  9
$AUPREC
 70
     3
  9
$MENU
  1
ACAD
  9
$ELEVATION
 40
0.0
  9
$PELEVATION
 40
0.0
  9
$THICKNESS
 40
50.0
  9
$LIMCHECK
 70
     0
  9
$BLIPMODE
 70
     0
  9
$CHAMFERA
 40
0.0
  9
$CHAMFERB
 40
0.0
  9
$SKPOLY
 70
     0
  9
$TDCREATE
 40
2453091.3854939472
  9
$TDUPDATE
 40
2454743.5607049312
  9
$TDINDWG
 40
0.0341840046
  9
$TDUSRTIMER
 40
0.034183831
  9
$USRTIMER
 70
     1
  9
$ANGBASE
 50
0.0
  9
$ANGDIR
 70
     0
  9
$PDMODE
 70
     3
  9
$PDSIZE
 40
-2.0
  9
$PLINEWID
 40
0.0
  9
$COORDS
 70
     1
  9
$SPLFRAME
 70
     0
  9
$SPLINETYPE
 70
     6
  9
$SPLINESEGS
 70
     8
  9
$ATTDIA
 70
     0
  9
$ATTREQ
 70
     1
  9
$HANDLING
 70
     1
  9
$HANDSEED
  5
71C
  9
$SURFTAB1
 70
     6
  9
$SURFTAB2
 70
     6
  9
$SURFTYPE
 70
     6
  9
$SURFU
 70
     6
  9
$SURFV
 70
     6
  9
$UCSNAME
  2

  9
$UCSORG
 10
0.0
 20
0.0
 30
0.0
  9
$UCSXDIR
 10
1.0
 20
0.0
 30
0.0
  9
$UCSYDIR
 10
0.0
 20
1.0
 30
0.0
  9
$PUCSNAME
  2

  9
$PUCSORG
 10
0.0
 20
0.0
 30
0.0
  9
$PUCSXDIR
 10
1.0
 20
0.0
 30
0.0
  9
$PUCSYDIR
 10
0.0
 20
1.0
 30
0.0
  9
$USERI1
 70
     0
  9
$USERI2
 70
     0
  9
$USERI3
 70
     0
  9
$USERI4
 70
     0
  9
$USERI5
 70
     0
  9
$USERR1
 40
20.0
  9
$USERR2
 40
0.0
  9
$USERR3
 40
0.0
  9
$USERR4
 40
0.0
  9
$USERR5
 40
0.0
  9
$WORLDVIEW
 70
     1
  9
$SHADEDGE
 70
     3
  9
$SHADEDIF
 70
    70
  9
$TILEMODE
 70
     1
  9
$MAXACTVP
 70
    48
  9
$PLIMCHECK
 70
     0
  9
$PEXTMIN
 10
-1.0000000000000000E+020
 20
-1.0000000000000000E+020
 30
-1.0000000000000000E+020
  9
$PEXTMAX
 10
1.0000000000000000E+020
 20
1.0000000000000000E+020
 30
1.0000000000000000E+020
  9
$PLIMMIN
 10
0.0
 20
0.0
  9
$PLIMMAX
 10
12.0
 20
9.0
  9
$UNITMODE
 70
     0
  9
$VISRETAIN
 70
     0
  9
$PLINEGEN
 70
     0
  9
$PSLTSCALE
 70
     0
  0
ENDSEC
  0
SECTION
  2
TABLES
  0
TABLE
  2
VPORT
 70
     1
  0
VPORT
  2
*ACTIVE
 70
     0
 10
0.0
 20
0.0
 11
1.0
 21
1.0
 12
166.20196901476399
 22
-129.3225765894353
 13
0.0
 23
0.0
 14
1.0
 24
1.0
 15
0.0
 25
0.0
 16
0.0
 26
0.0
 36
1.0
 17
0.0
 27
0.0
 37
0.0
 40
2071.6007248473788
 41
1.8033946251768029
 42
50.0
 43
0.0
 44
0.0
 50
0.0
 51
0.0
 71
     0
 72
  1000
 73
     1
 74
     0
 75
     0
 76
     0
 77
     0
 78
     0
  0
ENDTAB
  0
TABLE
  2
LTYPE
 70
     4
  0
LTYPE
  2
CONTINUOUS
 70
     0
  3
実線
 72
    65
 73
     0
 40
0.0
  0
LTYPE
  2
DASHDOT
 70
     0
  3
____ _ ____ _ ____ _ ____ _ ____ _ ____ _ ____
 72
    65
 73
     4
 40
5.5
 49
4.0
 49
-0.6
 49
0.3
 49
-0.6
  0
LTYPE
  2
CONTINOUS
 70
     0
  3
Solid line
 72
    65
 73
     0
 40
0.0
  0
ENDTAB
  0
TABLE
  2
LAYER
 70
    12
  0
LAYER
  2
0
 70
     0
 62
     7
  6
CONTINUOUS
  0
LAYER
  2
SIZE
 70
     0
 62
    30
  6
CONTINUOUS
  0
LAYER
  2
BASIS
 70
     0
 62
     6
  6
DASHDOT
  0
LAYER
  2
OUTLINE
 70
     0
 62
     3
  6
CONTINUOUS
  0
LAYER
  2
DETAIL
 70
     0
 62
     5
  6
CONTINUOUS
  0
LAYER
  2
ARRANGE
 70
     0
 62
     1
  6
CONTINUOUS
  0
LAYER
  2
DEFPOINTS
 70
     0
 62
     7
  6
CONTINUOUS
  0
LAYER
  2
ETC
 70
     0
 62
    61
  6
CONTINUOUS
  0
LAYER
  2
FIX
 70
     0
 62
    11
  6
CONTINUOUS
  0
LAYER
  2
NOTE
 70
     0
 62
     4
  6
CONTINUOUS
  0
LAYER
  2
SERVICESPACE
 70
     0
 62
     2
  6
DASHDOT
  0
LAYER
  2
SYMBOLLINE
 70
     0
 62
    15
  6
CONTINUOUS
  0
ENDTAB
  0
TABLE
  2
STYLE
 70
     2
  0
STYLE
  2
STANDARD
 70
     0
 40
64.0
 41
0.9
 50
0.0
 71
     0
 42
64.0
  3
SIMPLEX.shx
  4
BIGFONT.shx
  0
STYLE
  2
ANNOTATIVE
 70
     0
 40
0.0
 41
1.0
 50
0.0
 71
     0
 42
0.2
  3
txt
  4

  0
ENDTAB
  0
TABLE
  2
VIEW
 70
     1
  0
VIEW
  2
ALL
 70
     0
 40
4282.6198079999967
 10
0.0
 20
41.309903999999989
 41
5940.0
 11
0.0
 21
0.0
 31
1.0
 12
0.0
 22
0.0
 32
0.0
 42
50.0
 43
0.0
 44
0.0
 50
0.0
 71
     0
  0
ENDTAB
  0
TABLE
  2
UCS
 70
     0
  0
ENDTAB
  0
TABLE
  2
APPID
 70
     5
  0
APPID
  2
ACAD
 70
     0
  0
APPID
  2
ACADANNOTATIVE
 70
     0
  0
APPID
  2
ACAD_MLEADERVER
 70
     0
  0
APPID
  2
AUTOCAD_POSTSCRIPT_FIGURE
 70
     0
  0
APPID
  2
ACAD_EXEMPT_FROM_CAD_STANDARDS
 70
     0
  0
ENDTAB
  0
TABLE
  2
DIMSTYLE
 70
     2
  0
DIMSTYLE
  2
STANDARD
 70
     0
  3

  4

  5

  6

  7

 40
1.0
 41
0.18
 42
0.0625
 43
0.38
 44
0.18
 45
0.0
 46
0.0
 47
0.0
 48
0.0
140
0.18
141
0.09
142
0.0
143
25.399999999999999
144
1.0
145
0.0
146
1.0
147
0.09
 71
     0
 72
     0
 73
     1
 74
     1
 75
     0
 76
     0
 77
     0
 78
     0
170
     0
171
     2
172
     0
173
     0
174
     0
175
     0
176
     7
177
     7
178
     7
  0
DIMSTYLE
  2
ANNOTATIVE
 70
     0
  3

  4

  5

  6

  7

 40
1.0
 41
0.18
 42
0.0625
 43
0.38
 44
0.18
 45
0.0
 46
0.0
 47
0.0
 48
0.0
140
0.18
141
0.09
142
0.0
143
25.399999999999999
144
1.0
145
0.0
146
1.0
147
0.09
 71
     0
 72
     0
 73
     1
 74
     1
 75
     0
 76
     0
 77
     0
 78
     0
170
     0
171
     2
172
     0
173
     0
174
     0
175
     0
176
     0
177
     0
178
     0
  0
ENDTAB
  0
ENDSEC
  0
SECTION
  2
BLOCKS
  0
BLOCK
  8
0
  2
$MODEL_SPACE
 70
     0
 10
0.0
 20
0.0
 30
0.0
  3
$MODEL_SPACE
  1

  0
ENDBLK
  5
6BD
  8
0
  0
BLOCK
 67
     1
  8
0
  2
$PAPER_SPACE
 70
     0
 10
0.0
 20
0.0
 30
0.0
  3
$PAPER_SPACE
  1

  0
ENDBLK
  5
6B9
 67
     1
  8
0
  0
BLOCK
  8
0
  2
DOT1
 70
     0
 10
0.0
 20
0.0
 30
0.0
  3
DOT1
  1

  0
CIRCLE
  5
418
  8
SIZE
  6
CONTINUOUS
 62
     7
 10
0.0
 20
0.0
 30
0.0
 40
3.0
  0
ENDBLK
  5
419
  8
0
  0
BLOCK
  8
0
  2
_ORIGIN
 70
     0
 10
0.0
 20
0.0
 30
0.0
  3
_ORIGIN
  1

  0
CIRCLE
  5
41C
  8
0
  6
CONTINUOUS
 62
     7
 10
0.0
 20
0.0
 30
0.0
 40
0.5
  0
LINE
  5
41D
  8
0
  6
CONTINUOUS
 62
     7
 10
0.0
 20
0.0
 30
0.0
 11
-1.0
 21
0.0
 31
0.0
  0
ENDBLK
  5
41E
  8
0
  0
BLOCK
  8
0
 62
    30
  2
_NONE
 70
     0
 10
0.0
 20
0.0
 30
0.0
  3
_NONE
  1

  0
ENDBLK
  5
421
  8
0
 62
    30
  0
BLOCK
  8
0
 62
    30
  2
_OPEN30
 70
     0
 10
0.0
 20
0.0
 30
0.0
  3
_OPEN30
  1

  0
LINE
  5
424
  8
0
  6
BYBLOCK
 62
     0
 10
-1.0
 20
0.26794919
 30
0.0
 11
0.0
 21
0.0
 31
0.0
  0
LINE
  5
425
  8
0
  6
BYBLOCK
 62
     0
 10
0.0
 20
0.0
 30
0.0
 11
-1.0
 21
-0.26794919
 31
0.0
  0
LINE
  5
426
  8
0
  6
BYBLOCK
 62
     0
 10
0.0
 20
0.0
 30
0.0
 11
-1.0
 21
0.0
 31
0.0
  0
ENDBLK
  5
427
  8
0
 62
    30
  0
BLOCK
  8
0
 62
    30
  2
*D6
 70
     1
 10
0.0
 20
0.0
 30
0.0
  3
*D6
  1

  0
LINE
  5
42A
  8
SIZE
  6
CONTINUOUS
 10
-207.999999
 20
-340.0
 30
0.0
 11
-207.999999
 21
-854.20195640220834
 31
0.0
  0
LINE
  5
42B
  8
SIZE
  6
CONTINUOUS
 10
0.0000009999999988
 20
-720.0
 30
0.0
 11
0.0000009999999906
 21
-854.20195640220834
 31
0.0
  0
LINE
  5
42C
  8
SIZE
  6
CONTINUOUS
 10
-207.999999
 20
-834.20195640220845
 30
0.0
 11
0.0000009999999918
 21
-834.20195640220845
 31
0.0
  0
TEXT
  5
42D
  8
SIZE
  6
CONTINUOUS
 10
-178.0571418571428
 20
-809.20195640220845
 30
0.0
 40
64.0
  1
208
 41
0.9
  0
POINT
  5
42E
  8
DEFPOINTS
  6
CONTINUOUS
 62
     0
 10
-207.999999
 20
-320.0
 30
0.0
  0
POINT
  5
42F
  8
DEFPOINTS
  6
CONTINUOUS
 62
     0
 10
0.000001
 20
-700.0
 30
0.0
  0
POINT
  5
430
  8
DEFPOINTS
  6
CONTINUOUS
 62
     0
 10
0.0000009999999918
 20
-834.20195640220845
 30
0.0
  0
ENDBLK
  5
431
  8
0
 62
    30
  0
ENDSEC
  0
SECTION
  2
ENTITIES
  0
LINE
  5
432
  8
NOTE
  6
CONTINUOUS
 62
     4
 10
-191.23517453976541
 20
-335.15577567382923
 30
0.0
 11
-207.999999
 21
-300.0
 31
0.0
  0
LINE
  5
433
  8
NOTE
  6
CONTINUOUS
 62
     4
 10
-207.999999
 20
-300.0
 30
0.0
 11
-213.059962936776
 21
-335.9349295736863
 31
0.0
  0
LINE
  5
434
  8
NOTE
  6
CONTINUOUS
 62
     4
 10
-184.46964199999999
 20
-463.82716900000003
 30
0.0
 11
-207.60376755547799
 21
-300.0
 31
0.0
  0
LINE
  5
435
  8
NOTE
  6
CONTINUOUS
 62
     4
 10
-523.67343064404486
 20
135.0618196836385
 30
0.0
 11
-254.999999
 21
-300.0
 31
0.0
  0
LINE
  5
436
  8
NOTE
  6
CONTINUOUS
 62
     4
 10
-288.65481599999993
 20
-278.38164299999988
 30
0.0
 11
-254.999999
 21
-300.0
 31
0.0
  0
LINE
  5
437
  8
NOTE
  6
CONTINUOUS
 62
     4
 10
-254.999999
 20
-300.0
 30
0.0
 11
-268.40138697643658
 21
-261.13643532711808
 31
0.0
  0
LINE
  5
438
  8
NOTE
  6
CONTINUOUS
 62
     4
 10
3.7037589999999989
 20
-320.17184199999991
 30
0.0
 11
0.000001
 21
-360.0
 31
0.0
  0
LINE
  5
439
  8
NOTE
  6
CONTINUOUS
 62
     4
 10
0.000001
 20
-360.0
 30
0.0
 11
23.121628999999999
 21
-327.35968300000002
 31
0.0
  0
LINE
  5
43A
  8
NOTE
  6
CONTINUOUS
 62
     4
 10
0.000001
 20
-360.0
 30
0.0
 11
59.866495999999991
 21
-205.96904900000001
 31
0.0
  0
LINE
  5
43B
  8
NOTE
  6
CONTINUOUS
 62
     4
 10
59.866495999999991
 20
-205.96904900000001
 30
0.0
 11
324.31849899999992
 21
-205.96904900000001
 31
0.0
  0
TEXT
  5
43C
  8
NOTE
  6
CONTINUOUS
 62
     4
 10
76.038093000000003
 20
-184.05081699999991
 30
0.0
 40
64.0
  1
4-φ8
 41
0.9
  0
POINT
  5
43D
  8
ARRANGE
  6
CONTINUOUS
 62
     1
 10
0.0
 20
0.0
 30
0.0
  0
LINE
  5
43E
  8
DETAIL
  6
CONTINUOUS
 62
     5
 10
-219.999999
 20
-285.0
 30
0.0
 11
-69.999999000000003
 21
-285.0
 31
0.0
  0
TEXT
  5
43F
  8
NOTE
  6
CONTINUOUS
 62
     4
 10
-1140.432448
 20
170.683931
 30
0.0
 40
64.0
  1
AH 2×2-φ25
 41
0.9
  0
LINE
  5
440
  8
NOTE
  6
CONTINUOUS
 62
     4
 10
-184.46964199999999
 20
-463.82716900000003
 30
0.0
 11
-72.772870999999981
 21
-463.82716900000003
 31
0.0
  0
TEXT
  5
441
  8
NOTE
  6
CONTINUOUS
 62
     4
 10
-166.84125
 20
-443.51026899999988
 30
0.0
 40
64.0
  1
EL
 41
0.9
  0
LINE
  5
442
  8
DETAIL
  6
CONTINOUS
 62
     5
 10
-369.999999
 20
-700.0
 30
0.0
 11
-369.999999
 21
-300.0
 31
0.0
  0
LINE
  5
443
  8
BASIS
  6
DASHDOT
 62
     6
 10
-144.999999
 20
-320.65042799999992
 30
0.0
 11
-144.999999
 21
-209.12141800000001
 31
0.0
  0
LINE
  5
444
  8
DETAIL
  6
CONTINOUS
 62
     5
 10
-344.999999
 20
-300.0
 30
0.0
 11
-344.999999
 21
-100.0
 31
0.0
  0
LINE
  5
445
  8
DETAIL
  6
CONTINOUS
 62
     5
 10
-399.999999
 20
-300.0
 30
0.0
 11
-399.999999
 21
-100.0
 31
0.0
  0
LINE
  5
446
  8
DETAIL
  6
CONTINOUS
 62
     5
 10
-464.35512499999987
 20
-300.0
 30
0.0
 11
0.000001
 21
-300.0
 31
0.0
  0
LINE
  5
447
  8
DETAIL
  6
CONTINOUS
 62
     5
 10
0.000001
 20
-700.0
 30
0.0
 11
-372.95429100000001
 21
-700.0
 31
0.0
  0
LINE
  5
448
  8
DETAIL
  6
CONTINOUS
 62
     5
 10
0.000001
 20
-700.0
 30
0.0
 11
0.000001
 21
-300.0
 31
0.0
  0
ARC
  5
449
  8
DETAIL
  6
CONTINOUS
 62
     5
 10
-384.55407599999972
 20
-49.0
 30
0.0
 40
650.0
 50
248.35695200000001
 51
268.63835499999982
  0
LINE
  5
44A
  8
DETAIL
  6
CONTINOUS
 62
     5
 10
-646.21892700000001
 20
-559.31670099999997
 30
0.0
 11
-480.20377699999989
 21
-311.41966899999989
 31
0.0
  0
LINE
  5
44B
  8
DETAIL
  6
CONTINOUS
 62
     5
 10
-633.84268699999996
 20
-642.44387500000005
 30
0.0
 11
-649.999999
 21
-582.14396500000021
 31
0.0
  0
ARC
  5
44C
  8
DETAIL
  6
CONTINOUS
 62
     5
 10
-456.93892599999998
 20
-327.0
 30
0.0
 40
28.0
 50
105.358886
 51
146.19001799999981
  0
ARC
  5
44D
  8
DETAIL
  6
CONTINOUS
 62
     5
 10
-622.95407599999987
 20
-574.89703199999985
 30
0.0
 40
28.0
 50
146.19001799999981
 51
195.0
  0
ARC
  5
44E
  8
DETAIL
  6
CONTINOUS
 62
     5
 10
-618.3878739999999
 20
-638.30277000000001
 30
0.0
 40
16.0
 50
195.0
 51
248.35695200000001
  0
LINE
  5
44F
  8
DETAIL
  6
CONTINUOUS
 62
     5
 10
-55.499590000000012
 20
-297.0
 30
0.0
 11
-55.499590000000012
 21
-300.0
 31
0.0
  0
ARC
  5
450
  8
DETAIL
  6
CONTINUOUS
 62
     5
 10
-232.9995899999999
 20
-296.0
 30
0.0
 40
1.0
 50
90.0
 51
180.0
  0
LINE
  5
451
  8
DETAIL
  6
CONTINUOUS
 62
     5
 10
-218.9995899999999
 20
-245.0
 30
0.0
 11
-70.999589999999998
 21
-245.0
 31
0.0
  0
LINE
  5
452
  8
DETAIL
  6
CONTINUOUS
 62
     5
 10
-55.499590000000012
 20
-297.0
 30
0.0
 11
-55.499590000000012
 21
-296.0
 31
0.0
  0
LINE
  5
453
  8
DETAIL
  6
CONTINUOUS
 62
     5
 10
-56.499589999999991
 20
-295.0
 30
0.0
 11
-223.714664
 21
-295.0
 31
0.0
  0
ARC
  5
454
  8
DETAIL
  6
CONTINUOUS
 62
     5
 10
-56.499589999999991
 20
-296.0
 30
0.0
 40
1.0
 50
0.0
 51
90.0
  0
LINE
  5
455
  8
DETAIL
  6
CONTINUOUS
 62
     5
 10
-67.999589999999998
 20
-289.39999999999992
 30
0.0
 11
-67.999589999999998
 21
-286.64705900000001
 31
0.0
  0
LINE
  5
456
  8
DETAIL
  6
CONTINUOUS
 62
     5
 10
-70.999589999999998
 20
-283.97646999999989
 30
0.0
 11
-70.999589999999998
 21
-245.0
 31
0.0
  0
LINE
  5
457
  8
DETAIL
  6
CONTINUOUS
 62
     5
 10
-233.9995899999999
 20
-300.0
 30
0.0
 11
-233.9995899999999
 21
-296.0
 31
0.0
  0
LINE
  5
458
  8
DETAIL
  6
CONTINUOUS
 62
     5
 10
-223.714664
 20
-295.0
 30
0.0
 11
-232.9995899999999
 21
-295.0
 31
0.0
  0
ARC
  5
459
  8
DETAIL
  6
CONTINUOUS
 62
     5
 10
-69.999589999999998
 20
-283.97646999999989
 30
0.0
 40
1.0
 50
180.0
 51
262.84733099999988
  0
ARC
  5
45A
  8
DETAIL
  6
CONTINUOUS
 62
     5
 10
-69.599590000000006
 20
-286.64705900000001
 30
0.0
 40
1.6000000000000001
 50
0.0
 51
82.847331000000025
  0
LINE
  5
45B
  8
DETAIL
  6
CONTINUOUS
 62
     5
 10
-70.124104000000003
 20
-284.96868799999982
 30
0.0
 11
-69.400368999999984
 21
-285.05950999999982
 31
0.0
  0
ARC
  5
45C
  8
DETAIL
  6
CONTINUOUS
 62
     5
 10
-57.999590000000012
 20
-289.39999999999992
 30
0.0
 40
10.0
 50
180.0
 51
214.05579800000001
  0
LINE
  5
45D
  8
DETAIL
  6
CONTINUOUS
 62
     5
 10
-218.9995899999999
 20
-283.97646999999989
 30
0.0
 11
-218.9995899999999
 21
-245.0
 31
0.0
  0
LINE
  5
45E
  8
DETAIL
  6
CONTINUOUS
 62
     5
 10
-219.875077
 20
-284.96868799999982
 30
0.0
 11
-220.59881200000001
 21
-285.05950999999982
 31
0.0
  0
ARC
  5
45F
  8
DETAIL
  6
CONTINUOUS
 62
     5
 10
-219.9995899999999
 20
-283.97646999999989
 30
0.0
 40
1.0
 50
277.15266899999989
 51
0.0
  0
LINE
  5
460
  8
DETAIL
  6
CONTINUOUS
 62
     5
 10
-221.9995899999999
 20
-289.39999999999992
 30
0.0
 11
-221.9995899999999
 21
-286.64705900000001
 31
0.0
  0
ARC
  5
461
  8
DETAIL
  6
CONTINUOUS
 62
     5
 10
-231.9995899999999
 20
-289.39999999999992
 30
0.0
 40
10.0
 50
325.94420200000002
 51
0.0
  0
ARC
  5
462
  8
DETAIL
  6
CONTINUOUS
 62
     5
 10
-220.3995899999999
 20
-286.64705900000001
 30
0.0
 40
1.6000000000000001
 50
97.152669000000003
 51
180.0
  0
CIRCLE
  5
463
  8
ARRANGE
  6
CONTINUOUS
 62
     1
 10
0.0
 20
0.0
 30
0.0
 40
40.0
  0
LINE
  5
470
  8
NOTE
  6
CONTINUOUS
 62
     4
 10
0.000001
 20
-380.0
 30
0.0
 11
0.000001
 21
-340.0
 31
0.0
  0
LINE
  5
471
  8
NOTE
  6
CONTINUOUS
 62
     4
 10
-19.999998999999981
 20
-360.0
 30
0.0
 11
20.000001000000001
 21
-360.0
 31
0.0
  0
LINE
  5
472
  8
NOTE
  6
CONTINUOUS
 62
     4
 10
0.000001
 20
-615.0
 30
0.0
 11
0.000001
 21
-575.0
 31
0.0
  0
LINE
  5
473
  8
NOTE
  6
CONTINUOUS
 62
     4
 10
-19.999998999999981
 20
-595.0
 30
0.0
 11
20.000001000000001
 21
-595.0
 31
0.0
  0
LINE
  5
474
  8
NOTE
  6
CONTINUOUS
 62
     4
 10
-254.999999
 20
-320.0
 30
0.0
 11
-254.999999
 21
-280.0
 31
0.0
  0
LINE
  5
475
  8
NOTE
  6
CONTINUOUS
 62
     4
 10
-274.999999
 20
-300.0
 30
0.0
 11
-234.999999
 21
-300.0
 31
0.0
  0
LINE
  5
476
  8
NOTE
  6
CONTINUOUS
 62
     4
 10
-289.99999899999989
 20
-320.0
 30
0.0
 11
-289.99999899999989
 21
-280.0
 31
0.0
  0
LINE
  5
477
  8
NOTE
  6
CONTINUOUS
 62
     4
 10
-309.999999
 20
-300.0
 30
0.0
 11
-269.999999
 21
-300.0
 31
0.0
  0
LINE
  5
478
  8
NOTE
  6
CONTINUOUS
 62
     4
 10
-289.99999899999989
 20
-320.0
 30
0.0
 11
-289.99999899999989
 21
-280.0
 31
0.0
  0
LINE
  5
479
  8
NOTE
  6
CONTINUOUS
 62
     4
 10
-309.999999
 20
-300.0
 30
0.0
 11
-269.999999
 21
-300.0
 31
0.0
  0
CIRCLE
  5
47A
  8
FIX
  6
CONTINUOUS
 62
    11
 10
0.000001
 20
-360.0
 30
0.0
 40
4.0
  0
CIRCLE
  5
47B
  8
FIX
  6
CONTINUOUS
 62
    11
 10
0.000001
 20
-595.0
 30
0.0
 40
4.0
  0
CIRCLE
  5
47C
  8
FIX
  6
CONTINUOUS
 62
    11
 10
-289.99999899999989
 20
-300.0
 30
0.0
 40
12.5
  0
CIRCLE
  5
47D
  8
FIX
  6
CONTINUOUS
 62
    11
 10
-254.999999
 20
-300.0
 30
0.0
 40
12.5
  0
LINE
  5
47E
  8
BASIS
  6
DASHDOT
 62
     6
 10
-151.999999
 20
-313.65235699999999
 30
0.0
 11
-151.999999
 21
-221.53725399999999
 31
0.0
  0
LINE
  5
47F
  8
BASIS
  6
DASHDOT
 62
     6
 10
-144.999999
 20
-320.65042799999992
 30
0.0
 11
-144.999999
 21
-201.08692099999999
 31
0.0
  0
LINE
  5
480
  8
BASIS
  6
DASHDOT
 62
     6
 10
-137.99999899999969
 20
-313.65235699999999
 30
0.0
 11
-137.99999899999969
 21
-221.53725399999999
 31
0.0
  0
TEXT
  5
481
  8
NOTE
  6
CONTINUOUS
 62
     4
 10
-133.84905900000001
 20
66.962050000000005
 30
0.0
 40
64.0
  1
ダクト接続口可動寸法
 41
0.9
  0
TEXT
  5
482
  8
NOTE
  6
CONTINUOUS
 62
     4
 10
-197.04969600000001
 20
-185.4648949999999
 30
0.0
 40
64.0
  1
EA
 41
0.9
  0
LINE
  5
484
  8
DETAIL
  6
CONTINUOUS
 62
     5
 10
-372.95429100000001
 20
-700.0
 30
0.0
 11
-399.999999
 21
-698.81645400000002
 31
0.0
  0
LINE
  5
485
  8
SIZE
  6
CONTINUOUS
 62
    30
 10
-392.95429100000001
 20
-700.0
 30
0.0
 11
-892.30590500000005
 21
-700.0
 31
0.0
  0
LINE
  5
486
  8
SIZE
  6
CONTINUOUS
 62
    30
 10
-872.30590500000005
 20
-100.0
 30
0.0
 11
-872.30590500000005
 21
-688.0
 31
0.0
  0
CIRCLE
  5
487
  8
SIZE
  6
CONTINUOUS
 62
    30
 10
-872.30590500000005
 20
-700.0
 30
0.0
 40
6.0
  0
LINE
  5
488
  8
SIZE
  6
CONTINUOUS
 62
    30
 10
-872.30590500000005
 20
-700.0
 30
0.0
 11
-872.30590500000005
 21
-688.0
 31
0.0
  0
TEXT
  5
489
  8
SIZE
  6
CONTINUOUS
 62
    30
 10
-897.30590500000005
 20
-475.79252008268668
 30
0.0
 40
64.0
  1
600
 50
90.0
 41
0.9
 72
     1
 11
-897.30590500000005
 21
-401.7353772255438
 31
0.0
  0
LINE
  5
48B
  8
SIZE
  6
CONTINUOUS
 62
    30
 10
20.000001000000001
 20
-700.0
 30
0.0
 11
410.18732499999987
 21
-700.0
 31
0.0
  0
LINE
  5
48C
  8
SIZE
  6
CONTINUOUS
 62
    30
 10
40.000000999999997
 20
-360.0
 30
0.0
 11
410.18732499999987
 21
-360.0
 31
0.0
  0
LINE
  5
48D
  8
SIZE
  6
CONTINUOUS
 62
    30
 10
390.18732499999987
 20
-688.0
 30
0.0
 11
390.18732499999987
 21
-372.0
 31
0.0
  0
CIRCLE
  5
48E
  8
SIZE
  6
CONTINUOUS
 62
    30
 10
390.18732499999987
 20
-700.0
 30
0.0
 40
6.0
  0
LINE
  5
48F
  8
SIZE
  6
CONTINUOUS
 62
    30
 10
390.18732499999987
 20
-700.0
 30
0.0
 11
390.18732499999987
 21
-688.0
 31
0.0
  0
CIRCLE
  5
490
  8
SIZE
  6
CONTINUOUS
 62
    30
 10
390.18732499999987
 20
-360.0
 30
0.0
 40
6.0
  0
LINE
  5
491
  8
SIZE
  6
CONTINUOUS
 62
    30
 10
390.18732499999987
 20
-360.0
 30
0.0
 11
390.18732499999987
 21
-372.0
 31
0.0
  0
TEXT
  5
492
  8
SIZE
  6
CONTINUOUS
 62
    30
 10
365.18732499999987
 20
-604.05714285714282
 30
0.0
 40
64.0
  1
340
 50
90.0
 41
0.9
 72
     1
 11
365.18732499999987
 21
-530.0
 31
0.0
  0
LINE
  5
495
  8
SIZE
  6
CONTINUOUS
 62
    30
 10
20.000001000000001
 20
-700.0
 30
0.0
 11
275.94392599999992
 21
-700.0
 31
0.0
  0
LINE
  5
496
  8
SIZE
  6
CONTINUOUS
 62
    30
 10
40.000000999999997
 20
-595.0
 30
0.0
 11
275.94392599999992
 21
-595.0
 31
0.0
  0
LINE
  5
497
  8
SIZE
  6
CONTINUOUS
 62
    30
 10
255.94392599999989
 20
-688.0
 30
0.0
 11
255.94392599999989
 21
-607.0
 31
0.0
  0
LINE
  5
498
  8
SIZE
  6
CONTINUOUS
 62
    30
 10
255.94392599999989
 20
-906.56023799999991
 30
0.0
 11
255.94392599999989
 21
-700.0
 31
0.0
  0
TEXT
  5
499
  8
SIZE
  6
CONTINUOUS
 62
    30
 10
230.94392599999989
 20
-881.56023757142816
 30
0.0
 40
64.0
  1
105
 50
90.0
 41
0.9
 72
     1
 11
230.94392599999989
 21
-812.98880899999972
 31
0.0
  0
CIRCLE
  5
49A
  8
SIZE
  6
CONTINUOUS
 62
    30
 10
255.94392599999989
 20
-700.0
 30
0.0
 40
6.0
  0
LINE
  5
49B
  8
SIZE
  6
CONTINUOUS
 62
    30
 10
255.94392599999989
 20
-700.0
 30
0.0
 11
255.94392599999989
 21
-688.0
 31
0.0
  0
CIRCLE
  5
49C
  8
SIZE
  6
CONTINUOUS
 62
    30
 10
255.94392599999989
 20
-595.0
 30
0.0
 40
6.0
  0
LINE
  5
49D
  8
SIZE
  6
CONTINUOUS
 62
    30
 10
255.94392599999989
 20
-595.0
 30
0.0
 11
255.94392599999989
 21
-607.0
 31
0.0
  0
LINE
  5
4A0
  8
SIZE
  6
CONTINUOUS
 62
    30
 10
20.000001000000001
 20
-700.0
 30
0.0
 11
595.35245099999997
 21
-700.0
 31
0.0
  0
LINE
  5
4A1
  8
SIZE
  6
CONTINUOUS
 62
    30
 10
20.000001000000001
 20
-300.0
 30
0.0
 11
595.35245099999997
 21
-300.0
 31
0.0
  0
LINE
  5
4A2
  8
SIZE
  6
CONTINUOUS
 62
    30
 10
575.35245099999997
 20
-688.0
 30
0.0
 11
575.35245099999997
 21
-312.0
 31
0.0
  0
CIRCLE
  5
4A3
  8
SIZE
  6
CONTINUOUS
 62
    30
 10
575.35245099999997
 20
-700.0
 30
0.0
 40
6.0
  0
LINE
  5
4A4
  8
SIZE
  6
CONTINUOUS
 62
    30
 10
575.35245099999997
 20
-700.0
 30
0.0
 11
575.35245099999997
 21
-688.0
 31
0.0
  0
CIRCLE
  5
4A5
  8
SIZE
  6
CONTINUOUS
 62
    30
 10
575.35245099999997
 20
-300.0
 30
0.0
 40
6.0
  0
LINE
  5
4A6
  8
SIZE
  6
CONTINUOUS
 62
    30
 10
575.35245099999997
 20
-300.0
 30
0.0
 11
575.35245099999997
 21
-312.0
 31
0.0
  0
TEXT
  5
4A7
  8
SIZE
  6
CONTINUOUS
 62
    30
 10
550.35245099999997
 20
-574.05714285714282
 30
0.0
 40
64.0
  1
400
 50
90.0
 41
0.9
 72
     1
 11
550.35245099999997
 21
-500.0
 31
0.0
  0
LINE
  5
4A9
  8
SIZE
  6
CONTINUOUS
 62
    30
 10
20.000001000000001
 20
-300.0
 30
0.0
 11
595.35245099999997
 21
-300.0
 31
0.0
  0
LINE
  5
4AA
  8
SIZE
  6
CONTINUOUS
 62
    30
 10
-50.999590000000012
 20
-245.0
 30
0.0
 11
595.35245099999997
 21
-245.0
 31
0.0
  0
LINE
  5
4AB
  8
SIZE
  6
CONTINUOUS
 62
    30
 10
575.35245099999997
 20
-312.0
 30
0.0
 11
575.35245099999997
 21
-324.0
 31
0.0
  0
LINE
  5
4AC
  8
SIZE
  6
CONTINUOUS
 62
    30
 10
575.35245099999997
 20
-233.0
 30
0.0
 11
575.35245099999997
 21
-221.0
 31
0.0
  0
LINE
  5
4AD
  8
SIZE
  6
CONTINUOUS
 62
    30
 10
575.35245099999997
 20
23.049503999999999
 30
0.0
 11
575.35245099999997
 21
-245.0
 31
0.0
  0
TEXT
  5
4AE
  8
SIZE
  6
CONTINUOUS
 62
    30
 10
550.35245099999997
 20
-95.207639428571426
 30
0.0
 40
64.0
  1
55
 50
90.0
 41
0.9
 72
     1
 11
550.35245099999997
 21
-48.579067999999999
 31
0.0
  0
LINE
  5
4AF
  8
SIZE
  6
CONTINUOUS
 62
    30
 10
575.35245099999997
 20
-300.0
 30
0.0
 11
575.35245099999997
 21
-245.0
 31
0.0
  0
LINE
  5
4B0
  8
SIZE
  6
CONTINUOUS
 62
    30
 10
575.35245099999997
 20
-300.0
 30
0.0
 11
575.35245099999997
 21
-245.0
 31
0.0
  0
CIRCLE
  5
4B1
  8
SIZE
  6
CONTINUOUS
 62
    30
 10
575.35245099999997
 20
-300.0
 30
0.0
 40
6.0
  0
LINE
  5
4B2
  8
SIZE
  6
CONTINUOUS
 62
    30
 10
575.35245099999997
 20
-300.0
 30
0.0
 11
575.35245099999997
 21
-312.0
 31
0.0
  0
CIRCLE
  5
4B3
  8
SIZE
  6
CONTINUOUS
 62
    30
 10
575.35245099999997
 20
-245.0
 30
0.0
 40
6.0
  0
LINE
  5
4B4
  8
SIZE
  6
CONTINUOUS
 62
    30
 10
575.35245099999997
 20
-245.0
 30
0.0
 11
575.35245099999997
 21
-233.0
 31
0.0
  0
LINE
  5
4B5
  8
SIZE
  6
CONTINUOUS
 62
    30
 10
20.000001000000001
 20
-300.0
 30
0.0
 11
471.40994999999992
 21
-300.0
 31
0.0
  0
LINE
  5
4B6
  8
SIZE
  6
CONTINUOUS
 62
    30
 10
-49.999999000000003
 20
-285.0
 30
0.0
 11
471.40994999999992
 21
-285.0
 31
0.0
  0
LINE
  5
4B7
  8
SIZE
  6
CONTINUOUS
 62
    30
 10
451.40994999999992
 20
-312.0
 30
0.0
 11
451.40994999999992
 21
-324.0
 31
0.0
  0
LINE
  5
4B8
  8
SIZE
  6
CONTINUOUS
 62
    30
 10
451.40994999999992
 20
-273.0
 30
0.0
 11
451.40994999999992
 21
-261.0
 31
0.0
  0
LINE
  5
4B9
  8
SIZE
  6
CONTINUOUS
 62
    30
 10
451.40994999999992
 20
-113.435097
 30
0.0
 11
451.40994999999992
 21
-285.0
 31
0.0
  0
TEXT
  5
4BA
  8
SIZE
  6
CONTINUOUS
 62
    30
 10
426.40994999999992
 20
-220.72081114285709
 30
0.0
 40
64.0
  1
15
 50
90.0
 41
0.9
 72
     1
 11
426.40994999999992
 21
-179.57795400000001
 31
0.0
  0
LINE
  5
4BB
  8
SIZE
  6
CONTINUOUS
 62
    30
 10
451.40994999999992
 20
-300.0
 30
0.0
 11
451.40994999999992
 21
-285.0
 31
0.0
  0
LINE
  5
4BC
  8
SIZE
  6
CONTINUOUS
 62
    30
 10
451.40994999999992
 20
-300.0
 30
0.0
 11
451.40994999999992
 21
-285.0
 31
0.0
  0
CIRCLE
  5
4BD
  8
SIZE
  6
CONTINUOUS
 62
    30
 10
451.40994999999992
 20
-300.0
 30
0.0
 40
6.0
  0
LINE
  5
4BE
  8
SIZE
  6
CONTINUOUS
 62
    30
 10
451.40994999999992
 20
-300.0
 30
0.0
 11
451.40994999999992
 21
-312.0
 31
0.0
  0
CIRCLE
  5
4BF
  8
SIZE
  6
CONTINUOUS
 62
    30
 10
451.40994999999992
 20
-285.0
 30
0.0
 40
6.0
  0
LINE
  5
4C0
  8
SIZE
  6
CONTINUOUS
 62
    30
 10
451.40994999999992
 20
-285.0
 30
0.0
 11
451.40994999999992
 21
-273.0
 31
0.0
  0
LINE
  5
4C1
  8
SIZE
  6
CONTINUOUS
 62
    30
 10
0.000001
 20
-280.0
 30
0.0
 11
0.000001
 21
666.47351900000001
 31
0.0
  0
LINE
  5
4C2
  8
SIZE
  6
CONTINUOUS
 62
    30
 10
-399.999999
 20
-89.333651600476514
 30
0.0
 11
-399.999999
 21
666.47351900000001
 31
0.0
  0
LINE
  5
4C3
  8
SIZE
  6
CONTINUOUS
 62
    30
 10
0.000001
 20
646.47351899999978
 30
0.0
 11
-399.999999
 21
646.47351899999978
 31
0.0
  0
CIRCLE
  5
4C4
  8
SIZE
  6
CONTINUOUS
 62
    30
 10
0.000001
 20
646.47351899999978
 30
0.0
 40
6.0
  0
CIRCLE
  5
4C5
  8
SIZE
  6
CONTINUOUS
 62
    30
 10
-399.999999
 20
646.47351899999978
 30
0.0
 40
6.0
  0
TEXT
  5
4C6
  8
SIZE
  6
CONTINUOUS
 62
    30
 10
-390.90285614285722
 20
671.47351899999978
 30
0.0
 40
64.0
  1
400～450
 41
0.9
 72
     1
 11
-199.999999
 21
671.47351899999978
 31
0.0
  0
TEXT
  5
4C8
  8
SIZE
  6
CONTINUOUS
 62
    30
 10
-555.04200600000001
 20
553.53505199999995
 30
0.0
 40
64.0
  1
（350～375も可能）
 41
0.9
  0
LINE
  5
4C9
  8
SIZE
  6
CONTINUOUS
 62
    30
 10
0.000001
 20
-280.0
 30
0.0
 11
0.000001
 21
423.022783
 31
0.0
  0
LINE
  5
4CA
  8
SIZE
  6
CONTINUOUS
 62
    30
 10
-144.999999
 20
-181.0869209999999
 30
0.0
 11
-144.999999
 21
423.022783
 31
0.0
  0
LINE
  5
4CB
  8
SIZE
  6
CONTINUOUS
 62
    30
 10
0.000001
 20
403.022783
 30
0.0
 11
-144.999999
 21
403.022783
 31
0.0
  0
CIRCLE
  5
4CC
  8
SIZE
  6
CONTINUOUS
 62
    30
 10
0.000001
 20
403.022783
 30
0.0
 40
6.0
  0
CIRCLE
  5
4CD
  8
SIZE
  6
CONTINUOUS
 62
    30
 10
-144.999999
 20
403.022783
 30
0.0
 40
6.0
  0
TEXT
  5
4CE
  8
SIZE
  6
CONTINUOUS
 62
    30
 10
-141.0714275714285
 20
428.022783
 30
0.0
 40
64.0
  1
145
 41
0.9
 72
     1
 11
-72.499999000000003
 21
428.022783
 31
0.0
  0
LINE
  5
4D0
  8
SIZE
  6
CONTINUOUS
 62
    30
 10
-344.999999
 20
-83.100445335484437
 30
0.0
 11
-344.999999
 21
423.51239500000003
 31
0.0
  0
LINE
  5
4D1
  8
SIZE
  6
CONTINUOUS
 62
    30
 10
-399.999999
 20
20.0
 30
0.0
 11
-399.999999
 21
423.51239500000003
 31
0.0
  0
LINE
  5
4D2
  8
SIZE
  6
CONTINUOUS
 62
    30
 10
-332.999999
 20
403.51239500000003
 30
0.0
 11
-320.999999
 21
403.51239500000003
 31
0.0
  0
LINE
  5
4D3
  8
SIZE
  6
CONTINUOUS
 62
    30
 10
-411.999999
 20
403.51239500000003
 30
0.0
 11
-423.999999
 21
403.51239500000003
 31
0.0
  0
LINE
  5
4D4
  8
SIZE
  6
CONTINUOUS
 62
    30
 10
-580.25835800000004
 20
403.51239500000003
 30
0.0
 11
-399.999999
 21
403.51239500000003
 31
0.0
  0
TEXT
  5
4D5
  8
SIZE
  6
CONTINUOUS
 62
    30
 10
-555.25835842857146
 20
428.51239500000003
 30
0.0
 40
64.0
  1
55
 41
0.9
 72
     1
 11
-508.62978700000002
 21
428.51239500000003
 31
0.0
  0
LINE
  5
4D6
  8
SIZE
  6
CONTINUOUS
 62
    30
 10
-344.999999
 20
403.51239500000003
 30
0.0
 11
-399.999999
 21
403.51239500000003
 31
0.0
  0
LINE
  5
4D7
  8
SIZE
  6
CONTINUOUS
 62
    30
 10
-344.999999
 20
403.51239500000003
 30
0.0
 11
-399.999999
 21
403.51239500000003
 31
0.0
  0
CIRCLE
  5
4D8
  8
SIZE
  6
CONTINUOUS
 62
    30
 10
-344.999999
 20
403.51239500000003
 30
0.0
 40
6.0
  0
LINE
  5
4D9
  8
SIZE
  6
CONTINUOUS
 62
    30
 10
-344.999999
 20
403.51239500000003
 30
0.0
 11
-332.999999
 21
403.51239500000003
 31
0.0
  0
CIRCLE
  5
4DA
  8
SIZE
  6
CONTINUOUS
 62
    30
 10
-399.999999
 20
403.51239500000003
 30
0.0
 40
6.0
  0
LINE
  5
4DB
  8
SIZE
  6
CONTINUOUS
 62
    30
 10
-399.999999
 20
403.51239500000003
 30
0.0
 11
-411.999999
 21
403.51239500000003
 31
0.0
  0
LINE
  5
4DC
  8
SIZE
  6
CONTINUOUS
 62
    30
 10
-70.999589999999998
 20
-225.0
 30
0.0
 11
-70.999589999999998
 21
307.30102299999982
 31
0.0
  0
LINE
  5
4DD
  8
SIZE
  6
CONTINUOUS
 62
    30
 10
-218.9995899999999
 20
-225.0
 30
0.0
 11
-218.9995899999999
 21
307.30102299999982
 31
0.0
  0
LINE
  5
4DE
  8
SIZE
  6
CONTINUOUS
 62
    30
 10
-82.999589999999984
 20
287.30102299999982
 30
0.0
 11
-206.9995899999999
 21
287.30102299999982
 31
0.0
  0
LINE
  5
4DF
  8
SIZE
  6
CONTINUOUS
 62
    30
 10
233.879931
 20
287.30102299999982
 30
0.0
 11
-70.999589999999998
 21
287.30102299999982
 31
0.0
  0
TEXT
  5
4E0
  8
SIZE
  6
CONTINUOUS
 62
    30
 10
5.3599314285714419
 20
312.30102299999982
 30
0.0
 40
64.0
  1
φ148
 41
0.9
 72
     1
 11
114.25136000000001
 21
312.30102299999982
 31
0.0
  0
CIRCLE
  5
4E1
  8
SIZE
  6
CONTINUOUS
 62
    30
 10
-70.999589999999998
 20
287.30102299999982
 30
0.0
 40
6.0
  0
LINE
  5
4E2
  8
SIZE
  6
CONTINUOUS
 62
    30
 10
-70.999589999999998
 20
287.30102299999982
 30
0.0
 11
-82.999589999999984
 21
287.30102299999982
 31
0.0
  0
CIRCLE
  5
4E3
  8
SIZE
  6
CONTINUOUS
 62
    30
 10
-218.9995899999999
 20
287.30102299999982
 30
0.0
 40
6.0
  0
LINE
  5
4E4
  8
SIZE
  6
CONTINUOUS
 62
    30
 10
-218.9995899999999
 20
287.30102299999982
 30
0.0
 11
-206.9995899999999
 21
287.30102299999982
 31
0.0
  0
LINE
  5
4E5
  8
SIZE
  6
CONTINUOUS
 62
    30
 10
-137.99999899999969
 20
-201.5372539999999
 30
0.0
 11
-137.99999899999969
 21
175.87384
 31
0.0
  0
LINE
  5
4E6
  8
SIZE
  6
CONTINUOUS
 62
    30
 10
-151.999999
 20
-201.5372539999999
 30
0.0
 11
-151.999999
 21
175.87384
 31
0.0
  0
LINE
  5
4E7
  8
SIZE
  6
CONTINUOUS
 62
    30
 10
-125.999999
 20
155.87384
 30
0.0
 11
-113.9999989999999
 21
155.87384
 31
0.0
  0
LINE
  5
4E8
  8
SIZE
  6
CONTINUOUS
 62
    30
 10
-163.99999899999969
 20
155.87384
 30
0.0
 11
-175.999999
 21
155.87384
 31
0.0
  0
LINE
  5
4E9
  8
SIZE
  6
CONTINUOUS
 62
    30
 10
257.06537099999991
 20
155.87384
 30
0.0
 11
-137.99999899999969
 21
155.87384
 31
0.0
  0
TEXT
  5
4EA
  8
SIZE
  6
CONTINUOUS
 62
    30
 10
147.0367992857141
 20
180.87384
 30
0.0
 40
64.0
  1
14
 41
0.9
 72
     1
 11
189.5510849999998
 21
180.87384
 31
0.0
  0
LINE
  5
4EB
  8
SIZE
  6
CONTINUOUS
 62
    30
 10
-137.99999899999969
 20
155.87384
 30
0.0
 11
-151.999999
 21
155.87384
 31
0.0
  0
LINE
  5
4EC
  8
SIZE
  6
CONTINUOUS
 62
    30
 10
-137.99999899999969
 20
155.87384
 30
0.0
 11
-151.999999
 21
155.87384
 31
0.0
  0
CIRCLE
  5
4ED
  8
SIZE
  6
CONTINUOUS
 62
    30
 10
-137.99999899999969
 20
155.87384
 30
0.0
 40
6.0
  0
LINE
  5
4EE
  8
SIZE
  6
CONTINUOUS
 62
    30
 10
-137.99999899999969
 20
155.87384
 30
0.0
 11
-125.999999
 21
155.87384
 31
0.0
  0
CIRCLE
  5
4EF
  8
SIZE
  6
CONTINUOUS
 62
    30
 10
-151.999999
 20
155.87384
 30
0.0
 40
6.0
  0
LINE
  5
4F0
  8
SIZE
  6
CONTINUOUS
 62
    30
 10
-151.999999
 20
155.87384
 30
0.0
 11
-163.99999899999969
 21
155.87384
 31
0.0
  0
LINE
  5
4F3
  8
SIZE
  6
CONTINUOUS
 62
    30
 39
50.0
 10
257.06537099999991
 20
155.87384
 30
0.0
 11
561.19258300000001
 21
155.87384
 31
0.0
  0
LINE
  5
4F4
  8
SIZE
  6
CONTINUOUS
 62
    30
 10
0.000001
 20
-720.0
 30
0.0
 11
0.000001
 21
-1370.2578025558121
 31
0.0
  0
LINE
  5
4F5
  8
SIZE
  6
CONTINUOUS
 62
    30
 10
-649.999999
 20
-602.14396500000021
 30
0.0
 11
-649.999999
 21
-1370.2578025558121
 31
0.0
  0
LINE
  5
4F6
  8
SIZE
  6
CONTINUOUS
 62
    30
 10
-11.999999000000001
 20
-1334.3814342672299
 30
0.0
 11
-637.99999899999989
 21
-1334.3814342672299
 31
0.0
  0
CIRCLE
  5
4F7
  8
SIZE
  6
CONTINUOUS
 62
    30
 10
0.0000009999999975
 20
-1334.3814342672299
 30
0.0
 40
6.0
  0
LINE
  5
4F8
  8
SIZE
  6
CONTINUOUS
 62
    30
 10
0.0000009999999975
 20
-1334.3814342672299
 30
0.0
 11
-11.999999000000001
 21
-1334.3814342672299
 31
0.0
  0
CIRCLE
  5
4F9
  8
SIZE
  6
CONTINUOUS
 62
    30
 10
-649.999999
 20
-1334.3814342672299
 30
0.0
 40
6.0
  0
LINE
  5
4FA
  8
SIZE
  6
CONTINUOUS
 62
    30
 10
-649.999999
 20
-1334.3814342672299
 30
0.0
 11
-637.99999899999989
 21
-1334.3814342672299
 31
0.0
  0
TEXT
  5
4FB
  8
SIZE
  6
CONTINUOUS
 62
    30
 10
-399.05714185714282
 20
-1309.3814342672299
 30
0.0
 40
64.0
  1
650
 41
0.9
 72
     1
 11
-324.999999
 21
-1309.3814342672299
 31
0.0
  0
LINE
  5
4FE
  8
SIZE
  6
CONTINUOUS
 62
    30
 10
0.000001
 20
-720.0
 30
0.0
 11
0.000001
 21
-1094.512684
 31
0.0
  0
LINE
  5
4FF
  8
SIZE
  6
CONTINUOUS
 62
    30
 10
-369.999999
 20
-720.0
 30
0.0
 11
-369.999999
 21
-1226.8940310171381
 31
0.0
  0
LINE
  5
500
  8
SIZE
  6
CONTINUOUS
 62
    30
 10
-11.999999000000001
 20
-1202.29343926723
 30
0.0
 11
-357.999999
 21
-1202.29343926723
 31
0.0
  0
CIRCLE
  5
501
  8
SIZE
  6
CONTINUOUS
 62
    30
 10
0.0000009999999975
 20
-1202.29343926723
 30
0.0
 40
6.0
  0
LINE
  5
502
  8
SIZE
  6
CONTINUOUS
 62
    30
 10
0.0000009999999975
 20
-1202.29343926723
 30
0.0
 11
-11.999999000000001
 21
-1202.29343926723
 31
0.0
  0
CIRCLE
  5
503
  8
SIZE
  6
CONTINUOUS
 62
    30
 10
-369.999999
 20
-1202.29343926723
 30
0.0
 40
6.0
  0
LINE
  5
504
  8
SIZE
  6
CONTINUOUS
 62
    30
 10
-369.999999
 20
-1202.29343926723
 30
0.0
 11
-357.999999
 21
-1202.29343926723
 31
0.0
  0
TEXT
  5
505
  8
SIZE
  6
CONTINUOUS
 62
    30
 10
-259.05714185714282
 20
-1177.29343926723
 30
0.0
 40
64.0
  1
370
 41
0.9
 72
     1
 11
-184.999999
 21
-1177.29343926723
 31
0.0
  0
LINE
  5
508
  8
SIZE
  6
CONTINUOUS
 62
    30
 10
0.000001
 20
-720.0
 30
0.0
 11
0.000001
 21
-972.60021600000005
 31
0.0
  0
LINE
  5
509
  8
SIZE
  6
CONTINUOUS
 62
    30
 10
-289.99999899999989
 20
-340.0
 30
0.0
 11
-289.99999899999989
 21
-1108.4630893112781
 31
0.0
  0
LINE
  5
50A
  8
SIZE
  6
CONTINUOUS
 62
    30
 10
-11.999999000000001
 20
-1080.3809712672301
 30
0.0
 11
-277.99999899999972
 21
-1080.3809712672301
 31
0.0
  0
CIRCLE
  5
50B
  8
SIZE
  6
CONTINUOUS
 62
    30
 10
0.0000009999999975
 20
-1080.3809712672301
 30
0.0
 40
6.0
  0
LINE
  5
50C
  8
SIZE
  6
CONTINUOUS
 62
    30
 10
0.0000009999999975
 20
-1080.3809712672301
 30
0.0
 11
-11.999999000000001
 21
-1080.3809712672301
 31
0.0
  0
CIRCLE
  5
50D
  8
SIZE
  6
CONTINUOUS
 62
    30
 10
-289.99999899999989
 20
-1080.3809712672301
 30
0.0
 40
6.0
  0
LINE
  5
50E
  8
SIZE
  6
CONTINUOUS
 62
    30
 10
-289.99999899999989
 20
-1080.3809712672301
 30
0.0
 11
-277.99999899999972
 21
-1080.3809712672301
 31
0.0
  0
TEXT
  5
50F
  8
SIZE
  6
CONTINUOUS
 62
    30
 10
-219.0571418571428
 20
-1055.3809712672301
 30
0.0
 40
64.0
  1
290
 41
0.9
 72
     1
 11
-144.999999
 21
-1055.3809712672301
 31
0.0
  0
LINE
  5
512
  8
SIZE
  6
CONTINUOUS
 62
    30
 10
0.000001
 20
-720.0
 30
0.0
 11
0.000001
 21
-853.72500500000001
 31
0.0
  0
LINE
  5
513
  8
SIZE
  6
CONTINUOUS
 62
    30
 10
-254.999999
 20
-340.0
 30
0.0
 11
-254.999999
 21
-990.03214285728779
 31
0.0
  0
LINE
  5
514
  8
SIZE
  6
CONTINUOUS
 62
    30
 10
-11.999999000000001
 20
-961.50576026723024
 30
0.0
 11
-242.999999
 21
-961.50576026723024
 31
0.0
  0
CIRCLE
  5
515
  8
SIZE
  6
CONTINUOUS
 62
    30
 10
0.0000009999999975
 20
-961.50576026723024
 30
0.0
 40
6.0
  0
LINE
  5
516
  8
SIZE
  6
CONTINUOUS
 62
    30
 10
0.0000009999999975
 20
-961.50576026723024
 30
0.0
 11
-11.999999000000001
 21
-961.50576026723024
 31
0.0
  0
CIRCLE
  5
517
  8
SIZE
  6
CONTINUOUS
 62
    30
 10
-254.999999
 20
-961.50576026723024
 30
0.0
 40
6.0
  0
LINE
  5
518
  8
SIZE
  6
CONTINUOUS
 62
    30
 10
-254.999999
 20
-961.50576026723024
 30
0.0
 11
-242.999999
 21
-961.50576026723024
 31
0.0
  0
TEXT
  5
519
  8
SIZE
  6
CONTINUOUS
 62
    30
 10
-201.5571418571428
 20
-936.50576026723024
 30
0.0
 40
64.0
  1
255
 41
0.9
 72
     1
 11
-127.4999989999999
 21
-936.50576026723024
 31
0.0
  0
ARC
  5
51C
  8
DETAIL
  6
CONTINUOUS
 62
     5
 10
-649.5506059999999
 20
-597.34393599999999
 30
0.0
 40
0.5
 50
181.83616599999991
 51
195.000148
  0
ARC
  5
51D
  8
DETAIL
  6
CONTINUOUS
 62
     5
 10
-646.08210699999995
 20
-628.4487069999999
 30
0.0
 40
0.5
 50
216.03737000000001
 51
285.00014800000002
  0
ARC
  5
51E
  8
DETAIL
  6
CONTINUOUS
 62
     5
 10
-649.70560899999998
 20
-614.92575499999975
 30
0.0
 40
0.5
 50
105.0001479999999
 51
173.96292700000001
  0
ARC
  5
51F
  8
DETAIL
  6
CONTINUOUS
 62
     5
 10
-630.31375500000001
 20
-616.97660800000017
 30
0.0
 40
20.0
 50
173.96292700000001
 51
216.03737000000001
  0
ARC
  5
520
  8
DETAIL
  6
CONTINUOUS
 62
     5
 10
-618.79297400000019
 20
-619.95942200000002
 30
0.0
 40
25.0
 50
208.16412999999969
 51
222.64836099999991
  0
ARC
  5
521
  8
DETAIL
  6
CONTINUOUS
 62
     5
 10
-636.44558600000005
 20
-636.21935099999985
 30
0.0
 40
1.0
 50
222.64836099999991
 51
285.00014800000002
  0
ARC
  5
522
  8
DETAIL
  6
CONTINUOUS
 62
     5
 10
-640.39215299999978
 20
-631.52339600000005
 30
0.0
 40
0.5
 50
195.000148
 51
208.16412999999969
  0
LINE
  5
523
  8
DETAIL
  6
CONTINUOUS
 62
     5
 10
-640.87511500000005
 20
-631.65280700000017
 30
0.0
 11
-650.03356900000006
 21
-597.47334699999999
 31
0.0
  0
LINE
  5
524
  8
DETAIL
  6
CONTINUOUS
 62
     5
 10
-635.31421899999975
 20
-636.95147599999984
 30
0.0
 11
-636.18676500000004
 21
-637.18527599999982
 31
0.0
  0
LINE
  5
525
  8
DETAIL
  6
CONTINUOUS
 62
     5
 10
-641.89554599999985
 20
-627.84454800000003
 30
0.0
 11
-645.95269699999994
 21
-628.93166900000006
 31
0.0
  0
LINE
  5
526
  8
DETAIL
  6
CONTINUOUS
 62
     5
 10
-645.77786900000001
 20
-613.35567000000003
 30
0.0
 11
-649.83501999999987
 21
-614.44279200000005
 31
0.0
  0
LINE
  5
527
  8
DETAIL
  6
CONTINUOUS
 62
     5
 10
-648.73960899999975
 20
-590.33790599999975
 30
0.0
 11
-647.8670639999998
 21
-590.10410599999977
 31
0.0
  0
ARC
  5
528
  8
DETAIL
  6
CONTINUOUS
 62
     5
 10
-648.48078799999985
 20
-591.30383099999995
 30
0.0
 40
1.0
 50
105.0001479999999
 51
167.351935
  0
ARC
  5
529
  8
DETAIL
  6
CONTINUOUS
 62
     5
 10
-625.0631860000002
 20
-596.55891599999995
 30
0.0
 40
25.0
 50
167.351935
 51
181.83616599999991
  0
LINE
  5
52A
  8
NOTE
  6
CONTINUOUS
 62
     4
 10
-207.999999
 20
-320.0
 30
0.0
 11
-207.999999
 21
-280.0
 31
0.0
  0
LINE
  5
52B
  8
NOTE
  6
CONTINUOUS
 62
     4
 39
50.0
 10
-223.19289721633029
 20
-300.0
 30
0.0
 11
-192.01463789462559
 21
-300.0
 31
0.0
  0
CIRCLE
  5
52C
  8
SIZE
  6
CONTINUOUS
 62
    30
 39
50.0
 10
0.000001
 20
-834.20195640220845
 30
0.0
 40
6.0
  0
CIRCLE
  5
52D
  8
SIZE
  6
CONTINUOUS
 62
    30
 39
50.0
 10
-207.999999
 20
-834.20195640220845
 30
0.0
 40
6.0
  0
LINE
  5
52E
  8
SIZE
  6
CONTINUOUS
 10
-207.999999
 20
-340.0
 30
0.0
 11
-207.999999
 21
-854.20195640220834
 31
0.0
  0
LINE
  5
52F
  8
SIZE
  6
CONTINUOUS
 10
0.0000009999999988
 20
-720.0
 30
0.0
 11
0.0000009999999906
 21
-854.20195640220834
 31
0.0
  0
LINE
  5
530
  8
SIZE
  6
CONTINUOUS
 10
-207.999999
 20
-834.20195640220845
 30
0.0
 11
0.0000009999999918
 21
-834.20195640220845
 31
0.0
  0
TEXT
  5
531
  8
SIZE
  6
CONTINUOUS
 10
-178.0571418571428
 20
-809.20195640220845
 30
0.0
 40
64.0
  1
208
 41
0.9
  0
TEXT
  5
532
  8
ETC
  6
CONTINUOUS
 62
    61
 10
794.69733570420522
 20
529.39853439751175
 30
0.0
 40
50.0
  1
V-603K6-BL
 41
0.9
  0
TEXT
  5
533
  8
ETC
  6
CONTINUOUS
 62
    61
 10
792.12988908252828
 20
449.83879411586798
 30
0.0
 40
50.0
  1
V-604K6-BL
 41
0.9
  0
TEXT
  5
534
  8
ETC
  6
CONTINUOUS
 62
    61
 10
657.98282357684116
 20
719.44544725181186
 30
0.0
 40
64.0
  1
V-603K7-BL_4
 41
0.9
  0
TEXT
  5
535
  8
ETC
  6
CONTINUOUS
 62
    61
 10
662.52753057684095
 20
610.14281725181195
 30
0.0
 40
64.0
  1
換気扇
 41
0.9
  0
LINE
  5
536
  8
DETAIL
  6
CONTINOUS
 62
     5
 10
-399.999999
 20
-100.0
 30
0.0
 11
-344.999999
 21
-100.0
 31
0.0
  0
LINE
  5
537
  8
NOTE
  6
CONTINUOUS
 62
     4
 39
50.0
 10
-523.67343064404486
 20
135.0618196836385
 30
0.0
 11
-1159.710048445339
 21
135.0618196836385
 31
0.0
  0
LINE
  5
538
  8
SIZE
  6
CONTINUOUS
 62
    30
 39
50.0
 10
-420.78515545200571
 20
-100.0
 30
0.0
 11
-897.81261466520016
 21
-100.0
 31
0.0
  0
CIRCLE
  5
53A
  8
SIZE
  6
CONTINUOUS
 62
    30
 39
50.0
 10
-872.30590500000005
 20
-100.0
 30
0.0
 40
6.0
  0
ARC
  5
5BC
  8
OUTLINE
  6
CONTINOUS
 62
     3
 10
-384.55407599999961
 20
-49.0
 30
0.0
 40
650.0
 50
248.35695200000001
 51
268.63835499999982
  0
LINE
  5
5BD
  8
OUTLINE
  6
CONTINOUS
 62
     3
 10
0.0000010000001112
 20
-700.0
 30
0.0
 11
0.0000010000001112
 21
-300.0
 31
0.0
  0
LINE
  5
5BE
  8
OUTLINE
  6
CONTINOUS
 62
     3
 10
0.0000010000001112
 20
-700.0
 30
0.0
 11
-372.95429100000001
 21
-700.0
 31
0.0
  0
LINE
  5
5BF
  8
OUTLINE
  6
CONTINUOUS
 62
     3
 10
-372.95429100000001
 20
-700.0
 30
0.0
 11
-399.999999
 21
-698.81645400000002
 31
0.0
  0
LINE
  5
5C0
  8
OUTLINE
  6
CONTINOUS
 62
     3
 10
-424.99999899999989
 20
-300.0
 30
0.0
 11
0.0000010000001112
 21
-300.0
 31
0.0
  0
LINE
  5
5C1
  8
OUTLINE
  6
CONTINOUS
 62
     3
 10
-646.21892700000012
 20
-559.31670099999997
 30
0.0
 11
-480.20377699999989
 21
-311.41966899999989
 31
0.0
  0
LINE
  5
5C2
  8
OUTLINE
  6
CONTINOUS
 62
     3
 10
-633.84268700000007
 20
-642.44387500000005
 30
0.0
 11
-649.99999899999989
 21
-582.14396500000021
 31
0.0
  0
ARC
  5
5C3
  8
OUTLINE
  6
CONTINOUS
 62
     3
 10
-622.95407599999976
 20
-574.89703199999985
 30
0.0
 40
28.0
 50
146.19001799999981
 51
195.0
  0
ARC
  5
5C4
  8
OUTLINE
  6
CONTINOUS
 62
     3
 10
-618.38787399999978
 20
-638.30277000000001
 30
0.0
 40
16.0
 50
195.0
 51
248.35695200000001
  0
LINE
  5
5C5
  8
OUTLINE
  6
CONTINOUS
 62
     3
 10
-399.999999
 20
-300.0
 30
0.0
 11
-399.999999
 21
-100.0
 31
0.0
  0
LINE
  5
5C6
  8
OUTLINE
  6
CONTINOUS
 62
     3
 10
-344.99999899999978
 20
-300.0
 30
0.0
 11
-344.99999899999978
 21
-100.0
 31
0.0
  0
LINE
  5
5C7
  8
OUTLINE
  6
CONTINOUS
 62
     3
 10
-464.35512499999982
 20
-300.0
 30
0.0
 11
-399.999999
 21
-300.0
 31
0.0
  0
ARC
  5
5C8
  8
OUTLINE
  6
CONTINOUS
 62
     3
 10
-456.93892599999998
 20
-327.0
 30
0.0
 40
28.0
 50
105.358886
 51
146.19001799999981
  0
LINE
  5
5C9
  8
OUTLINE
  6
CONTINOUS
 62
     3
 10
-399.999999
 20
-100.0
 30
0.0
 11
-344.99999899999978
 21
-100.0
 31
0.0
  0
TEXT
  5
6E0
  8
ETC
  6
CONTINUOUS
 62
    61
 10
794.69733570420522
 20
377.58597734131661
 30
0.0
 40
50.0
  1
V-603K7-BL
 41
0.9
  0
TEXT
  5
6E1
  8
ETC
  6
CONTINUOUS
 62
    61
 10
792.12988908252828
 20
298.02623705967289
 30
0.0
 40
50.0
  1
V-604K7-BL
 41
0.9
  0
ENDSEC
  0
EOF
