  0
SECTION
  2
HEADER
  9
$ACADVER
  1
AC1009
  9
$INSBASE
 10
0.0
 20
0.0
 30
0.0
  9
$EXTMIN
 10
-1202.755721417205
 20
-982.77281606892745
 30
-0.0015257624927045
  9
$EXTMAX
 10
1606.544506871775
 20
897.53723982434894
 30
50.001525995323327
  9
$LIMMIN
 10
-2970.0
 20
-2100.0
  9
$LIMMAX
 10
2970.0
 20
2100.0
  9
$ORTHOMODE
 70
     1
  9
$REGENMODE
 70
     0
  9
$FILLMODE
 70
     1
  9
$QTEXTMODE
 70
     0
  9
$MIRRTEXT
 70
     0
  9
$DRAGMODE
 70
     2
  9
$LTSCALE
 40
20.0
  9
$OSMODE
 70
    32
  9
$ATTMODE
 70
     1
  9
$TEXTSIZE
 40
64.0
  9
$TRACEWID
 40
0.05
  9
$TEXTSTYLE
  7
STANDARD
  9
$CLAYER
  8
ETC
  9
$CELTYPE
  6
DASHDOT
  9
$CECOLOR
 62
     6
  9
$DIMSCALE
 40
1.0
  9
$DIMASZ
 40
12.0
  9
$DIMEXO
 40
20.0
  9
$DIMDLI
 40
200.0
  9
$DIMRND
 40
0.0
  9
$DIMDLE
 40
0.0
  9
$DIMEXE
 40
20.0
  9
$DIMTP
 40
0.0
  9
$DIMTM
 40
0.0
  9
$DIMTXT
 40
64.0
  9
$DIMCEN
 40
0.09
  9
$DIMTSZ
 40
0.0
  9
$DIMTOL
 70
     0
  9
$DIMLIM
 70
     0
  9
$DIMTIH
 70
     0
  9
$DIMTOH
 70
     0
  9
$DIMSE1
 70
     0
  9
$DIMSE2
 70
     0
  9
$DIMTAD
 70
     1
  9
$DIMZIN
 70
     8
  9
$DIMBLK
  1
NONE
  9
$DIMASO
 70
     1
  9
$DIMSHO
 70
     0
  9
$DIMPOST
  1

  9
$DIMAPOST
  1

  9
$DIMALT
 70
     0
  9
$DIMALTD
 70
     2
  9
$DIMALTF
 40
25.399999999999999
  9
$DIMLFAC
 40
1.0
  9
$DIMTOFL
 70
     1
  9
$DIMTVP
 40
0.0
  9
$DIMTIX
 70
     1
  9
$DIMSOXD
 70
     0
  9
$DIMSAH
 70
     0
  9
$DIMBLK1
  1
NONE
  9
$DIMBLK2
  1
ORIGIN
  9
$DIMSTYLE
  2
STANDARD
  9
$DIMCLRD
 70
   256
  9
$DIMCLRE
 70
   256
  9
$DIMCLRT
 70
   256
  9
$DIMTFAC
 40
1.0
  9
$DIMGAP
 40
25.0
  9
$LUNITS
 70
     2
  9
$LUPREC
 70
     4
  9
$SKETCHINC
 40
0.1
  9
$FILLETRAD
 40
4.0
  9
$AUNITS
 70
     1
  9
$AUPREC
 70
     3
  9
$MENU
  1
ACAD
  9
$ELEVATION
 40
0.0
  9
$PELEVATION
 40
0.0
  9
$THICKNESS
 40
50.0
  9
$LIMCHECK
 70
     0
  9
$BLIPMODE
 70
     0
  9
$CHAMFERA
 40
0.0
  9
$CHAMFERB
 40
0.0
  9
$SKPOLY
 70
     0
  9
$TDCREATE
 40
2453090.592490891
  9
$TDUPDATE
 40
2454743.5731263189
  9
$TDINDWG
 40
0.2139330787
  9
$TDUSRTIMER
 40
0.2139327199
  9
$USRTIMER
 70
     1
  9
$ANGBASE
 50
0.0
  9
$ANGDIR
 70
     0
  9
$PDMODE
 70
     3
  9
$PDSIZE
 40
-2.0
  9
$PLINEWID
 40
0.0
  9
$COORDS
 70
     1
  9
$SPLFRAME
 70
     0
  9
$SPLINETYPE
 70
     6
  9
$SPLINESEGS
 70
     8
  9
$ATTDIA
 70
     0
  9
$ATTREQ
 70
     1
  9
$HANDLING
 70
     1
  9
$HANDSEED
  5
862
  9
$SURFTAB1
 70
     6
  9
$SURFTAB2
 70
     6
  9
$SURFTYPE
 70
     6
  9
$SURFU
 70
     6
  9
$SURFV
 70
     6
  9
$UCSNAME
  2

  9
$UCSORG
 10
0.0
 20
0.0
 30
0.0
  9
$UCSXDIR
 10
1.0
 20
0.0
 30
0.0
  9
$UCSYDIR
 10
0.0
 20
1.0
 30
0.0
  9
$PUCSNAME
  2

  9
$PUCSORG
 10
0.0
 20
0.0
 30
0.0
  9
$PUCSXDIR
 10
1.0
 20
0.0
 30
0.0
  9
$PUCSYDIR
 10
0.0
 20
1.0
 30
0.0
  9
$USERI1
 70
     0
  9
$USERI2
 70
     0
  9
$USERI3
 70
     0
  9
$USERI4
 70
     0
  9
$USERI5
 70
     0
  9
$USERR1
 40
20.0
  9
$USERR2
 40
0.0
  9
$USERR3
 40
0.0
  9
$USERR4
 40
0.0
  9
$USERR5
 40
0.0
  9
$WORLDVIEW
 70
     1
  9
$SHADEDGE
 70
     3
  9
$SHADEDIF
 70
    70
  9
$TILEMODE
 70
     1
  9
$MAXACTVP
 70
    48
  9
$PLIMCHECK
 70
     0
  9
$PEXTMIN
 10
-1.0000000000000000E+020
 20
-1.0000000000000000E+020
 30
-1.0000000000000000E+020
  9
$PEXTMAX
 10
1.0000000000000000E+020
 20
1.0000000000000000E+020
 30
1.0000000000000000E+020
  9
$PLIMMIN
 10
0.0
 20
0.0
  9
$PLIMMAX
 10
12.0
 20
9.0
  9
$UNITMODE
 70
     0
  9
$VISRETAIN
 70
     0
  9
$PLINEGEN
 70
     0
  9
$PSLTSCALE
 70
     0
  0
ENDSEC
  0
SECTION
  2
TABLES
  0
TABLE
  2
VPORT
 70
     1
  0
VPORT
  2
*ACTIVE
 70
     0
 10
0.0
 20
0.0
 11
1.0
 21
1.0
 12
353.59049058611981
 22
-115.24224378460551
 13
0.0
 23
0.0
 14
1.0
 24
1.0
 15
0.0
 25
0.0
 16
0.0
 26
0.0
 36
1.0
 17
0.0
 27
0.0
 37
0.0
 40
2124.608367509742
 41
1.8033946251768029
 42
50.0
 43
0.0
 44
0.0
 50
0.0
 51
0.0
 71
     0
 72
  1000
 73
     1
 74
     0
 75
     0
 76
     0
 77
     0
 78
     0
  0
ENDTAB
  0
TABLE
  2
LTYPE
 70
     4
  0
LTYPE
  2
CONTINUOUS
 70
     0
  3
実線
 72
    65
 73
     0
 40
0.0
  0
LTYPE
  2
DASHDOT
 70
     0
  3
____ _ ____ _ ____ _ ____ _ ____ _ ____ _ ____
 72
    65
 73
     4
 40
5.5
 49
4.0
 49
-0.6
 49
0.3
 49
-0.6
  0
LTYPE
  2
CONTINOUS
 70
     0
  3
Solid line
 72
    65
 73
     0
 40
0.0
  0
ENDTAB
  0
TABLE
  2
LAYER
 70
    12
  0
LAYER
  2
0
 70
     0
 62
     7
  6
CONTINUOUS
  0
LAYER
  2
BASIS
 70
     0
 62
     6
  6
DASHDOT
  0
LAYER
  2
SIZE
 70
     0
 62
    30
  6
CONTINUOUS
  0
LAYER
  2
OUTLINE
 70
     0
 62
     3
  6
CONTINUOUS
  0
LAYER
  2
DETAIL
 70
     0
 62
     5
  6
CONTINUOUS
  0
LAYER
  2
ARRANGE
 70
     0
 62
     1
  6
CONTINUOUS
  0
LAYER
  2
DEFPOINTS
 70
     0
 62
     7
  6
CONTINUOUS
  0
LAYER
  2
ETC
 70
     0
 62
    61
  6
CONTINUOUS
  0
LAYER
  2
FIX
 70
     0
 62
    11
  6
CONTINUOUS
  0
LAYER
  2
NOTE
 70
     0
 62
     4
  6
CONTINUOUS
  0
LAYER
  2
SERVICESPACE
 70
     0
 62
     2
  6
DASHDOT
  0
LAYER
  2
SYMBOLLINE
 70
     0
 62
    15
  6
CONTINUOUS
  0
ENDTAB
  0
TABLE
  2
STYLE
 70
     2
  0
STYLE
  2
STANDARD
 70
     0
 40
64.0
 41
0.9
 50
0.0
 71
     0
 42
64.0
  3
SIMPLEX.shx
  4
BIGFONT.shx
  0
STYLE
  2
ANNOTATIVE
 70
     0
 40
0.0
 41
1.0
 50
0.0
 71
     0
 42
0.2
  3
txt
  4

  0
ENDTAB
  0
TABLE
  2
VIEW
 70
     1
  0
VIEW
  2
ALL
 70
     0
 40
4282.6198079999967
 10
0.0
 20
41.309903999999989
 41
5940.0
 11
0.0
 21
0.0
 31
1.0
 12
0.0
 22
0.0
 32
0.0
 42
50.0
 43
0.0
 44
0.0
 50
0.0
 71
     0
  0
ENDTAB
  0
TABLE
  2
UCS
 70
     0
  0
ENDTAB
  0
TABLE
  2
APPID
 70
     5
  0
APPID
  2
ACAD
 70
     0
  0
APPID
  2
ACADANNOTATIVE
 70
     0
  0
APPID
  2
ACAD_MLEADERVER
 70
     0
  0
APPID
  2
AUTOCAD_POSTSCRIPT_FIGURE
 70
     0
  0
APPID
  2
ACAD_EXEMPT_FROM_CAD_STANDARDS
 70
     0
  0
ENDTAB
  0
TABLE
  2
DIMSTYLE
 70
     2
  0
DIMSTYLE
  2
STANDARD
 70
     0
  3

  4

  5

  6

  7

 40
1.0
 41
0.18
 42
0.0625
 43
0.38
 44
0.18
 45
0.0
 46
0.0
 47
0.0
 48
0.0
140
0.18
141
0.09
142
0.0
143
25.399999999999999
144
1.0
145
0.0
146
1.0
147
0.09
 71
     0
 72
     0
 73
     1
 74
     1
 75
     0
 76
     0
 77
     0
 78
     0
170
     0
171
     2
172
     0
173
     0
174
     0
175
     0
176
     7
177
     7
178
     7
  0
DIMSTYLE
  2
ANNOTATIVE
 70
     0
  3

  4

  5

  6

  7

 40
1.0
 41
0.18
 42
0.0625
 43
0.38
 44
0.18
 45
0.0
 46
0.0
 47
0.0
 48
0.0
140
0.18
141
0.09
142
0.0
143
25.399999999999999
144
1.0
145
0.0
146
1.0
147
0.09
 71
     0
 72
     0
 73
     1
 74
     1
 75
     0
 76
     0
 77
     0
 78
     0
170
     0
171
     2
172
     0
173
     0
174
     0
175
     0
176
     0
177
     0
178
     0
  0
ENDTAB
  0
ENDSEC
  0
SECTION
  2
BLOCKS
  0
BLOCK
  8
0
  2
$MODEL_SPACE
 70
     0
 10
0.0
 20
0.0
 30
0.0
  3
$MODEL_SPACE
  1

  0
ENDBLK
  5
7FF
  8
0
  0
BLOCK
 67
     1
  8
0
  2
$PAPER_SPACE
 70
     0
 10
0.0
 20
0.0
 30
0.0
  3
$PAPER_SPACE
  1

  0
ENDBLK
  5
7FB
 67
     1
  8
0
  0
BLOCK
  8
0
  2
DOT1
 70
     0
 10
0.0
 20
0.0
 30
0.0
  3
DOT1
  1

  0
CIRCLE
  5
585
  8
SIZE
  6
CONTINUOUS
 62
     7
 10
0.0
 20
0.0
 30
0.0
 40
3.0
  0
ENDBLK
  5
586
  8
0
  0
BLOCK
  8
0
  2
_ORIGIN
 70
     0
 10
0.0
 20
0.0
 30
0.0
  3
_ORIGIN
  1

  0
CIRCLE
  5
589
  8
0
  6
CONTINUOUS
 62
     7
 10
0.0
 20
0.0
 30
0.0
 40
0.5
  0
LINE
  5
58A
  8
0
  6
CONTINUOUS
 62
     7
 10
0.0
 20
0.0
 30
0.0
 11
-1.0
 21
0.0
 31
0.0
  0
ENDBLK
  5
58B
  8
0
  0
BLOCK
  8
0
 62
    30
  2
_NONE
 70
     0
 10
0.0
 20
0.0
 30
0.0
  3
_NONE
  1

  0
ENDBLK
  5
58E
  8
0
 62
    30
  0
BLOCK
  8
0
 62
    30
  2
_OPEN30
 70
     0
 10
0.0
 20
0.0
 30
0.0
  3
_OPEN30
  1

  0
LINE
  5
591
  8
0
  6
BYBLOCK
 62
     0
 10
-1.0
 20
0.26794919
 30
0.0
 11
0.0
 21
0.0
 31
0.0
  0
LINE
  5
592
  8
0
  6
BYBLOCK
 62
     0
 10
0.0
 20
0.0
 30
0.0
 11
-1.0
 21
-0.26794919
 31
0.0
  0
LINE
  5
593
  8
0
  6
BYBLOCK
 62
     0
 10
0.0
 20
0.0
 30
0.0
 11
-1.0
 21
0.0
 31
0.0
  0
ENDBLK
  5
594
  8
0
 62
    30
  0
BLOCK
  8
0
 62
    30
  2
*D6
 70
     1
 10
0.0
 20
0.0
 30
0.0
  3
*D6
  1

  0
LINE
  5
597
  8
SIZE
  6
CONTINUOUS
 10
300.0
 20
20.0
 30
0.0
 11
300.0
 21
313.5876272127507
 31
0.0
  0
LINE
  5
598
  8
SIZE
  6
CONTINUOUS
 10
186.0
 20
-168.0
 30
0.0
 11
186.0
 21
313.5876272127507
 31
0.0
  0
LINE
  5
599
  8
SIZE
  6
CONTINUOUS
 10
186.0
 20
293.5876272127507
 30
0.0
 11
300.0
 21
293.5876272127507
 31
0.0
  0
LINE
  5
59A
  8
SIZE
  6
CONTINUOUS
 10
300.0
 20
293.5876272127507
 30
0.0
 11
490.9142857142856
 21
293.5876272127507
 31
0.0
  0
TEXT
  5
59B
  8
SIZE
  6
CONTINUOUS
 10
337.0
 20
318.5876272127507
 30
0.0
 40
64.0
  1
114
 41
0.9
  0
POINT
  5
59C
  8
DEFPOINTS
  6
CONTINUOUS
 62
     0
 10
300.0
 20
0.0
 30
0.0
  0
POINT
  5
59D
  8
DEFPOINTS
  6
CONTINUOUS
 62
     0
 10
186.0
 20
-188.0
 30
0.0
  0
POINT
  5
59E
  8
DEFPOINTS
  6
CONTINUOUS
 62
     0
 10
186.0
 20
293.5876272127507
 30
0.0
  0
ENDBLK
  5
59F
  8
0
 62
    30
  0
BLOCK
  8
0
 62
    30
  2
*D7
 70
     1
 10
0.0
 20
0.0
 30
0.0
  3
*D7
  1

  0
LINE
  5
5A2
  8
SIZE
  6
CONTINUOUS
 10
186.0
 20
-148.0
 30
0.0
 11
186.0
 21
313.5876272127507
 31
0.0
  0
LINE
  5
5A3
  8
SIZE
  6
CONTINUOUS
 10
157.0
 20
-168.0
 30
0.0
 11
157.0
 21
313.5876272127507
 31
0.0
  0
LINE
  5
5A4
  8
SIZE
  6
CONTINUOUS
 10
186.0
 20
293.5876272127507
 30
0.0
 11
198.0
 21
293.5876272127507
 31
0.0
  0
LINE
  5
5A5
  8
SIZE
  6
CONTINUOUS
 10
157.0
 20
293.5876272127507
 30
0.0
 11
145.0
 21
293.5876272127507
 31
0.0
  0
LINE
  5
5A6
  8
SIZE
  6
CONTINUOUS
 10
186.0
 20
293.5876272127507
 30
0.0
 11
157.0
 21
293.5876272127507
 31
0.0
  0
TEXT
  5
5A7
  8
SIZE
  6
CONTINUOUS
 10
126.2428571428571
 20
318.5876272127507
 30
0.0
 40
64.0
  1
29
 41
0.9
  0
POINT
  5
5A8
  8
DEFPOINTS
  6
CONTINUOUS
 62
     0
 10
186.0
 20
-168.0
 30
0.0
  0
POINT
  5
5A9
  8
DEFPOINTS
  6
CONTINUOUS
 62
     0
 10
157.0
 20
-188.0
 30
0.0
  0
POINT
  5
5AA
  8
DEFPOINTS
  6
CONTINUOUS
 62
     0
 10
157.0
 20
293.5876272127507
 30
0.0
  0
ENDBLK
  5
5AB
  8
0
 62
    30
  0
BLOCK
  8
0
 62
    30
  2
*D8
 70
     1
 10
0.0
 20
0.0
 30
0.0
  3
*D8
  1

  0
LINE
  5
5AE
  8
SIZE
  6
CONTINUOUS
 10
340.0
 20
-0.0000000000000057
 30
0.0
 11
608.66090975136842
 21
-0.0000000000000818
 31
0.0
  0
LINE
  5
5AF
  8
SIZE
  6
CONTINUOUS
 10
227.0
 20
-208.0
 30
0.0
 11
608.66090975136842
 21
-208.0
 31
0.0
  0
LINE
  5
5B0
  8
SIZE
  6
CONTINUOUS
 10
588.66090975136842
 20
-0.0000000000000761
 30
0.0
 11
588.66090975136842
 21
-208.0
 31
0.0
  0
TEXT
  5
5B1
  8
SIZE
  6
CONTINUOUS
 10
563.66090975136842
 20
-178.05714285714279
 30
0.0
 40
64.0
  1
208
 50
90.0
 41
0.9
  0
POINT
  5
5B2
  8
DEFPOINTS
  6
CONTINUOUS
 62
     0
 10
320.0
 20
0.0
 30
0.0
  0
POINT
  5
5B3
  8
DEFPOINTS
  6
CONTINUOUS
 62
     0
 10
207.0
 20
-208.0
 30
0.0
  0
POINT
  5
5B4
  8
DEFPOINTS
  6
CONTINUOUS
 62
     0
 10
588.66090975136842
 20
-208.0
 30
0.0
  0
ENDBLK
  5
5B5
  8
0
 62
    30
  0
ENDSEC
  0
SECTION
  2
ENTITIES
  0
TEXT
  5
5B6
  8
NOTE
  6
CONTINUOUS
 62
     4
 10
110.8065789999999
 20
-566.02618799999982
 30
0.0
 40
64.0
  1
EL
 41
0.9
  0
LINE
  5
5B7
  8
NOTE
  6
CONTINUOUS
 62
     4
 10
45.173470999999999
 20
-595.13905999999963
 30
0.0
 11
217.39174800000001
 21
-595.13905999999963
 31
0.0
  0
CIRCLE
  5
5B8
  8
DETAIL
  6
CONTINUOUS
 62
     5
 10
0.0
 20
-145.0
 30
0.0
 40
74.0
  0
LINE
  5
5B9
  8
BASIS
  6
DASHDOT
 62
     6
 10
0.0
 20
-714.60153800000001
 30
0.0
 11
0.0
 21
48.397177999999982
 31
0.0
  0
LINE
  5
5BA
  8
DETAIL
  6
CONTINOUS
 62
     5
 10
300.0
 20
0.0
 30
0.0
 11
300.0
 21
-640.0
 31
0.0
  0
LINE
  5
5BB
  8
DETAIL
  6
CONTINOUS
 62
     5
 10
279.99878499999988
 20
-648.0
 30
0.0
 11
292.0
 21
-648.0
 31
0.0
  0
ARC
  5
5BC
  8
DETAIL
  6
CONTINOUS
 62
     5
 10
-292.0
 20
-640.0
 30
0.0
 40
8.0
 50
180.0
 51
270.0
  0
LINE
  5
5BD
  8
DETAIL
  6
CONTINOUS
 62
     5
 10
279.99878499999988
 20
-648.0
 30
0.0
 11
279.99878499999988
 21
-650.0
 31
0.0
  0
ARC
  5
5BE
  8
DETAIL
  6
CONTINOUS
 62
     5
 10
292.0
 20
-640.0
 30
0.0
 40
8.0
 50
270.0
 51
0.0
  0
LINE
  5
5BF
  8
DETAIL
  6
CONTINOUS
 62
     5
 10
-292.0
 20
-648.0
 30
0.0
 11
-280.001215
 21
-648.0
 31
0.0
  0
LINE
  5
5C0
  8
DETAIL
  6
CONTINOUS
 62
     5
 10
-285.0
 20
-345.0
 30
0.0
 11
-285.0
 21
-384.39999999999992
 31
0.0
  0
LINE
  5
5C1
  8
DETAIL
  6
CONTINOUS
 62
     5
 10
-280.001215
 20
-650.0
 30
0.0
 11
279.99878499999988
 21
-650.0
 31
0.0
  0
LINE
  5
5C2
  8
DETAIL
  6
CONTINOUS
 62
     5
 10
-300.0
 20
0.0
 30
0.0
 11
-300.0
 21
-640.0
 31
0.0
  0
LINE
  5
5C3
  8
DETAIL
  6
CONTINOUS
 62
     5
 10
-300.0
 20
0.0
 30
0.0
 11
-74.0
 21
0.0
 31
0.0
  0
LINE
  5
5C4
  8
BASIS
  6
DASHDOT
 62
     6
 10
102.20353399999991
 20
-145.0
 30
0.0
 11
-100.797011
 21
-145.0
 31
0.0
  0
LINE
  5
5C5
  8
NOTE
  6
CONTINUOUS
 62
     4
 10
220.0
 20
0.0
 30
0.0
 11
260.0
 21
0.0
 31
0.0
  0
LINE
  5
5C6
  8
DETAIL
  6
CONTINUOUS
 62
     5
 10
120.0
 20
-54.0
 30
0.0
 11
-120.0
 21
-54.0
 31
0.0
  0
LINE
  5
5C7
  8
DETAIL
  6
CONTINUOUS
 62
     5
 10
-120.0
 20
-236.0
 30
0.0
 11
120.0
 21
-236.0
 31
0.0
  0
CIRCLE
  5
5C8
  8
DETAIL
  6
CONTINUOUS
 62
     5
 10
0.0
 20
-145.0
 30
0.0
 40
84.0
  0
LINE
  5
5C9
  8
DETAIL
  6
CONTINOUS
 62
     5
 10
-74.0
 20
0.0
 30
0.0
 11
300.0
 21
0.0
 31
0.0
  0
CIRCLE
  5
5CA
  8
FIX
  6
CONTINUOUS
 62
    11
 10
-240.0
 20
-255.0
 30
0.0
 40
12.5
  0
LINE
  5
5CB
  8
NOTE
  6
CONTINUOUS
 62
     4
 10
-240.0
 20
-275.0
 30
0.0
 11
-240.0
 21
-235.0
 31
0.0
  0
LINE
  5
5CC
  8
NOTE
  6
CONTINUOUS
 62
     4
 10
-260.0
 20
-255.0
 30
0.0
 11
-220.0
 21
-255.0
 31
0.0
  0
CIRCLE
  5
5CD
  8
DETAIL
  6
CONTINUOUS
 62
     5
 10
-240.0
 20
-255.0
 30
0.0
 40
12.5
  0
CIRCLE
  5
5CE
  8
DETAIL
  6
CONTINUOUS
 62
     5
 10
240.0
 20
-255.0
 30
0.0
 40
12.5
  0
LINE
  5
5CF
  8
NOTE
  6
CONTINUOUS
 62
     4
 10
240.0
 20
-275.0
 30
0.0
 11
240.0
 21
-235.0
 31
0.0
  0
LINE
  5
5D0
  8
NOTE
  6
CONTINUOUS
 62
     4
 10
260.0
 20
-255.0
 30
0.0
 11
220.0
 21
-255.0
 31
0.0
  0
CIRCLE
  5
5D1
  8
FIX
  6
CONTINUOUS
 62
    11
 10
240.0
 20
-255.0
 30
0.0
 40
12.5
  0
TEXT
  5
5D2
  8
NOTE
  6
CONTINUOUS
 62
     4
 10
489.79940800000003
 20
-691.11462200000005
 30
0.0
 40
64.0
  1
AH 2×2-φ25
 41
0.9
  0
LINE
  5
5D3
  8
NOTE
  6
CONTINUOUS
 62
     4
 10
458.68248399999999
 20
-725.14917800000001
 30
0.0
 11
1067.758478999998
 21
-725.14917800000001
 31
0.0
  0
LINE
  5
5D4
  8
BASIS
  6
DASHDOT
 62
     6
 10
52.949941000000003
 20
-145.0
 30
0.0
 11
99.627746000000016
 21
-145.0
 31
0.0
  0
LINE
  5
5D5
  8
BASIS
  6
DASHDOT
 62
     6
 10
-52.949941000000003
 20
-145.0
 30
0.0
 11
-98.981848000000014
 21
-145.0
 31
0.0
  0
LINE
  5
5D6
  8
DETAIL
  6
CONTINOUS
 62
     5
 10
-280.0
 20
0.0
 30
0.0
 11
-280.0
 21
-323.7999999999999
 31
0.0
  0
LINE
  5
5D7
  8
DETAIL
  6
CONTINOUS
 62
     5
 10
280.0
 20
-400.0
 30
0.0
 11
280.0
 21
-648.0
 31
0.0
  0
LINE
  5
5D8
  8
DETAIL
  6
CONTINOUS
 62
     5
 10
-280.0
 20
-400.0
 30
0.0
 11
-280.0
 21
-650.0
 31
0.0
  0
LINE
  5
5D9
  8
NOTE
  6
CONTINUOUS
 62
     4
 10
186.0
 20
-228.0
 30
0.0
 11
186.0
 21
-188.0
 31
0.0
  0
LINE
  5
5DA
  8
NOTE
  6
CONTINUOUS
 62
     4
 10
207.0
 20
-208.0
 30
0.0
 11
167.0
 21
-208.0
 31
0.0
  0
LINE
  5
5DB
  8
BASIS
  6
DASHDOT
 62
     6
 10
-10.0
 20
-249.43346
 30
0.0
 11
-10.0
 21
-45.192985
 31
0.0
  0
LINE
  5
5DC
  8
BASIS
  6
DASHDOT
 62
     6
 10
10.0
 20
-249.43346
 30
0.0
 11
10.0
 21
-45.192985
 31
0.0
  0
LINE
  5
5DD
  8
DETAIL
  6
CONTINOUS
 62
     5
 10
280.0
 20
0.0
 30
0.0
 11
280.0
 21
-323.7999999999999
 31
0.0
  0
TEXT
  5
5DE
  8
NOTE
  6
CONTINUOUS
 62
     4
 10
-45.309933999999977
 20
-195.330488
 30
0.0
 40
64.0
  1
EA
 41
0.9
  0
LINE
  5
5DF
  8
NOTE
  6
CONTINUOUS
 62
     4
 10
-240.0
 20
-20.0
 30
0.0
 11
-240.0
 21
20.0
 31
0.0
  0
LINE
  5
5E0
  8
NOTE
  6
CONTINUOUS
 62
     4
 10
-260.0
 20
0.0
 30
0.0
 11
-220.0
 21
0.0
 31
0.0
  0
LINE
  5
5E1
  8
NOTE
  6
CONTINUOUS
 62
     4
 10
240.0
 20
-20.0
 30
0.0
 11
240.0
 21
20.0
 31
0.0
  0
LINE
  5
5E2
  8
NOTE
  6
CONTINUOUS
 62
     4
 10
220.0
 20
0.0
 30
0.0
 11
260.0
 21
0.0
 31
0.0
  0
CIRCLE
  5
5E3
  8
FIX
  6
CONTINUOUS
 62
    11
 10
-240.0
 20
0.0
 30
0.0
 40
4.0
  0
CIRCLE
  5
5E4
  8
FIX
  6
CONTINUOUS
 62
    11
 10
240.0
 20
0.0
 30
0.0
 40
4.0
  0
LINE
  5
5E5
  8
DETAIL
  6
CONTINOUS
 62
     5
 10
-300.0
 20
-239.40000000000001
 30
0.0
 11
-282.0
 21
-239.40000000000001
 31
0.0
  0
TEXT
  5
5E6
  8
NOTE
  6
CONTINUOUS
 62
     4
 10
-788.39532499999984
 20
397.83136300000001
 30
0.0
 40
64.0
  1
4-φ8
 41
0.9
  0
LINE
  5
5E7
  8
NOTE
  6
CONTINUOUS
 62
     4
 10
-822.93107699999973
 20
366.17332900000002
 30
0.0
 11
-530.36762800000008
 21
366.17332900000002
 31
0.0
  0
TEXT
  5
5E8
  8
NOTE
  6
CONTINUOUS
 62
     4
 10
7.6895660000000001
 20
415.07802999999979
 30
0.0
 40
64.0
  1
ダクト接続口可動寸法
 41
0.9
  0
TEXT
  5
5E9
  8
NOTE
  6
CONTINUOUS
 62
     4
 10
-385.693894
 20
-843.44259999999986
 30
0.0
 40
64.0
  1
ダクト接続口可動寸法
 50
90.0
 41
0.9
  0
LINE
  5
5EA
  8
NOTE
  6
CONTINUOUS
 62
     4
 10
-240.0
 20
0.0
 30
0.0
 11
-530.36762800000008
 21
366.17332900000002
 31
0.0
  0
LINE
  5
5EB
  8
NOTE
  6
CONTINUOUS
 62
     4
 10
-272.282128
 20
23.619150000000001
 30
0.0
 11
-240.0
 21
0.0
 31
0.0
  0
LINE
  5
5EC
  8
NOTE
  6
CONTINUOUS
 62
     4
 10
-240.0
 20
0.0
 30
0.0
 11
-256.14756699999992
 21
36.595847999999989
 31
0.0
  0
LINE
  5
5ED
  8
NOTE
  6
CONTINUOUS
 62
     4
 10
186.0
 20
-208.0
 30
0.0
 11
45.173470999999999
 21
-595.13905999999963
 31
0.0
  0
POINT
  5
5EE
  8
ARRANGE
  6
CONTINUOUS
 62
     1
 10
0.0
 20
0.0
 30
0.0
  0
CIRCLE
  5
5EF
  8
ARRANGE
  6
CONTINUOUS
 62
     1
 10
0.0
 20
0.0
 30
0.0
 40
40.0
  0
LINE
  5
5F0
  8
DETAIL
  6
CONTINUOUS
 62
     5
 10
120.0
 20
-236.0
 30
0.0
 11
120.0
 21
-54.0
 31
0.0
  0
LINE
  5
5F1
  8
DETAIL
  6
CONTINUOUS
 62
     5
 10
-120.0
 20
-236.0
 30
0.0
 11
-120.0
 21
-54.0
 31
0.0
  0
LINE
  5
5F2
  8
BASIS
  6
DASHDOT
 62
     6
 10
-52.949941000000003
 20
-138.0
 30
0.0
 11
-92.790177
 21
-138.0
 31
0.0
  0
LINE
  5
5F3
  8
BASIS
  6
DASHDOT
 62
     6
 10
-52.949941000000003
 20
-152.0
 30
0.0
 11
-92.790177
 21
-152.0
 31
0.0
  0
LINE
  5
5F4
  8
BASIS
  6
DASHDOT
 62
     6
 10
92.959800000000001
 20
-152.0
 30
0.0
 11
-92.790177
 21
-152.0
 31
0.0
  0
LINE
  5
5F5
  8
BASIS
  6
DASHDOT
 62
     6
 10
92.959800000000001
 20
-138.0
 30
0.0
 11
-92.790177
 21
-138.0
 31
0.0
  0
LINE
  5
5F6
  8
OUTLINE
  6
CONTINOUS
 62
     3
 10
-300.0
 20
0.0
 30
0.0
 11
-300.0
 21
-640.0
 31
0.0
  0
LINE
  5
5F7
  8
OUTLINE
  6
CONTINOUS
 62
     3
 10
-292.0
 20
-648.0
 30
0.0
 11
-280.0
 21
-648.0
 31
0.0
  0
LINE
  5
5F8
  8
OUTLINE
  6
CONTINOUS
 62
     3
 10
-280.001215
 20
-650.0
 30
0.0
 11
279.99878499999988
 21
-650.0
 31
0.0
  0
LINE
  5
5F9
  8
OUTLINE
  6
CONTINOUS
 62
     3
 10
-280.0
 20
-648.0
 30
0.0
 11
-280.0
 21
-650.0
 31
0.0
  0
LINE
  5
5FA
  8
OUTLINE
  6
CONTINOUS
 62
     3
 10
-300.0
 20
0.0
 30
0.0
 11
300.0
 21
0.0
 31
0.0
  0
ARC
  5
5FB
  8
OUTLINE
  6
CONTINOUS
 62
     3
 10
-292.0
 20
-640.0
 30
0.0
 40
8.0
 50
180.0
 51
270.0
  0
ARC
  5
5FC
  8
OUTLINE
  6
CONTINOUS
 62
     3
 10
292.0
 20
-640.0
 30
0.0
 40
8.0
 50
270.0
 51
0.0
  0
LINE
  5
5FD
  8
OUTLINE
  6
CONTINOUS
 62
     3
 10
280.0
 20
-648.0
 30
0.0
 11
280.0
 21
-650.0
 31
0.0
  0
LINE
  5
5FE
  8
OUTLINE
  6
CONTINOUS
 62
     3
 10
292.0
 20
-648.0
 30
0.0
 11
280.0
 21
-648.0
 31
0.0
  0
LINE
  5
5FF
  8
OUTLINE
  6
CONTINOUS
 62
     3
 10
300.0
 20
0.0
 30
0.0
 11
300.0
 21
-640.0
 31
0.0
  0
CIRCLE
  5
600
  8
DETAIL
  6
CONTINUOUS
 62
     5
 10
-240.0
 20
-290.0
 30
0.0
 40
12.5
  0
LINE
  5
601
  8
NOTE
  6
CONTINUOUS
 62
     4
 10
-240.0
 20
-310.0
 30
0.0
 11
-240.0
 21
-270.0
 31
0.0
  0
LINE
  5
602
  8
NOTE
  6
CONTINUOUS
 62
     4
 10
-260.0
 20
-290.0
 30
0.0
 11
-220.0
 21
-290.0
 31
0.0
  0
CIRCLE
  5
603
  8
FIX
  6
CONTINUOUS
 62
    11
 10
-240.0
 20
-290.0
 30
0.0
 40
12.5
  0
CIRCLE
  5
604
  8
FIX
  6
CONTINUOUS
 62
    11
 10
240.0
 20
-290.0
 30
0.0
 40
12.5
  0
LINE
  5
605
  8
NOTE
  6
CONTINUOUS
 62
     4
 10
240.0
 20
-310.0
 30
0.0
 11
240.0
 21
-270.0
 31
0.0
  0
LINE
  5
606
  8
NOTE
  6
CONTINUOUS
 62
     4
 10
260.0
 20
-290.0
 30
0.0
 11
220.0
 21
-290.0
 31
0.0
  0
CIRCLE
  5
607
  8
DETAIL
  6
CONTINUOUS
 62
     5
 10
240.0
 20
-290.0
 30
0.0
 40
12.5
  0
TEXT
  5
608
  8
NOTE
  6
CONTINUOUS
 62
     4
 10
-1196.2263499999981
 20
262.215824
 30
0.0
 40
64.0
  1
後、上配管の場合
 41
0.9
  0
TEXT
  5
609
  8
NOTE
  6
CONTINUOUS
 62
     4
 10
-1133.0444130000001
 20
116.28342600000001
 30
0.0
 40
64.0
  1
右、左配管の場合
 41
0.9
  0
LINE
  5
60A
  8
DETAIL
  6
CONTINOUS
 62
     5
 10
-285.0
 20
-384.39999999999992
 30
0.0
 11
285.0
 21
-384.39999999999992
 31
0.0
  0
LINE
  5
60B
  8
DETAIL
  6
CONTINOUS
 62
     5
 10
-300.0
 20
-400.0
 30
0.0
 11
300.0
 21
-400.0
 31
0.0
  0
LINE
  5
60C
  8
DETAIL
  6
CONTINUOUS
 62
     5
 10
-285.0
 20
-384.39999999999992
 30
0.0
 11
-300.0
 21
-400.0
 31
0.0
  0
LINE
  5
60D
  8
DETAIL
  6
CONTINUOUS
 62
     5
 10
285.0
 20
-384.39999999999992
 30
0.0
 11
300.0
 21
-400.0
 31
0.0
  0
LINE
  5
60E
  8
DETAIL
  6
CONTINOUS
 62
     5
 10
-280.001215
 20
-472.0
 30
0.0
 11
279.99878499999988
 21
-472.0
 31
0.0
  0
LINE
  5
60F
  8
DETAIL
  6
CONTINOUS
 62
     5
 10
-280.001215
 20
-432.0
 30
0.0
 11
279.99878499999988
 21
-432.0
 31
0.0
  0
LINE
  5
610
  8
NOTE
  6
CONTINUOUS
 62
     4
 10
240.0
 20
-290.0
 30
0.0
 11
458.68248399999999
 21
-725.14917800000001
 31
0.0
  0
LINE
  5
611
  8
NOTE
  6
CONTINUOUS
 62
     4
 10
266.68732799999992
 20
-319.79574699999989
 30
0.0
 11
240.0
 21
-290.0
 31
0.0
  0
LINE
  5
612
  8
NOTE
  6
CONTINUOUS
 62
     4
 10
240.0
 20
-290.0
 30
0.0
 11
248.2140299999997
 21
-329.147538
 31
0.0
  0
LINE
  5
613
  8
NOTE
  6
CONTINUOUS
 62
     4
 10
-619.50223399999982
 20
235.86478199999991
 30
0.0
 11
-1202.6810479999999
 21
235.86478199999991
 31
0.0
  0
LINE
  5
614
  8
NOTE
  6
CONTINUOUS
 62
     4
 10
-1148.8104410000001
 20
96.516333000000003
 30
0.0
 11
-582.68163800000002
 21
96.516333000000003
 31
0.0
  0
LINE
  5
615
  8
NOTE
  6
CONTINUOUS
 62
     4
 10
-240.0
 20
-255.0
 30
0.0
 11
-619.50223399999982
 21
235.86478199999991
 31
0.0
  0
LINE
  5
616
  8
NOTE
  6
CONTINUOUS
 62
     4
 10
-240.0
 20
-290.0
 30
0.0
 11
-582.68163800000002
 21
96.516333000000003
 31
0.0
  0
LINE
  5
617
  8
NOTE
  6
CONTINUOUS
 62
     4
 10
-271.97596800000002
 20
-230.96799100000001
 30
0.0
 11
-240.0
 21
-255.0
 31
0.0
  0
LINE
  5
618
  8
NOTE
  6
CONTINUOUS
 62
     4
 10
-240.0
 20
-255.0
 30
0.0
 11
-255.675995
 21
-218.1996849999999
 31
0.0
  0
LINE
  5
619
  8
NOTE
  6
CONTINUOUS
 62
     4
 10
-273.92781699999989
 20
-268.81266399999998
 30
0.0
 11
-240.0
 21
-290.0
 31
0.0
  0
LINE
  5
61A
  8
NOTE
  6
CONTINUOUS
 62
     4
 10
-240.0
 20
-290.0
 30
0.0
 11
-258.78868299999982
 21
-254.68732
 31
0.0
  0
LINE
  5
61B
  8
NOTE
  6
CONTINUOUS
 62
     4
 10
164.33482079088191
 20
-237.34532150529299
 30
0.0
 11
186.0
 21
-208.0
 31
0.0
  0
LINE
  5
61C
  8
NOTE
  6
CONTINUOUS
 62
     4
 10
186.0
 20
-208.0
 30
0.0
 11
182.30697440144439
 21
-246.32787214389799
 31
0.0
  0
ARC
  5
61D
  8
DETAIL
  6
CONTINUOUS
 62
     5
 10
194.35032100000001
 20
-88.887912
 30
0.0
 40
8.0
 50
200.0
 51
0.003984
  0
ARC
  5
61E
  8
DETAIL
  6
CONTINUOUS
 62
     5
 10
179.31523899999991
 20
-94.360234000000005
 30
0.0
 40
8.0
 50
20.0
 51
182.21517199999991
  0
ARC
  5
61F
  8
DETAIL
  6
CONTINUOUS
 62
     5
 10
194.35032100000001
 20
-100.887912
 30
0.0
 40
8.0
 50
200.0
 51
0.003984
  0
ARC
  5
620
  8
DETAIL
  6
CONTINUOUS
 62
     5
 10
179.31523899999991
 20
-106.36023400000001
 30
0.0
 40
8.0
 50
20.0
 51
182.21517199999991
  0
LINE
  5
621
  8
DETAIL
  6
CONTINUOUS
 62
     5
 10
191.0
 20
-203.0
 30
0.0
 11
191.0
 21
-108.1525759999999
 31
0.0
  0
LINE
  5
622
  8
DETAIL
  6
CONTINUOUS
 62
     5
 10
181.0
 20
-203.0
 30
0.0
 11
181.0
 21
-98.539647000000002
 31
0.0
  0
LINE
  5
623
  8
DETAIL
  6
CONTINUOUS
 62
     5
 10
179.0
 20
-203.0
 30
0.0
 11
179.0
 21
-213.0
 31
0.0
  0
CIRCLE
  5
624
  8
DETAIL
  6
CONTINUOUS
 62
     5
 10
201.0
 20
-208.0
 30
0.0
 40
2.0
  0
LINE
  5
625
  8
DETAIL
  6
CONTINUOUS
 62
     5
 10
206.0
 20
-203.0
 30
0.0
 11
206.0
 21
-213.0
 31
0.0
  0
LINE
  5
626
  8
DETAIL
  6
CONTINUOUS
 62
     5
 10
179.0
 20
-213.0
 30
0.0
 11
206.0
 21
-213.0
 31
0.0
  0
LINE
  5
627
  8
DETAIL
  6
CONTINUOUS
 62
     5
 10
179.0
 20
-203.0
 30
0.0
 11
206.0
 21
-203.0
 31
0.0
  0
LINE
  5
628
  8
DETAIL
  6
CONTINUOUS
 62
     5
 10
181.0
 20
-213.0
 30
0.0
 11
181.0
 21
-218.0
 31
0.0
  0
LINE
  5
629
  8
DETAIL
  6
CONTINUOUS
 62
     5
 10
191.0
 20
-213.0
 30
0.0
 11
191.0
 21
-218.0
 31
0.0
  0
LINE
  5
62A
  8
DETAIL
  6
CONTINUOUS
 62
     5
 10
191.0
 20
-96.152575999999996
 30
0.0
 11
191.0
 21
-60.104199999999992
 31
0.0
  0
LINE
  5
62B
  8
DETAIL
  6
CONTINUOUS
 62
     5
 10
181.0
 20
-86.539647000000016
 30
0.0
 11
181.0
 21
-59.238866000000002
 31
0.0
  0
LINE
  5
62C
  8
SIZE
  6
CONTINUOUS
 62
    30
 10
320.0
 20
0.0
 30
0.0
 11
610.01324999999986
 21
0.0
 31
0.0
  0
LINE
  5
62D
  8
SIZE
  6
CONTINUOUS
 62
    30
 10
300.0
 20
-660.0
 30
0.0
 11
300.0
 21
-982.75431700000001
 31
0.0
  0
LINE
  5
62E
  8
SIZE
  6
CONTINUOUS
 62
    30
 10
-300.0
 20
-660.0
 30
0.0
 11
-300.0
 21
-982.75431700000001
 31
0.0
  0
LINE
  5
62F
  8
SIZE
  6
CONTINUOUS
 62
    30
 10
288.0
 20
-962.75431700000001
 30
0.0
 11
-288.0
 21
-962.75431700000001
 31
0.0
  0
CIRCLE
  5
630
  8
SIZE
  6
CONTINUOUS
 62
    30
 10
300.0
 20
-962.75431700000001
 30
0.0
 40
6.0
  0
LINE
  5
631
  8
SIZE
  6
CONTINUOUS
 62
    30
 10
300.0
 20
-962.75431700000001
 30
0.0
 11
288.0
 21
-962.75431700000001
 31
0.0
  0
CIRCLE
  5
632
  8
SIZE
  6
CONTINUOUS
 62
    30
 10
-300.0
 20
-962.75431700000001
 30
0.0
 40
6.0
  0
LINE
  5
633
  8
SIZE
  6
CONTINUOUS
 62
    30
 10
-300.0
 20
-962.75431700000001
 30
0.0
 11
-288.0
 21
-962.75431700000001
 31
0.0
  0
TEXT
  5
634
  8
SIZE
  6
CONTINUOUS
 62
    30
 10
-74.05714285714285
 20
-937.75431700000001
 30
0.0
 40
64.0
  1
600
 41
0.9
 72
     1
 11
0.0
 21
-937.75431700000001
 31
0.0
  0
LINE
  5
635
  8
SIZE
  6
CONTINUOUS
 62
    30
 10
240.0
 20
-330.0
 30
0.0
 11
240.0
 21
-861.13990200000001
 31
0.0
  0
LINE
  5
636
  8
SIZE
  6
CONTINUOUS
 62
    30
 10
-240.0
 20
-330.0
 30
0.0
 11
-240.0
 21
-861.13990200000001
 31
0.0
  0
LINE
  5
637
  8
SIZE
  6
CONTINUOUS
 62
    30
 10
228.0
 20
-841.13990200000012
 30
0.0
 11
-228.0
 21
-841.13990200000012
 31
0.0
  0
CIRCLE
  5
638
  8
SIZE
  6
CONTINUOUS
 62
    30
 10
240.0
 20
-841.13990200000012
 30
0.0
 40
6.0
  0
LINE
  5
639
  8
SIZE
  6
CONTINUOUS
 62
    30
 10
240.0
 20
-841.13990200000012
 30
0.0
 11
228.0
 21
-841.13990200000012
 31
0.0
  0
CIRCLE
  5
63A
  8
SIZE
  6
CONTINUOUS
 62
    30
 10
-240.0
 20
-841.13990200000012
 30
0.0
 40
6.0
  0
LINE
  5
63B
  8
SIZE
  6
CONTINUOUS
 62
    30
 10
-240.0
 20
-841.13990200000012
 30
0.0
 11
-228.0
 21
-841.13990200000012
 31
0.0
  0
TEXT
  5
63C
  8
SIZE
  6
CONTINUOUS
 62
    30
 10
-74.057142857142836
 20
-816.13990200000012
 30
0.0
 40
64.0
  1
480
 41
0.9
 72
     1
 11
0.0
 21
-816.13990200000012
 31
0.0
  0
LINE
  5
63D
  8
SIZE
  6
CONTINUOUS
 62
    30
 10
240.0
 20
40.0
 30
0.0
 11
240.0
 21
715.06384000000003
 31
0.0
  0
LINE
  5
63E
  8
SIZE
  6
CONTINUOUS
 62
    30
 10
-240.0
 20
40.0
 30
0.0
 11
-240.0
 21
715.06384000000003
 31
0.0
  0
LINE
  5
63F
  8
SIZE
  6
CONTINUOUS
 62
    30
 10
228.0
 20
695.06384000000003
 30
0.0
 11
-228.0
 21
695.06384000000003
 31
0.0
  0
CIRCLE
  5
640
  8
SIZE
  6
CONTINUOUS
 62
    30
 10
240.0
 20
695.06384000000003
 30
0.0
 40
6.0
  0
LINE
  5
641
  8
SIZE
  6
CONTINUOUS
 62
    30
 10
240.0
 20
695.06384000000003
 30
0.0
 11
228.0
 21
695.06384000000003
 31
0.0
  0
CIRCLE
  5
642
  8
SIZE
  6
CONTINUOUS
 62
    30
 10
-240.0
 20
695.06384000000003
 30
0.0
 40
6.0
  0
LINE
  5
643
  8
SIZE
  6
CONTINUOUS
 62
    30
 10
-240.0
 20
695.06384000000003
 30
0.0
 11
-228.0
 21
695.06384000000003
 31
0.0
  0
TEXT
  5
644
  8
SIZE
  6
CONTINUOUS
 62
    30
 10
-74.057142857142836
 20
720.06384000000003
 30
0.0
 40
64.0
  1
480
 41
0.9
 72
     1
 11
0.0
 21
720.06384000000003
 31
0.0
  0
LINE
  5
645
  8
SIZE
  6
CONTINUOUS
 62
    30
 10
10.0
 20
-25.192985
 30
0.0
 11
10.0
 21
516.99927300000002
 31
0.0
  0
LINE
  5
646
  8
SIZE
  6
CONTINUOUS
 62
    30
 10
-10.0
 20
-25.192985
 30
0.0
 11
-10.0
 21
516.99927300000002
 31
0.0
  0
LINE
  5
647
  8
SIZE
  6
CONTINUOUS
 62
    30
 10
22.0
 20
496.99927300000002
 30
0.0
 11
34.0
 21
496.99927300000002
 31
0.0
  0
LINE
  5
648
  8
SIZE
  6
CONTINUOUS
 62
    30
 10
-22.0
 20
496.99927300000002
 30
0.0
 11
-34.0
 21
496.99927300000002
 31
0.0
  0
LINE
  5
649
  8
SIZE
  6
CONTINUOUS
 62
    30
 10
408.55986499999989
 20
496.99927300000002
 30
0.0
 11
10.0
 21
496.99927300000002
 31
0.0
  0
TEXT
  5
64A
  8
SIZE
  6
CONTINUOUS
 62
    30
 10
290.30272257142849
 20
521.99927300000002
 30
0.0
 40
64.0
  1
20
 41
0.9
 72
     1
 11
336.93129399999992
 21
521.99927300000002
 31
0.0
  0
LINE
  5
64B
  8
SIZE
  6
CONTINUOUS
 62
    30
 10
10.0
 20
496.99927300000002
 30
0.0
 11
-10.0
 21
496.99927300000002
 31
0.0
  0
LINE
  5
64C
  8
SIZE
  6
CONTINUOUS
 62
    30
 10
10.0
 20
496.99927300000002
 30
0.0
 11
-10.0
 21
496.99927300000002
 31
0.0
  0
CIRCLE
  5
64D
  8
SIZE
  6
CONTINUOUS
 62
    30
 10
10.0
 20
496.99927300000002
 30
0.0
 40
6.0
  0
LINE
  5
64E
  8
SIZE
  6
CONTINUOUS
 62
    30
 10
10.0
 20
496.99927300000002
 30
0.0
 11
22.0
 21
496.99927300000002
 31
0.0
  0
CIRCLE
  5
64F
  8
SIZE
  6
CONTINUOUS
 62
    30
 10
-10.0
 20
496.99927300000002
 30
0.0
 40
6.0
  0
LINE
  5
650
  8
SIZE
  6
CONTINUOUS
 62
    30
 10
-10.0
 20
496.99927300000002
 30
0.0
 11
-22.0
 21
496.99927300000002
 31
0.0
  0
POINT
  5
651
  8
DEFPOINTS
  6
CONTINUOUS
 62
    30
 10
10.0
 20
-45.192985
 30
0.0
  0
POINT
  5
652
  8
DEFPOINTS
  6
CONTINUOUS
 62
    30
 10
-10.0
 20
-45.192985
 30
0.0
  0
LINE
  5
653
  8
SIZE
  6
CONTINUOUS
 62
    30
 10
74.0
 20
-125.0
 30
0.0
 11
74.0
 21
593.11691199999996
 31
0.0
  0
LINE
  5
654
  8
SIZE
  6
CONTINUOUS
 62
    30
 10
-74.0
 20
-125.0
 30
0.0
 11
-74.0
 21
593.11691199999996
 31
0.0
  0
LINE
  5
655
  8
SIZE
  6
CONTINUOUS
 62
    30
 10
74.0
 20
573.11691199999996
 30
0.0
 11
-74.0
 21
573.11691199999996
 31
0.0
  0
CIRCLE
  5
656
  8
SIZE
  6
CONTINUOUS
 62
    30
 10
74.0
 20
573.11691199999996
 30
0.0
 40
6.0
  0
CIRCLE
  5
657
  8
SIZE
  6
CONTINUOUS
 62
    30
 10
-74.0
 20
573.11691199999996
 30
0.0
 40
6.0
  0
TEXT
  5
658
  8
SIZE
  6
CONTINUOUS
 62
    30
 10
-108.89142857142851
 20
598.11691199999996
 30
0.0
 40
64.0
  1
φ148
 41
0.9
 72
     1
 11
0.0
 21
598.11691199999996
 31
0.0
  0
LINE
  5
659
  8
SIZE
  6
CONTINUOUS
 62
    30
 39
50.0
 10
408.55986499999989
 20
496.99927300000002
 30
0.0
 11
692.05301699999995
 21
496.99927300000002
 31
0.0
  0
LINE
  5
65A
  8
SIZE
  6
CONTINUOUS
 62
    30
 10
-112.790177
 20
-138.0
 30
0.0
 11
-502.51646799999992
 21
-138.0
 31
0.0
  0
LINE
  5
65B
  8
SIZE
  6
CONTINUOUS
 62
    30
 10
-112.790177
 20
-152.0
 30
0.0
 11
-502.51646799999992
 21
-152.0
 31
0.0
  0
LINE
  5
65C
  8
SIZE
  6
CONTINUOUS
 62
    30
 10
-482.51646799999992
 20
-126.0
 30
0.0
 11
-482.51646799999992
 21
-114.0
 31
0.0
  0
LINE
  5
65D
  8
SIZE
  6
CONTINUOUS
 62
    30
 10
-482.51646799999992
 20
-164.0
 30
0.0
 11
-482.51646799999992
 21
-176.0
 31
0.0
  0
LINE
  5
65E
  8
SIZE
  6
CONTINUOUS
 62
    30
 10
-482.51646799999992
 20
-610.32741199999998
 30
0.0
 11
-482.51646799999992
 21
-152.0
 31
0.0
  0
TEXT
  5
65F
  8
SIZE
  6
CONTINUOUS
 62
    30
 10
-507.51646799999992
 20
-585.32741171428552
 30
0.0
 40
64.0
  1
14
 50
90.0
 41
0.9
 72
     1
 11
-507.51646799999992
 21
-542.81312599999978
 31
0.0
  0
LINE
  5
660
  8
SIZE
  6
CONTINUOUS
 62
    30
 10
-482.51646799999992
 20
-138.0
 30
0.0
 11
-482.51646799999992
 21
-152.0
 31
0.0
  0
LINE
  5
661
  8
SIZE
  6
CONTINUOUS
 62
    30
 10
-482.51646799999992
 20
-138.0
 30
0.0
 11
-482.51646799999992
 21
-152.0
 31
0.0
  0
CIRCLE
  5
662
  8
SIZE
  6
CONTINUOUS
 62
    30
 10
-482.51646799999992
 20
-138.0
 30
0.0
 40
6.0
  0
LINE
  5
663
  8
SIZE
  6
CONTINUOUS
 62
    30
 10
-482.51646799999992
 20
-138.0
 30
0.0
 11
-482.51646799999992
 21
-126.0
 31
0.0
  0
CIRCLE
  5
664
  8
SIZE
  6
CONTINUOUS
 62
    30
 10
-482.51646799999992
 20
-152.0
 30
0.0
 40
6.0
  0
LINE
  5
665
  8
SIZE
  6
CONTINUOUS
 62
    30
 10
-482.51646799999992
 20
-152.0
 30
0.0
 11
-482.51646799999992
 21
-164.0
 31
0.0
  0
LINE
  5
666
  8
SIZE
  6
CONTINUOUS
 62
    30
 39
50.0
 10
-482.51646799999992
 20
-606.97367499999984
 30
0.0
 11
-482.51646799999992
 21
-855.79139299999974
 31
0.0
  0
LINE
  5
667
  8
SIZE
  6
CONTINUOUS
 62
    30
 10
-320.0
 20
0.0
 30
0.0
 11
-895.3438809999999
 21
0.0
 31
0.0
  0
LINE
  5
668
  8
SIZE
  6
CONTINUOUS
 62
    30
 10
-300.0
 20
-650.0
 30
0.0
 11
-895.3438809999999
 21
-650.0
 31
0.0
  0
LINE
  5
669
  8
SIZE
  6
CONTINUOUS
 62
    30
 10
-875.34388100000001
 20
-12.0
 30
0.0
 11
-875.34388100000001
 21
-638.0
 31
0.0
  0
CIRCLE
  5
66A
  8
SIZE
  6
CONTINUOUS
 62
    30
 10
-875.34388100000001
 20
0.0
 30
0.0
 40
6.0
  0
LINE
  5
66B
  8
SIZE
  6
CONTINUOUS
 62
    30
 10
-875.34388100000001
 20
0.0
 30
0.0
 11
-875.34388100000001
 21
-12.0
 31
0.0
  0
CIRCLE
  5
66C
  8
SIZE
  6
CONTINUOUS
 62
    30
 10
-875.34388100000001
 20
-650.0
 30
0.0
 40
6.0
  0
LINE
  5
66D
  8
SIZE
  6
CONTINUOUS
 62
    30
 10
-875.34388100000001
 20
-650.0
 30
0.0
 11
-875.34388100000001
 21
-638.0
 31
0.0
  0
TEXT
  5
66E
  8
SIZE
  6
CONTINUOUS
 62
    30
 10
-900.34388100000001
 20
-399.05714285714282
 30
0.0
 40
64.0
  1
650
 50
90.0
 41
0.9
 72
     1
 11
-900.34388100000001
 21
-325.0
 31
0.0
  0
LINE
  5
66F
  8
SIZE
  6
CONTINUOUS
 62
    30
 10
-320.0
 20
0.0
 30
0.0
 11
-760.313672
 21
0.0
 31
0.0
  0
LINE
  5
670
  8
SIZE
  6
CONTINUOUS
 62
    30
 10
-280.0
 20
-290.0
 30
0.0
 11
-760.313672
 21
-290.0
 31
0.0
  0
LINE
  5
671
  8
SIZE
  6
CONTINUOUS
 62
    30
 10
-740.313672
 20
-12.0
 30
0.0
 11
-740.313672
 21
-278.0
 31
0.0
  0
CIRCLE
  5
672
  8
SIZE
  6
CONTINUOUS
 62
    30
 10
-740.313672
 20
0.0
 30
0.0
 40
6.0
  0
LINE
  5
673
  8
SIZE
  6
CONTINUOUS
 62
    30
 10
-740.313672
 20
0.0
 30
0.0
 11
-740.313672
 21
-12.0
 31
0.0
  0
CIRCLE
  5
674
  8
SIZE
  6
CONTINUOUS
 62
    30
 10
-740.313672
 20
-290.0
 30
0.0
 40
6.0
  0
LINE
  5
675
  8
SIZE
  6
CONTINUOUS
 62
    30
 10
-740.313672
 20
-290.0
 30
0.0
 11
-740.313672
 21
-278.0
 31
0.0
  0
TEXT
  5
676
  8
SIZE
  6
CONTINUOUS
 62
    30
 10
-765.313672
 20
-219.05714285714279
 30
0.0
 40
64.0
  1
290
 50
90.0
 41
0.9
 72
     1
 11
-765.313672
 21
-145.0
 31
0.0
  0
LINE
  5
677
  8
SIZE
  6
CONTINUOUS
 62
    30
 10
-320.0
 20
0.0
 30
0.0
 11
-637.972668
 21
0.0
 31
0.0
  0
LINE
  5
678
  8
SIZE
  6
CONTINUOUS
 62
    30
 10
-280.0
 20
-255.0
 30
0.0
 11
-637.972668
 21
-255.0
 31
0.0
  0
LINE
  5
679
  8
SIZE
  6
CONTINUOUS
 62
    30
 10
-617.97266799999989
 20
-12.0
 30
0.0
 11
-617.97266799999989
 21
-243.0
 31
0.0
  0
CIRCLE
  5
67A
  8
SIZE
  6
CONTINUOUS
 62
    30
 10
-617.97266799999989
 20
0.0
 30
0.0
 40
6.0
  0
LINE
  5
67B
  8
SIZE
  6
CONTINUOUS
 62
    30
 10
-617.97266799999989
 20
0.0
 30
0.0
 11
-617.97266799999989
 21
-12.0
 31
0.0
  0
CIRCLE
  5
67C
  8
SIZE
  6
CONTINUOUS
 62
    30
 10
-617.97266799999989
 20
-255.0
 30
0.0
 40
6.0
  0
LINE
  5
67D
  8
SIZE
  6
CONTINUOUS
 62
    30
 10
-617.97266799999989
 20
-255.0
 30
0.0
 11
-617.97266799999989
 21
-243.0
 31
0.0
  0
TEXT
  5
67E
  8
SIZE
  6
CONTINUOUS
 62
    30
 10
-642.97266799999989
 20
-201.55714285714291
 30
0.0
 40
64.0
  1
255
 50
90.0
 41
0.9
 72
     1
 11
-642.97266799999989
 21
-127.5
 31
0.0
  0
LINE
  5
67F
  8
DETAIL
  6
CONTINOUS
 62
     5
 10
-263.80000000000001
 20
-330.80000000000001
 30
0.0
 11
-263.80000000000001
 21
-323.7999999999999
 31
0.0
  0
CIRCLE
  5
680
  8
DETAIL
  6
CONTINOUS
 62
     5
 10
-275.80000000000001
 20
-333.80000000000001
 30
0.0
 40
2.1000000000000001
  0
CIRCLE
  5
681
  8
DETAIL
  6
CONTINOUS
 62
     5
 10
-275.80000000000001
 20
-333.80000000000001
 30
0.0
 40
3.1000000000000001
  0
LINE
  5
682
  8
DETAIL
  6
CONTINOUS
 62
     5
 10
-261.80000000000001
 20
-330.80000000000001
 30
0.0
 11
-263.80000000000001
 21
-330.80000000000001
 31
0.0
  0
LINE
  5
683
  8
DETAIL
  6
CONTINOUS
 62
     5
 10
-261.80000000000001
 20
-336.80000000000001
 30
0.0
 11
-261.80000000000001
 21
-330.80000000000001
 31
0.0
  0
LINE
  5
684
  8
DETAIL
  6
CONTINOUS
 62
     5
 10
-261.80000000000001
 20
-336.80000000000001
 30
0.0
 11
-263.80000000000001
 21
-336.80000000000001
 31
0.0
  0
LINE
  5
685
  8
DETAIL
  6
CONTINOUS
 62
     5
 10
-263.80000000000001
 20
-343.80000000000001
 30
0.0
 11
-263.80000000000001
 21
-336.80000000000001
 31
0.0
  0
LINE
  5
686
  8
DETAIL
  6
CONTINOUS
 62
     5
 10
-263.80000000000001
 20
-343.80000000000001
 30
0.0
 11
-293.80000000000001
 21
-343.80000000000001
 31
0.0
  0
LINE
  5
687
  8
DETAIL
  6
CONTINOUS
 62
     5
 10
-263.80000000000001
 20
-323.7999999999999
 30
0.0
 11
-293.80000000000001
 21
-323.7999999999999
 31
0.0
  0
LINE
  5
688
  8
DETAIL
  6
CONTINOUS
 62
     5
 10
-263.80000000000001
 20
-342.80000000000001
 30
0.0
 11
-293.80000000000001
 21
-342.80000000000001
 31
0.0
  0
LINE
  5
689
  8
DETAIL
  6
CONTINOUS
 62
     5
 10
-263.80000000000001
 20
-324.80000000000001
 30
0.0
 11
-293.80000000000001
 21
-324.80000000000001
 31
0.0
  0
LINE
  5
68A
  8
DETAIL
  6
CONTINOUS
 62
     5
 10
-293.80000000000001
 20
-343.80000000000001
 30
0.0
 11
-293.80000000000001
 21
-323.7999999999999
 31
0.0
  0
LINE
  5
68B
  8
DETAIL
  6
CONTINOUS
 62
     5
 10
-282.0
 20
-343.80000000000001
 30
0.0
 11
-282.0
 21
-345.0
 31
0.0
  0
LINE
  5
68C
  8
DETAIL
  6
CONTINOUS
 62
     5
 10
-300.0
 20
-345.0
 30
0.0
 11
300.0
 21
-345.0
 31
0.0
  0
LINE
  5
68D
  8
DETAIL
  6
CONTINOUS
 62
     5
 10
-282.0
 20
-239.40000000000001
 30
0.0
 11
-282.0
 21
-323.7999999999999
 31
0.0
  0
LINE
  5
68E
  8
DETAIL
  6
CONTINOUS
 62
     5
 10
285.0
 20
-384.39999999999992
 30
0.0
 11
285.0
 21
-345.0
 31
0.0
  0
LINE
  5
68F
  8
DETAIL
  6
CONTINOUS
 62
     5
 10
293.80000000000001
 20
-343.80000000000001
 30
0.0
 11
293.80000000000001
 21
-323.7999999999999
 31
0.0
  0
LINE
  5
690
  8
DETAIL
  6
CONTINOUS
 62
     5
 10
263.80000000000001
 20
-330.80000000000001
 30
0.0
 11
263.80000000000001
 21
-323.7999999999999
 31
0.0
  0
LINE
  5
691
  8
DETAIL
  6
CONTINOUS
 62
     5
 10
263.80000000000001
 20
-342.80000000000001
 30
0.0
 11
293.80000000000001
 21
-342.80000000000001
 31
0.0
  0
LINE
  5
692
  8
DETAIL
  6
CONTINOUS
 62
     5
 10
263.80000000000001
 20
-343.80000000000001
 30
0.0
 11
293.80000000000001
 21
-343.80000000000001
 31
0.0
  0
LINE
  5
693
  8
DETAIL
  6
CONTINOUS
 62
     5
 10
282.0
 20
-343.80000000000001
 30
0.0
 11
282.0
 21
-345.0
 31
0.0
  0
LINE
  5
694
  8
DETAIL
  6
CONTINOUS
 62
     5
 10
263.80000000000001
 20
-343.80000000000001
 30
0.0
 11
263.80000000000001
 21
-336.80000000000001
 31
0.0
  0
LINE
  5
695
  8
DETAIL
  6
CONTINOUS
 62
     5
 10
261.80000000000001
 20
-336.80000000000001
 30
0.0
 11
263.80000000000001
 21
-336.80000000000001
 31
0.0
  0
LINE
  5
696
  8
DETAIL
  6
CONTINOUS
 62
     5
 10
261.80000000000001
 20
-336.80000000000001
 30
0.0
 11
261.80000000000001
 21
-330.80000000000001
 31
0.0
  0
LINE
  5
697
  8
DETAIL
  6
CONTINOUS
 62
     5
 10
261.80000000000001
 20
-330.80000000000001
 30
0.0
 11
263.80000000000001
 21
-330.80000000000001
 31
0.0
  0
CIRCLE
  5
698
  8
DETAIL
  6
CONTINOUS
 62
     5
 10
275.80000000000001
 20
-333.80000000000001
 30
0.0
 40
3.1000000000000001
  0
CIRCLE
  5
699
  8
DETAIL
  6
CONTINOUS
 62
     5
 10
275.80000000000001
 20
-333.80000000000001
 30
0.0
 40
2.1000000000000001
  0
LINE
  5
69A
  8
DETAIL
  6
CONTINOUS
 62
     5
 10
263.80000000000001
 20
-324.80000000000001
 30
0.0
 11
293.80000000000001
 21
-324.80000000000001
 31
0.0
  0
LINE
  5
69B
  8
DETAIL
  6
CONTINOUS
 62
     5
 10
263.80000000000001
 20
-323.7999999999999
 30
0.0
 11
293.80000000000001
 21
-323.7999999999999
 31
0.0
  0
LINE
  5
69C
  8
DETAIL
  6
CONTINOUS
 62
     5
 10
300.0
 20
-239.40000000000001
 30
0.0
 11
282.0
 21
-239.40000000000001
 31
0.0
  0
LINE
  5
69D
  8
DETAIL
  6
CONTINOUS
 62
     5
 10
282.0
 20
-239.40000000000001
 30
0.0
 11
282.0
 21
-323.7999999999999
 31
0.0
  0
LINE
  5
69E
  8
SIZE
  6
CONTINUOUS
 62
    30
 10
320.0
 20
0.0
 30
0.0
 11
879.76837699999999
 21
0.0
 31
0.0
  0
LINE
  5
69F
  8
SIZE
  6
CONTINUOUS
 62
    30
 10
320.0
 20
-400.0
 30
0.0
 11
879.76837699999999
 21
-400.0
 31
0.0
  0
LINE
  5
6A0
  8
SIZE
  6
CONTINUOUS
 62
    30
 10
859.76837699999987
 20
0.0
 30
0.0
 11
859.76837699999987
 21
-400.0
 31
0.0
  0
CIRCLE
  5
6A1
  8
SIZE
  6
CONTINUOUS
 62
    30
 10
859.76837699999987
 20
0.0
 30
0.0
 40
6.0
  0
CIRCLE
  5
6A2
  8
SIZE
  6
CONTINUOUS
 62
    30
 10
859.76837699999987
 20
-400.0
 30
0.0
 40
6.0
  0
TEXT
  5
6A3
  8
SIZE
  6
CONTINUOUS
 62
    30
 10
834.76837699999987
 20
-390.90285714285721
 30
0.0
 40
64.0
  1
400～450
 50
90.0
 41
0.9
 72
     1
 11
834.76837699999987
 21
-200.0
 31
0.0
  0
LINE
  5
6A4
  8
SIZE
  6
CONTINUOUS
 62
    30
 10
320.0
 20
-345.0
 30
0.0
 11
736.56950199999983
 21
-345.0
 31
0.0
  0
LINE
  5
6A5
  8
SIZE
  6
CONTINUOUS
 62
    30
 10
320.0
 20
-400.0
 30
0.0
 11
736.56950199999983
 21
-400.0
 31
0.0
  0
LINE
  5
6A6
  8
SIZE
  6
CONTINUOUS
 62
    30
 10
716.56950200000017
 20
-333.0
 30
0.0
 11
716.56950200000017
 21
-321.0
 31
0.0
  0
LINE
  5
6A7
  8
SIZE
  6
CONTINUOUS
 62
    30
 10
716.56950200000017
 20
-412.0
 30
0.0
 11
716.56950200000017
 21
-424.0
 31
0.0
  0
LINE
  5
6A8
  8
SIZE
  6
CONTINUOUS
 62
    30
 10
716.56950200000017
 20
-172.9967849999999
 30
0.0
 11
716.56950200000017
 21
-345.0
 31
0.0
  0
TEXT
  5
6A9
  8
SIZE
  6
CONTINUOUS
 62
    30
 10
691.56950200000017
 20
-291.25392742857139
 30
0.0
 40
64.0
  1
55
 50
90.0
 41
0.9
 72
     1
 11
691.56950200000017
 21
-244.62535600000001
 31
0.0
  0
LINE
  5
6AA
  8
SIZE
  6
CONTINUOUS
 62
    30
 10
716.56950200000017
 20
-345.0
 30
0.0
 11
716.56950200000017
 21
-400.0
 31
0.0
  0
LINE
  5
6AB
  8
SIZE
  6
CONTINUOUS
 62
    30
 10
716.56950200000017
 20
-345.0
 30
0.0
 11
716.56950200000017
 21
-400.0
 31
0.0
  0
CIRCLE
  5
6AC
  8
SIZE
  6
CONTINUOUS
 62
    30
 10
716.56950200000017
 20
-345.0
 30
0.0
 40
6.0
  0
LINE
  5
6AD
  8
SIZE
  6
CONTINUOUS
 62
    30
 10
716.56950200000017
 20
-345.0
 30
0.0
 11
716.56950200000017
 21
-333.0
 31
0.0
  0
CIRCLE
  5
6AE
  8
SIZE
  6
CONTINUOUS
 62
    30
 10
716.56950200000017
 20
-400.0
 30
0.0
 40
6.0
  0
LINE
  5
6AF
  8
SIZE
  6
CONTINUOUS
 62
    30
 10
716.56950200000017
 20
-400.0
 30
0.0
 11
716.56950200000017
 21
-412.0
 31
0.0
  0
TEXT
  5
6B0
  8
SIZE
  6
CONTINUOUS
 62
    30
 10
960.03051600000015
 20
-594.33745199999976
 30
0.0
 40
64.0
  1
（350～375も可能）
 50
90.0
 41
0.9
  0
LINE
  5
6B1
  8
SIZE
  6
CONTINUOUS
 62
    30
 10
320.0
 20
0.0
 30
0.0
 11
481.56239299999999
 21
0.0
 31
0.0
  0
LINE
  5
6B2
  8
SIZE
  6
CONTINUOUS
 62
    30
 10
122.203534
 20
-145.0
 30
0.0
 11
481.56239299999999
 21
-145.0
 31
0.0
  0
LINE
  5
6B3
  8
SIZE
  6
CONTINUOUS
 62
    30
 10
461.56239299999987
 20
0.0
 30
0.0
 11
461.56239299999987
 21
-145.0
 31
0.0
  0
CIRCLE
  5
6B4
  8
SIZE
  6
CONTINUOUS
 62
    30
 10
461.56239299999987
 20
0.0
 30
0.0
 40
6.0
  0
CIRCLE
  5
6B5
  8
SIZE
  6
CONTINUOUS
 62
    30
 10
461.56239299999987
 20
-145.0
 30
0.0
 40
6.0
  0
TEXT
  5
6B6
  8
SIZE
  6
CONTINUOUS
 62
    30
 10
436.56239299999987
 20
-141.0714285714285
 30
0.0
 40
64.0
  1
145
 50
90.0
 41
0.9
 72
     1
 11
436.56239299999987
 21
-72.5
 31
0.0
  0
LINE
  5
6B7
  8
DETAIL
  6
CONTINUOUS
 62
     5
 10
143.79522055864041
 20
-218.0
 30
0.0
 11
203.79522055864061
 21
-218.0
 31
0.0
  0
LINE
  5
6B8
  8
DETAIL
  6
CONTINUOUS
 62
     5
 10
143.79522055864041
 20
-258.0
 30
0.0
 11
203.79522055864061
 21
-258.0
 31
0.0
  0
LINE
  5
6B9
  8
DETAIL
  6
CONTINUOUS
 62
     5
 39
50.0
 10
143.79522055864041
 20
-218.0
 30
0.0
 11
143.79522055864041
 21
-258.0
 31
0.0
  0
LINE
  5
6BA
  8
DETAIL
  6
CONTINUOUS
 62
     5
 39
50.0
 10
203.79522055864061
 20
-218.0
 30
0.0
 11
203.79522055864061
 21
-258.0
 31
0.0
  0
LINE
  5
6BB
  8
SIZE
  6
CONTINUOUS
 10
186.0
 20
-148.0
 30
0.0
 11
186.0
 21
313.5876272127507
 31
0.0
  0
LINE
  5
6BC
  8
SIZE
  6
CONTINUOUS
 10
186.0
 20
293.5876272127507
 30
0.0
 11
198.0
 21
293.5876272127507
 31
0.0
  0
LINE
  5
6BD
  8
SIZE
  6
CONTINUOUS
 10
300.0
 20
20.0
 30
0.0
 11
300.0
 21
313.5876272127507
 31
0.0
  0
LINE
  5
6BE
  8
SIZE
  6
CONTINUOUS
 10
186.0
 20
-168.0
 30
0.0
 11
186.0
 21
313.5876272127507
 31
0.0
  0
LINE
  5
6BF
  8
SIZE
  6
CONTINUOUS
 10
186.0
 20
293.5876272127507
 30
0.0
 11
300.0
 21
293.5876272127507
 31
0.0
  0
LINE
  5
6C0
  8
SIZE
  6
CONTINUOUS
 10
300.0
 20
293.5876272127507
 30
0.0
 11
490.9142857142856
 21
293.5876272127507
 31
0.0
  0
TEXT
  5
6C1
  8
SIZE
  6
CONTINUOUS
 10
337.0
 20
318.5876272127507
 30
0.0
 40
64.0
  1
114
 41
0.9
  0
CIRCLE
  5
6C2
  8
SIZE
  6
CONTINUOUS
 62
    30
 39
50.0
 10
300.0
 20
293.5876272127507
 30
0.0
 40
6.0
  0
CIRCLE
  5
6C3
  8
SIZE
  6
CONTINUOUS
 62
    30
 39
50.0
 10
186.0
 20
293.5876272127507
 30
0.0
 40
6.0
  0
CIRCLE
  5
6C4
  8
SIZE
  6
CONTINUOUS
 62
    30
 39
50.0
 10
588.66090975136842
 20
0.0
 30
0.0
 40
6.0
  0
CIRCLE
  5
6C5
  8
SIZE
  6
CONTINUOUS
 62
    30
 39
50.0
 10
588.66090975136842
 20
-208.0
 30
0.0
 40
6.0
  0
LINE
  5
6C6
  8
SIZE
  6
CONTINUOUS
 10
340.0
 20
-0.0000000000000057
 30
0.0
 11
608.66090975136842
 21
-0.0000000000000818
 31
0.0
  0
LINE
  5
6C7
  8
SIZE
  6
CONTINUOUS
 10
227.0
 20
-208.0
 30
0.0
 11
608.66090975136842
 21
-208.0
 31
0.0
  0
LINE
  5
6C8
  8
SIZE
  6
CONTINUOUS
 10
588.66090975136842
 20
-0.0000000000000761
 30
0.0
 11
588.66090975136842
 21
-208.0
 31
0.0
  0
TEXT
  5
6C9
  8
SIZE
  6
CONTINUOUS
 10
563.66090975136842
 20
-178.05714285714279
 30
0.0
 40
64.0
  1
208
 50
90.0
 41
0.9
  0
TEXT
  5
6CA
  8
ETC
  6
CONTINUOUS
 62
    61
 10
1035.5316484723421
 20
563.64639212065117
 30
0.0
 40
50.0
  1
V-604KL6-BL
 41
0.9
  0
TEXT
  5
6CB
  8
ETC
  6
CONTINUOUS
 62
    61
 10
1038.099095094019
 20
643.20613240229522
 30
0.0
 40
50.0
  1
V-603KL6-BL
 41
0.9
  0
TEXT
  5
6CC
  8
ETC
  6
CONTINUOUS
 62
    61
 10
901.38458296665544
 20
833.25304525659521
 30
0.0
 40
64.0
  1
V-603KL7-BL_1
 41
0.9
  0
TEXT
  5
6CD
  8
ETC
  6
CONTINUOUS
 62
    61
 10
905.92928996665546
 20
723.95041525659519
 30
0.0
 40
64.0
  1
換気扇
 41
0.9
  0
LINE
  5
6CF
  8
BASIS
  6
DASHDOT
 62
     6
 39
50.0
 10
136.21156643014359
 20
-238.0
 30
0.0
 11
214.10942870056161
 21
-238.0
 31
0.0
  0
TEXT
  5
826
  8
ETC
  6
CONTINUOUS
 62
    61
 10
1035.5316484723421
 20
398.29619156507749
 30
0.0
 40
50.0
  1
V-604KL7-BL
 41
0.9
  0
TEXT
  5
827
  8
ETC
  6
CONTINUOUS
 62
    61
 10
1038.099095094019
 20
477.85593184672138
 30
0.0
 40
50.0
  1
V-603KL7-BL
 41
0.9
  0
ENDSEC
  0
EOF
