  0
SECTION
  2
HEADER
  9
$ACADVER
  1
AC1009
  9
$INSBASE
 10
0.0
 20
0.0
 30
0.0
  9
$EXTMIN
 10
-709.080873
 20
-714.60153800000001
 30
0.0
  9
$EXTMAX
 10
1259.488772321253
 20
567.94640279495582
 30
0.0
  9
$LIMMIN
 10
-2970.0
 20
-2100.0
  9
$LIMMAX
 10
2970.0
 20
2100.0
  9
$ORTHOMODE
 70
     1
  9
$REGENMODE
 70
     0
  9
$FILLMODE
 70
     1
  9
$QTEXTMODE
 70
     0
  9
$MIRRTEXT
 70
     0
  9
$DRAGMODE
 70
     2
  9
$LTSCALE
 40
20.0
  9
$OSMODE
 70
    32
  9
$ATTMODE
 70
     1
  9
$TEXTSIZE
 40
64.0
  9
$TRACEWID
 40
0.05
  9
$TEXTSTYLE
  7
STANDARD
  9
$CLAYER
  8
ETC
  9
$CELTYPE
  6
CONTINUOUS
  9
$CECOLOR
 62
    30
  9
$DIMSCALE
 40
1.0
  9
$DIMASZ
 40
12.0
  9
$DIMEXO
 40
20.0
  9
$DIMDLI
 40
200.0
  9
$DIMRND
 40
0.0
  9
$DIMDLE
 40
0.0
  9
$DIMEXE
 40
20.0
  9
$DIMTP
 40
0.0
  9
$DIMTM
 40
0.0
  9
$DIMTXT
 40
64.0
  9
$DIMCEN
 40
0.09
  9
$DIMTSZ
 40
0.0
  9
$DIMTOL
 70
     0
  9
$DIMLIM
 70
     0
  9
$DIMTIH
 70
     0
  9
$DIMTOH
 70
     0
  9
$DIMSE1
 70
     0
  9
$DIMSE2
 70
     0
  9
$DIMTAD
 70
     1
  9
$DIMZIN
 70
     8
  9
$DIMBLK
  1
DOT1
  9
$DIMASO
 70
     1
  9
$DIMSHO
 70
     0
  9
$DIMPOST
  1

  9
$DIMAPOST
  1

  9
$DIMALT
 70
     0
  9
$DIMALTD
 70
     2
  9
$DIMALTF
 40
25.399999999999999
  9
$DIMLFAC
 40
1.0
  9
$DIMTOFL
 70
     1
  9
$DIMTVP
 40
0.0
  9
$DIMTIX
 70
     1
  9
$DIMSOXD
 70
     0
  9
$DIMSAH
 70
     1
  9
$DIMBLK1
  1
ORIGIN
  9
$DIMBLK2
  1
ORIGIN
  9
$DIMSTYLE
  2
STANDARD
  9
$DIMCLRD
 70
     7
  9
$DIMCLRE
 70
     7
  9
$DIMCLRT
 70
     7
  9
$DIMTFAC
 40
1.0
  9
$DIMGAP
 40
25.0
  9
$LUNITS
 70
     2
  9
$LUPREC
 70
     4
  9
$SKETCHINC
 40
0.1
  9
$FILLETRAD
 40
4.0
  9
$AUNITS
 70
     1
  9
$AUPREC
 70
     3
  9
$MENU
  1
ACAD
  9
$ELEVATION
 40
0.0
  9
$PELEVATION
 40
0.0
  9
$THICKNESS
 40
50.0
  9
$LIMCHECK
 70
     0
  9
$BLIPMODE
 70
     0
  9
$CHAMFERA
 40
0.0
  9
$CHAMFERB
 40
0.0
  9
$SKPOLY
 70
     0
  9
$TDCREATE
 40
2453091.401852651
  9
$TDUPDATE
 40
2454743.5836005672
  9
$TDINDWG
 40
0.0135473032
  9
$TDUSRTIMER
 40
0.0135473032
  9
$USRTIMER
 70
     1
  9
$ANGBASE
 50
0.0
  9
$ANGDIR
 70
     0
  9
$PDMODE
 70
     3
  9
$PDSIZE
 40
-2.0
  9
$PLINEWID
 40
0.0
  9
$COORDS
 70
     1
  9
$SPLFRAME
 70
     0
  9
$SPLINETYPE
 70
     6
  9
$SPLINESEGS
 70
     8
  9
$ATTDIA
 70
     0
  9
$ATTREQ
 70
     1
  9
$HANDLING
 70
     1
  9
$HANDSEED
  5
5A1
  9
$SURFTAB1
 70
     6
  9
$SURFTAB2
 70
     6
  9
$SURFTYPE
 70
     6
  9
$SURFU
 70
     6
  9
$SURFV
 70
     6
  9
$UCSNAME
  2

  9
$UCSORG
 10
0.0
 20
0.0
 30
0.0
  9
$UCSXDIR
 10
1.0
 20
0.0
 30
0.0
  9
$UCSYDIR
 10
0.0
 20
1.0
 30
0.0
  9
$PUCSNAME
  2

  9
$PUCSORG
 10
0.0
 20
0.0
 30
0.0
  9
$PUCSXDIR
 10
1.0
 20
0.0
 30
0.0
  9
$PUCSYDIR
 10
0.0
 20
1.0
 30
0.0
  9
$USERI1
 70
     0
  9
$USERI2
 70
     0
  9
$USERI3
 70
     0
  9
$USERI4
 70
     0
  9
$USERI5
 70
     0
  9
$USERR1
 40
20.0
  9
$USERR2
 40
0.0
  9
$USERR3
 40
0.0
  9
$USERR4
 40
0.0
  9
$USERR5
 40
0.0
  9
$WORLDVIEW
 70
     1
  9
$SHADEDGE
 70
     3
  9
$SHADEDIF
 70
    70
  9
$TILEMODE
 70
     1
  9
$MAXACTVP
 70
    48
  9
$PLIMCHECK
 70
     0
  9
$PEXTMIN
 10
-1.0000000000000000E+020
 20
-1.0000000000000000E+020
 30
-1.0000000000000000E+020
  9
$PEXTMAX
 10
1.0000000000000000E+020
 20
1.0000000000000000E+020
 30
1.0000000000000000E+020
  9
$PLIMMIN
 10
0.0
 20
0.0
  9
$PLIMMAX
 10
12.0
 20
9.0
  9
$UNITMODE
 70
     0
  9
$VISRETAIN
 70
     0
  9
$PLINEGEN
 70
     0
  9
$PSLTSCALE
 70
     0
  0
ENDSEC
  0
SECTION
  2
TABLES
  0
TABLE
  2
VPORT
 70
     1
  0
VPORT
  2
*ACTIVE
 70
     0
 10
0.0
 20
0.0
 11
1.0
 21
1.0
 12
256.94198170666277
 22
34.929678676831941
 13
0.0
 23
0.0
 14
1.0
 24
1.0
 15
0.0
 25
0.0
 16
0.0
 26
0.0
 36
1.0
 17
0.0
 27
0.0
 37
0.0
 40
1384.111017936995
 41
1.8033946251768029
 42
50.0
 43
0.0
 44
0.0
 50
0.0
 51
0.0
 71
     0
 72
  1000
 73
     1
 74
     0
 75
     0
 76
     0
 77
     0
 78
     0
  0
ENDTAB
  0
TABLE
  2
LTYPE
 70
     4
  0
LTYPE
  2
CONTINUOUS
 70
     0
  3
実線
 72
    65
 73
     0
 40
0.0
  0
LTYPE
  2
DASHDOT
 70
     0
  3
____ _ ____ _ ____ _ ____ _ ____ _ ____ _ ____
 72
    65
 73
     4
 40
5.5
 49
4.0
 49
-0.6
 49
0.3
 49
-0.6
  0
LTYPE
  2
CONTINOUS
 70
     0
  3
Solid line
 72
    65
 73
     0
 40
0.0
  0
ENDTAB
  0
TABLE
  2
LAYER
 70
    12
  0
LAYER
  2
0
 70
     0
 62
     7
  6
CONTINUOUS
  0
LAYER
  2
SIZE
 70
     0
 62
    30
  6
CONTINUOUS
  0
LAYER
  2
BASIS
 70
     0
 62
     6
  6
DASHDOT
  0
LAYER
  2
OUTLINE
 70
     0
 62
     3
  6
CONTINUOUS
  0
LAYER
  2
DETAIL
 70
     0
 62
     5
  6
CONTINUOUS
  0
LAYER
  2
ARRANGE
 70
     0
 62
     1
  6
CONTINUOUS
  0
LAYER
  2
DEFPOINTS
 70
     0
 62
     7
  6
CONTINUOUS
  0
LAYER
  2
ETC
 70
     0
 62
    61
  6
CONTINUOUS
  0
LAYER
  2
FIX
 70
     0
 62
    11
  6
CONTINUOUS
  0
LAYER
  2
NOTE
 70
     0
 62
     4
  6
CONTINUOUS
  0
LAYER
  2
SERVICESPACE
 70
     0
 62
     2
  6
DASHDOT
  0
LAYER
  2
SYMBOLLINE
 70
     0
 62
    15
  6
CONTINUOUS
  0
ENDTAB
  0
TABLE
  2
STYLE
 70
     2
  0
STYLE
  2
STANDARD
 70
     0
 40
64.0
 41
0.9
 50
0.0
 71
     0
 42
64.0
  3
SIMPLEX.shx
  4
BIGFONT.shx
  0
STYLE
  2
ANNOTATIVE
 70
     0
 40
0.0
 41
1.0
 50
0.0
 71
     0
 42
0.2
  3
txt
  4

  0
ENDTAB
  0
TABLE
  2
VIEW
 70
     1
  0
VIEW
  2
ALL
 70
     0
 40
4282.6198079999967
 10
0.0
 20
41.309903999999989
 41
5940.0
 11
0.0
 21
0.0
 31
1.0
 12
0.0
 22
0.0
 32
0.0
 42
50.0
 43
0.0
 44
0.0
 50
0.0
 71
     0
  0
ENDTAB
  0
TABLE
  2
UCS
 70
     0
  0
ENDTAB
  0
TABLE
  2
APPID
 70
     5
  0
APPID
  2
ACAD
 70
     0
  0
APPID
  2
ACADANNOTATIVE
 70
     0
  0
APPID
  2
ACAD_MLEADERVER
 70
     0
  0
APPID
  2
AUTOCAD_POSTSCRIPT_FIGURE
 70
     0
  0
APPID
  2
ACAD_EXEMPT_FROM_CAD_STANDARDS
 70
     0
  0
ENDTAB
  0
TABLE
  2
DIMSTYLE
 70
     2
  0
DIMSTYLE
  2
STANDARD
 70
     0
  3

  4

  5

  6

  7

 40
1.0
 41
0.18
 42
0.0625
 43
0.38
 44
0.18
 45
0.0
 46
0.0
 47
0.0
 48
0.0
140
0.18
141
0.09
142
0.0
143
25.399999999999999
144
1.0
145
0.0
146
1.0
147
0.09
 71
     0
 72
     0
 73
     1
 74
     1
 75
     0
 76
     0
 77
     0
 78
     0
170
     0
171
     2
172
     0
173
     0
174
     0
175
     0
176
     7
177
     7
178
     7
  0
DIMSTYLE
  2
ANNOTATIVE
 70
     0
  3

  4

  5

  6

  7

 40
1.0
 41
0.18
 42
0.0625
 43
0.38
 44
0.18
 45
0.0
 46
0.0
 47
0.0
 48
0.0
140
0.18
141
0.09
142
0.0
143
25.399999999999999
144
1.0
145
0.0
146
1.0
147
0.09
 71
     0
 72
     0
 73
     1
 74
     1
 75
     0
 76
     0
 77
     0
 78
     0
170
     0
171
     2
172
     0
173
     0
174
     0
175
     0
176
     0
177
     0
178
     0
  0
ENDTAB
  0
ENDSEC
  0
SECTION
  2
BLOCKS
  0
BLOCK
  8
0
  2
$MODEL_SPACE
 70
     0
 10
0.0
 20
0.0
 30
0.0
  3
$MODEL_SPACE
  1

  0
ENDBLK
  5
544
  8
0
  0
BLOCK
 67
     1
  8
0
  2
$PAPER_SPACE
 70
     0
 10
0.0
 20
0.0
 30
0.0
  3
$PAPER_SPACE
  1

  0
ENDBLK
  5
540
 67
     1
  8
0
  0
BLOCK
  8
0
  2
DOT1
 70
     0
 10
0.0
 20
0.0
 30
0.0
  3
DOT1
  1

  0
CIRCLE
  5
3E8
  8
SIZE
  6
CONTINUOUS
 62
     7
 10
0.0
 20
0.0
 30
0.0
 40
3.0
  0
ENDBLK
  5
3E9
  8
0
  0
BLOCK
  8
0
  2
_ORIGIN
 70
     0
 10
0.0
 20
0.0
 30
0.0
  3
_ORIGIN
  1

  0
CIRCLE
  5
3EC
  8
0
  6
CONTINUOUS
 62
     7
 10
0.0
 20
0.0
 30
0.0
 40
0.5
  0
LINE
  5
3ED
  8
0
  6
CONTINUOUS
 62
     7
 10
0.0
 20
0.0
 30
0.0
 11
-1.0
 21
0.0
 31
0.0
  0
ENDBLK
  5
3EE
  8
0
  0
BLOCK
  8
0
 62
    30
  2
_NONE
 70
     0
 10
0.0
 20
0.0
 30
0.0
  3
_NONE
  1

  0
ENDBLK
  5
3F1
  8
0
 62
    30
  0
BLOCK
  8
0
 62
    30
  2
_OPEN30
 70
     0
 10
0.0
 20
0.0
 30
0.0
  3
_OPEN30
  1

  0
LINE
  5
3F4
  8
0
  6
BYBLOCK
 62
     0
 10
-1.0
 20
0.26794919
 30
0.0
 11
0.0
 21
0.0
 31
0.0
  0
LINE
  5
3F5
  8
0
  6
BYBLOCK
 62
     0
 10
0.0
 20
0.0
 30
0.0
 11
-1.0
 21
-0.26794919
 31
0.0
  0
LINE
  5
3F6
  8
0
  6
BYBLOCK
 62
     0
 10
0.0
 20
0.0
 30
0.0
 11
-1.0
 21
0.0
 31
0.0
  0
ENDBLK
  5
3F7
  8
0
 62
    30
  0
ENDSEC
  0
SECTION
  2
ENTITIES
  0
LINE
  5
3F8
  8
BASIS
  6
DASHDOT
 62
     6
 10
0.0
 20
-714.60153800000001
 30
0.0
 11
0.0
 21
48.397177999999982
 31
0.0
  0
LINE
  5
3F9
  8
DETAIL
  6
CONTINOUS
 62
     5
 10
300.0
 20
0.0
 30
0.0
 11
300.0
 21
-640.0
 31
0.0
  0
LINE
  5
3FA
  8
DETAIL
  6
CONTINOUS
 62
     5
 10
279.99878499999988
 20
-648.0
 30
0.0
 11
292.0
 21
-648.0
 31
0.0
  0
ARC
  5
3FB
  8
DETAIL
  6
CONTINOUS
 62
     5
 10
-292.0
 20
-640.0
 30
0.0
 40
8.0
 50
180.0
 51
270.0
  0
LINE
  5
3FC
  8
DETAIL
  6
CONTINOUS
 62
     5
 10
279.99878499999988
 20
-648.0
 30
0.0
 11
279.99878499999988
 21
-650.0
 31
0.0
  0
ARC
  5
3FD
  8
DETAIL
  6
CONTINOUS
 62
     5
 10
292.0
 20
-640.0
 30
0.0
 40
8.0
 50
270.0
 51
0.0
  0
LINE
  5
3FE
  8
DETAIL
  6
CONTINOUS
 62
     5
 10
-292.0
 20
-648.0
 30
0.0
 11
-280.001215
 21
-648.0
 31
0.0
  0
LINE
  5
3FF
  8
DETAIL
  6
CONTINOUS
 62
     5
 10
-280.001215
 20
-650.0
 30
0.0
 11
279.99878499999988
 21
-650.0
 31
0.0
  0
LINE
  5
400
  8
DETAIL
  6
CONTINOUS
 62
     5
 10
-300.0
 20
0.0
 30
0.0
 11
-300.0
 21
-640.0
 31
0.0
  0
LINE
  5
401
  8
DETAIL
  6
CONTINOUS
 62
     5
 10
-300.0
 20
0.0
 30
0.0
 11
-74.0
 21
0.0
 31
0.0
  0
LINE
  5
402
  8
NOTE
  6
CONTINUOUS
 62
     4
 10
220.0
 20
0.0
 30
0.0
 11
260.0
 21
0.0
 31
0.0
  0
LINE
  5
403
  8
DETAIL
  6
CONTINOUS
 62
     5
 10
-74.0
 20
0.0
 30
0.0
 11
300.0
 21
0.0
 31
0.0
  0
LINE
  5
404
  8
DETAIL
  6
CONTINOUS
 62
     5
 10
-280.0
 20
-455.0
 30
0.0
 11
0.0
 21
-455.0
 31
0.0
  0
LINE
  5
405
  8
DETAIL
  6
CONTINOUS
 62
     5
 10
280.0
 20
-455.0
 30
0.0
 11
0.0
 21
-455.0
 31
0.0
  0
LINE
  5
406
  8
DETAIL
  6
CONTINOUS
 62
     5
 10
-280.0
 20
0.0
 30
0.0
 11
-280.0
 21
-650.0
 31
0.0
  0
LINE
  5
407
  8
DETAIL
  6
CONTINOUS
 62
     5
 10
280.0
 20
0.0
 30
0.0
 11
280.0
 21
-650.0
 31
0.0
  0
LINE
  5
408
  8
NOTE
  6
CONTINUOUS
 62
     4
 10
-240.0
 20
-20.0
 30
0.0
 11
-240.0
 21
20.0
 31
0.0
  0
LINE
  5
409
  8
NOTE
  6
CONTINUOUS
 62
     4
 10
-260.0
 20
0.0
 30
0.0
 11
-220.0
 21
0.0
 31
0.0
  0
LINE
  5
40A
  8
NOTE
  6
CONTINUOUS
 62
     4
 10
240.0
 20
-20.0
 30
0.0
 11
240.0
 21
20.0
 31
0.0
  0
LINE
  5
40B
  8
NOTE
  6
CONTINUOUS
 62
     4
 10
220.0
 20
0.0
 30
0.0
 11
260.0
 21
0.0
 31
0.0
  0
CIRCLE
  5
40C
  8
FIX
  6
CONTINUOUS
 62
    11
 10
-240.0
 20
0.0
 30
0.0
 40
4.0
  0
CIRCLE
  5
40D
  8
FIX
  6
CONTINUOUS
 62
    11
 10
240.0
 20
0.0
 30
0.0
 40
4.0
  0
TEXT
  5
40E
  8
NOTE
  6
CONTINUOUS
 62
     4
 10
-674.54511999999966
 20
236.28369199999989
 30
0.0
 40
64.0
  1
4-φ8
 41
0.9
  0
LINE
  5
40F
  8
NOTE
  6
CONTINUOUS
 62
     4
 10
-709.080873
 20
204.62565799999999
 30
0.0
 11
-410.03693999999979
 21
204.62565799999999
 31
0.0
  0
LINE
  5
410
  8
NOTE
  6
CONTINUOUS
 62
     4
 10
-240.0
 20
0.0
 30
0.0
 11
-410.03693999999979
 21
204.62565799999999
 31
0.0
  0
LINE
  5
411
  8
NOTE
  6
CONTINUOUS
 62
     4
 10
-272.25367499999987
 20
23.657987999999971
 30
0.0
 11
-240.0
 21
0.0
 31
0.0
  0
LINE
  5
412
  8
NOTE
  6
CONTINUOUS
 62
     4
 10
-240.0
 20
0.0
 30
0.0
 11
-256.10350799999992
 21
36.615257
 31
0.0
  0
POINT
  5
413
  8
ARRANGE
  6
CONTINUOUS
 62
     1
 10
0.0
 20
0.0
 30
0.0
  0
CIRCLE
  5
414
  8
ARRANGE
  6
CONTINUOUS
 62
     1
 10
0.0
 20
0.0
 30
0.0
 40
40.0
  0
LINE
  5
415
  8
OUTLINE
  6
CONTINOUS
 62
     3
 10
-300.0
 20
0.0
 30
0.0
 11
-300.0
 21
-640.0
 31
0.0
  0
LINE
  5
416
  8
OUTLINE
  6
CONTINOUS
 62
     3
 10
-292.0
 20
-648.0
 30
0.0
 11
-280.0
 21
-648.0
 31
0.0
  0
LINE
  5
417
  8
OUTLINE
  6
CONTINOUS
 62
     3
 10
-280.001215
 20
-650.0
 30
0.0
 11
279.99878499999988
 21
-650.0
 31
0.0
  0
LINE
  5
418
  8
OUTLINE
  6
CONTINOUS
 62
     3
 10
-280.0
 20
-648.0
 30
0.0
 11
-280.0
 21
-650.0
 31
0.0
  0
LINE
  5
419
  8
OUTLINE
  6
CONTINOUS
 62
     3
 10
-300.0
 20
0.0
 30
0.0
 11
300.0
 21
0.0
 31
0.0
  0
ARC
  5
41A
  8
OUTLINE
  6
CONTINOUS
 62
     3
 10
-292.0
 20
-640.0
 30
0.0
 40
8.0
 50
180.0
 51
270.0
  0
ARC
  5
41B
  8
OUTLINE
  6
CONTINOUS
 62
     3
 10
292.0
 20
-640.0
 30
0.0
 40
8.0
 50
270.0
 51
0.0
  0
LINE
  5
41C
  8
OUTLINE
  6
CONTINOUS
 62
     3
 10
280.0
 20
-648.0
 30
0.0
 11
280.0
 21
-650.0
 31
0.0
  0
LINE
  5
41D
  8
OUTLINE
  6
CONTINOUS
 62
     3
 10
292.0
 20
-648.0
 30
0.0
 11
280.0
 21
-648.0
 31
0.0
  0
LINE
  5
41E
  8
OUTLINE
  6
CONTINOUS
 62
     3
 10
300.0
 20
0.0
 30
0.0
 11
300.0
 21
-640.0
 31
0.0
  0
LINE
  5
41F
  8
DETAIL
  6
CONTINUOUS
 62
     5
 10
280.0
 20
-590.0
 30
0.0
 11
-280.0
 21
-590.0
 31
0.0
  0
LINE
  5
420
  8
DETAIL
  6
CONTINUOUS
 62
     5
 10
120.5
 20
-190.0
 30
0.0
 11
92.0
 21
-223.0
 31
0.0
  0
LINE
  5
421
  8
DETAIL
  6
CONTINUOUS
 62
     5
 10
149.0
 20
-190.0
 30
0.0
 11
92.0
 21
-256.0
 31
0.0
  0
LINE
  5
422
  8
DETAIL
  6
CONTINUOUS
 62
     5
 10
177.5
 20
-190.0
 30
0.0
 11
92.0
 21
-289.0
 31
0.0
  0
LINE
  5
423
  8
DETAIL
  6
CONTINUOUS
 62
     5
 10
206.0
 20
-190.0
 30
0.0
 11
92.0
 21
-322.0
 31
0.0
  0
LINE
  5
424
  8
DETAIL
  6
CONTINUOUS
 62
     5
 10
234.5
 20
-190.0
 30
0.0
 11
92.0
 21
-355.0
 31
0.0
  0
LINE
  5
425
  8
DETAIL
  6
CONTINUOUS
 62
     5
 10
263.0
 20
-190.0
 30
0.0
 11
92.0
 21
-388.0
 31
0.0
  0
LINE
  5
426
  8
DETAIL
  6
CONTINUOUS
 62
     5
 10
280.0
 20
-203.315789
 30
0.0
 11
92.0
 21
-421.0
 31
0.0
  0
LINE
  5
427
  8
DETAIL
  6
CONTINUOUS
 62
     5
 10
280.0
 20
-236.216374
 30
0.0
 11
92.0
 21
-455.0
 31
0.0
  0
LINE
  5
428
  8
DETAIL
  6
CONTINUOUS
 62
     5
 10
280.0
 20
-269.19649099999992
 30
0.0
 11
120.5
 21
-455.0
 31
0.0
  0
LINE
  5
429
  8
DETAIL
  6
CONTINUOUS
 62
     5
 10
280.0
 20
-302.16666700000002
 30
0.0
 11
149.0
 21
-455.0
 31
0.0
  0
LINE
  5
42A
  8
DETAIL
  6
CONTINUOUS
 62
     5
 10
280.0
 20
-335.11695900000001
 30
0.0
 11
177.5
 21
-455.0
 31
0.0
  0
LINE
  5
42B
  8
DETAIL
  6
CONTINUOUS
 62
     5
 10
280.0
 20
-368.01754399999987
 30
0.0
 11
206.0
 21
-455.0
 31
0.0
  0
LINE
  5
42C
  8
DETAIL
  6
CONTINUOUS
 62
     5
 10
280.0
 20
-400.71929799999998
 30
0.0
 11
234.5
 21
-455.0
 31
0.0
  0
LINE
  5
42D
  8
DETAIL
  6
CONTINUOUS
 62
     5
 10
234.5
 20
-190.0
 30
0.0
 11
280.0
 21
-242.68421099999989
 31
0.0
  0
LINE
  5
42E
  8
DETAIL
  6
CONTINUOUS
 62
     5
 10
280.0
 20
-275.684211
 30
0.0
 11
206.0
 21
-190.0
 31
0.0
  0
LINE
  5
42F
  8
DETAIL
  6
CONTINUOUS
 62
     5
 10
177.5
 20
-190.0
 30
0.0
 11
280.0
 21
-308.684211
 31
0.0
  0
LINE
  5
430
  8
DETAIL
  6
CONTINUOUS
 62
     5
 10
149.0
 20
-190.0
 30
0.0
 11
280.0
 21
-341.684211
 31
0.0
  0
LINE
  5
431
  8
DETAIL
  6
CONTINUOUS
 62
     5
 10
120.5
 20
-190.0
 30
0.0
 11
280.0
 21
-374.684211
 31
0.0
  0
LINE
  5
432
  8
DETAIL
  6
CONTINUOUS
 62
     5
 10
92.0
 20
-190.0
 30
0.0
 11
280.0
 21
-407.684211
 31
0.0
  0
LINE
  5
433
  8
DETAIL
  6
CONTINUOUS
 62
     5
 10
280.0
 20
-440.684211
 30
0.0
 11
92.0
 21
-223.0
 31
0.0
  0
LINE
  5
434
  8
DETAIL
  6
CONTINUOUS
 62
     5
 10
92.0
 20
-256.0
 30
0.0
 11
263.0
 21
-455.0
 31
0.0
  0
LINE
  5
435
  8
DETAIL
  6
CONTINUOUS
 62
     5
 10
234.5
 20
-455.0
 30
0.0
 11
92.0
 21
-289.0
 31
0.0
  0
LINE
  5
436
  8
DETAIL
  6
CONTINUOUS
 62
     5
 10
92.0
 20
-322.0
 30
0.0
 11
206.0
 21
-455.0
 31
0.0
  0
LINE
  5
437
  8
DETAIL
  6
CONTINUOUS
 62
     5
 10
177.5
 20
-455.0
 30
0.0
 11
92.0
 21
-355.0
 31
0.0
  0
LINE
  5
438
  8
DETAIL
  6
CONTINUOUS
 62
     5
 10
92.0
 20
-388.0
 30
0.0
 11
149.0
 21
-455.0
 31
0.0
  0
LINE
  5
439
  8
DETAIL
  6
CONTINUOUS
 62
     5
 10
120.5
 20
-455.0
 30
0.0
 11
92.0
 21
-421.0
 31
0.0
  0
LINE
  5
43A
  8
DETAIL
  6
CONTINUOUS
 62
     5
 10
-234.5
 20
-455.0
 30
0.0
 11
-280.0
 21
-400.71929799999998
 31
0.0
  0
LINE
  5
43B
  8
DETAIL
  6
CONTINUOUS
 62
     5
 10
-280.0
 20
-368.01754399999987
 30
0.0
 11
-206.0
 21
-455.0
 31
0.0
  0
LINE
  5
43C
  8
DETAIL
  6
CONTINUOUS
 62
     5
 10
-177.5
 20
-455.0
 30
0.0
 11
-280.0
 21
-335.11695900000001
 31
0.0
  0
LINE
  5
43D
  8
DETAIL
  6
CONTINUOUS
 62
     5
 10
-280.0
 20
-302.16666700000002
 30
0.0
 11
-149.0
 21
-455.0
 31
0.0
  0
LINE
  5
43E
  8
DETAIL
  6
CONTINUOUS
 62
     5
 10
-120.5
 20
-455.0
 30
0.0
 11
-280.0
 21
-269.19649099999992
 31
0.0
  0
LINE
  5
43F
  8
DETAIL
  6
CONTINUOUS
 62
     5
 10
-280.0
 20
-236.216374
 30
0.0
 11
-92.0
 21
-455.0
 31
0.0
  0
LINE
  5
440
  8
DETAIL
  6
CONTINUOUS
 62
     5
 10
-92.0
 20
-421.0
 30
0.0
 11
-280.0
 21
-203.315789
 31
0.0
  0
LINE
  5
441
  8
DETAIL
  6
CONTINUOUS
 62
     5
 10
-263.0
 20
-190.0
 30
0.0
 11
-92.0
 21
-388.0
 31
0.0
  0
LINE
  5
442
  8
DETAIL
  6
CONTINUOUS
 62
     5
 10
-234.5
 20
-190.0
 30
0.0
 11
-92.0
 21
-355.0
 31
0.0
  0
LINE
  5
443
  8
DETAIL
  6
CONTINUOUS
 62
     5
 10
-206.0
 20
-190.0
 30
0.0
 11
-92.0
 21
-322.0
 31
0.0
  0
LINE
  5
444
  8
DETAIL
  6
CONTINUOUS
 62
     5
 10
-177.5
 20
-190.0
 30
0.0
 11
-92.0
 21
-289.0
 31
0.0
  0
LINE
  5
445
  8
DETAIL
  6
CONTINUOUS
 62
     5
 10
-92.0
 20
-256.0
 30
0.0
 11
-149.0
 21
-190.0
 31
0.0
  0
LINE
  5
446
  8
DETAIL
  6
CONTINUOUS
 62
     5
 10
-120.5
 20
-190.0
 30
0.0
 11
-92.0
 21
-223.0
 31
0.0
  0
LINE
  5
447
  8
DETAIL
  6
CONTINUOUS
 62
     5
 10
-92.0
 20
-421.0
 30
0.0
 11
-120.5
 21
-455.0
 31
0.0
  0
LINE
  5
448
  8
DETAIL
  6
CONTINUOUS
 62
     5
 10
-92.0
 20
-388.0
 30
0.0
 11
-149.0
 21
-455.0
 31
0.0
  0
LINE
  5
449
  8
DETAIL
  6
CONTINUOUS
 62
     5
 10
-92.0
 20
-355.0
 30
0.0
 11
-177.5
 21
-455.0
 31
0.0
  0
LINE
  5
44A
  8
DETAIL
  6
CONTINUOUS
 62
     5
 10
-92.0
 20
-322.0
 30
0.0
 11
-206.0
 21
-455.0
 31
0.0
  0
LINE
  5
44B
  8
DETAIL
  6
CONTINUOUS
 62
     5
 10
-92.0
 20
-289.0
 30
0.0
 11
-234.5
 21
-455.0
 31
0.0
  0
LINE
  5
44C
  8
DETAIL
  6
CONTINUOUS
 62
     5
 10
-92.0
 20
-256.0
 30
0.0
 11
-263.0
 21
-455.0
 31
0.0
  0
LINE
  5
44D
  8
DETAIL
  6
CONTINUOUS
 62
     5
 10
-92.0
 20
-223.0
 30
0.0
 11
-280.0
 21
-440.684211
 31
0.0
  0
LINE
  5
44E
  8
DETAIL
  6
CONTINUOUS
 62
     5
 10
-92.0
 20
-190.0
 30
0.0
 11
-280.0
 21
-407.684211
 31
0.0
  0
LINE
  5
44F
  8
DETAIL
  6
CONTINUOUS
 62
     5
 10
-120.5
 20
-190.0
 30
0.0
 11
-280.0
 21
-374.684211
 31
0.0
  0
LINE
  5
450
  8
DETAIL
  6
CONTINUOUS
 62
     5
 10
-149.0
 20
-190.0
 30
0.0
 11
-280.0
 21
-341.684211
 31
0.0
  0
LINE
  5
451
  8
DETAIL
  6
CONTINUOUS
 62
     5
 10
-177.5
 20
-190.0
 30
0.0
 11
-280.0
 21
-308.684211
 31
0.0
  0
LINE
  5
452
  8
DETAIL
  6
CONTINUOUS
 62
     5
 10
-206.0
 20
-190.0
 30
0.0
 11
-280.0
 21
-275.684211
 31
0.0
  0
LINE
  5
453
  8
DETAIL
  6
CONTINUOUS
 62
     5
 10
-234.5
 20
-190.0
 30
0.0
 11
-280.0
 21
-242.68421099999989
 31
0.0
  0
LINE
  5
454
  8
DETAIL
  6
CONTINUOUS
 62
     5
 10
-92.0
 20
-455.0
 30
0.0
 11
-92.0
 21
-190.0
 31
0.0
  0
LINE
  5
455
  8
DETAIL
  6
CONTINUOUS
 62
     5
 10
92.0
 20
-190.0
 30
0.0
 11
92.0
 21
-455.0
 31
0.0
  0
LINE
  5
456
  8
DETAIL
  6
CONTINOUS
 62
     5
 10
-280.0
 20
-190.0
 30
0.0
 11
280.0
 21
-190.0
 31
0.0
  0
LINE
  5
457
  8
DETAIL
  6
CONTINUOUS
 62
     5
 10
260.92625800000002
 20
-190.0
 30
0.0
 11
280.0
 21
-212.08538599999989
 31
0.0
  0
LINE
  5
458
  8
DETAIL
  6
CONTINUOUS
 62
     5
 10
280.0
 20
-431.85260599999992
 30
0.0
 11
260.597037
 21
-455.0
 31
0.0
  0
LINE
  5
459
  8
DETAIL
  6
CONTINUOUS
 62
     5
 10
-260.92625800000002
 20
-190.0
 30
0.0
 11
-280.0
 21
-212.08538599999989
 31
0.0
  0
LINE
  5
45A
  8
DETAIL
  6
CONTINUOUS
 62
     5
 10
-280.0
 20
-431.85260599999992
 30
0.0
 11
-260.597037
 21
-455.0
 31
0.0
  0
LINE
  5
45B
  8
SIZE
  6
CONTINUOUS
 62
    30
 10
240.0
 20
40.0
 30
0.0
 11
240.0
 21
209.32006100000001
 31
0.0
  0
LINE
  5
45C
  8
SIZE
  6
CONTINUOUS
 62
    30
 10
-240.0
 20
40.0
 30
0.0
 11
-240.0
 21
209.32006100000001
 31
0.0
  0
LINE
  5
45D
  8
SIZE
  6
CONTINUOUS
 62
    30
 10
228.0
 20
189.32006100000001
 30
0.0
 11
-228.0
 21
189.32006100000001
 31
0.0
  0
CIRCLE
  5
45E
  8
SIZE
  6
CONTINUOUS
 62
    30
 10
240.0
 20
189.32006100000001
 30
0.0
 40
6.0
  0
LINE
  5
45F
  8
SIZE
  6
CONTINUOUS
 62
    30
 10
240.0
 20
189.32006100000001
 30
0.0
 11
228.0
 21
189.32006100000001
 31
0.0
  0
CIRCLE
  5
460
  8
SIZE
  6
CONTINUOUS
 62
    30
 10
-240.0
 20
189.32006100000001
 30
0.0
 40
6.0
  0
LINE
  5
461
  8
SIZE
  6
CONTINUOUS
 62
    30
 10
-240.0
 20
189.32006100000001
 30
0.0
 11
-228.0
 21
189.32006100000001
 31
0.0
  0
TEXT
  5
462
  8
SIZE
  6
CONTINUOUS
 62
    30
 10
-74.057142857142836
 20
214.32006100000001
 30
0.0
 40
64.0
  1
480
 41
0.9
 72
     1
 11
0.0
 21
214.32006100000001
 31
0.0
  0
LINE
  5
466
  8
SIZE
  6
CONTINUOUS
 62
    30
 10
300.0
 20
20.0
 30
0.0
 11
300.0
 21
342.44929999999999
 31
0.0
  0
LINE
  5
467
  8
SIZE
  6
CONTINUOUS
 62
    30
 10
-300.0
 20
20.0
 30
0.0
 11
-300.0
 21
342.44929999999999
 31
0.0
  0
LINE
  5
468
  8
SIZE
  6
CONTINUOUS
 62
    30
 10
288.0
 20
322.44929999999982
 30
0.0
 11
-288.0
 21
322.44929999999982
 31
0.0
  0
CIRCLE
  5
469
  8
SIZE
  6
CONTINUOUS
 62
    30
 10
300.0
 20
322.44929999999982
 30
0.0
 40
6.0
  0
LINE
  5
46A
  8
SIZE
  6
CONTINUOUS
 62
    30
 10
300.0
 20
322.44929999999982
 30
0.0
 11
288.0
 21
322.44929999999982
 31
0.0
  0
CIRCLE
  5
46B
  8
SIZE
  6
CONTINUOUS
 62
    30
 10
-300.0
 20
322.44929999999982
 30
0.0
 40
6.0
  0
LINE
  5
46C
  8
SIZE
  6
CONTINUOUS
 62
    30
 10
-300.0
 20
322.44929999999982
 30
0.0
 11
-288.0
 21
322.44929999999982
 31
0.0
  0
TEXT
  5
46D
  8
SIZE
  6
CONTINUOUS
 62
    30
 10
-74.05714285714285
 20
347.44929999999982
 30
0.0
 40
64.0
  1
600
 41
0.9
 72
     1
 11
0.0
 21
347.44929999999982
 31
0.0
  0
LINE
  5
471
  8
SIZE
  6
CONTINUOUS
 62
    30
 10
-320.0
 20
0.0
 30
0.0
 11
-620.01242000000002
 21
0.0
 31
0.0
  0
LINE
  5
472
  8
SIZE
  6
CONTINUOUS
 62
    30
 10
-300.0
 20
-650.0
 30
0.0
 11
-620.01242000000002
 21
-650.0
 31
0.0
  0
LINE
  5
473
  8
SIZE
  6
CONTINUOUS
 62
    30
 10
-600.01242000000002
 20
-12.0
 30
0.0
 11
-600.01242000000002
 21
-638.0
 31
0.0
  0
CIRCLE
  5
474
  8
SIZE
  6
CONTINUOUS
 62
    30
 10
-600.01242000000002
 20
0.0
 30
0.0
 40
6.0
  0
LINE
  5
475
  8
SIZE
  6
CONTINUOUS
 62
    30
 10
-600.01242000000002
 20
0.0
 30
0.0
 11
-600.01242000000002
 21
-12.0
 31
0.0
  0
CIRCLE
  5
476
  8
SIZE
  6
CONTINUOUS
 62
    30
 10
-600.01242000000002
 20
-650.0
 30
0.0
 40
6.0
  0
LINE
  5
477
  8
SIZE
  6
CONTINUOUS
 62
    30
 10
-600.01242000000002
 20
-650.0
 30
0.0
 11
-600.01242000000002
 21
-638.0
 31
0.0
  0
TEXT
  5
478
  8
SIZE
  6
CONTINUOUS
 62
    30
 10
-625.01242000000002
 20
-399.05714285714282
 30
0.0
 40
64.0
  1
650
 50
90.0
 41
0.9
 72
     1
 11
-625.01242000000002
 21
-325.0
 31
0.0
  0
LINE
  5
47C
  8
DETAIL
  6
CONTINOUS
 62
     5
 10
-300.0
 20
-370.0
 30
0.0
 11
-280.0
 21
-370.0
 31
0.0
  0
LINE
  5
47D
  8
DETAIL
  6
CONTINOUS
 62
     5
 10
280.0
 20
-370.0
 30
0.0
 11
300.0
 21
-370.0
 31
0.0
  0
LINE
  5
47E
  8
SIZE
  6
CONTINUOUS
 62
    30
 10
-320.0
 20
0.0
 30
0.0
 11
-479.52539000000002
 21
0.0
 31
0.0
  0
LINE
  5
47F
  8
SIZE
  6
CONTINUOUS
 62
    30
 10
-320.0
 20
-370.0
 30
0.0
 11
-479.52539000000002
 21
-370.0
 31
0.0
  0
LINE
  5
480
  8
SIZE
  6
CONTINUOUS
 62
    30
 10
-459.52539000000002
 20
-12.0
 30
0.0
 11
-459.52539000000002
 21
-358.0
 31
0.0
  0
CIRCLE
  5
481
  8
SIZE
  6
CONTINUOUS
 62
    30
 10
-459.52539000000002
 20
0.0
 30
0.0
 40
6.0
  0
LINE
  5
482
  8
SIZE
  6
CONTINUOUS
 62
    30
 10
-459.52539000000002
 20
0.0
 30
0.0
 11
-459.52539000000002
 21
-12.0
 31
0.0
  0
CIRCLE
  5
483
  8
SIZE
  6
CONTINUOUS
 62
    30
 10
-459.52539000000002
 20
-370.0
 30
0.0
 40
6.0
  0
LINE
  5
484
  8
SIZE
  6
CONTINUOUS
 62
    30
 10
-459.52539000000002
 20
-370.0
 30
0.0
 11
-459.52539000000002
 21
-358.0
 31
0.0
  0
TEXT
  5
485
  8
SIZE
  6
CONTINUOUS
 62
    30
 10
-484.52539000000002
 20
-259.05714285714282
 30
0.0
 40
64.0
  1
370
 50
90.0
 41
0.9
 72
     1
 11
-484.52539000000002
 21
-185.0
 31
0.0
  0
TEXT
  5
489
  8
ETC
  6
CONTINUOUS
 62
    61
 10
532.63162946410944
 20
503.9464027949553
 30
0.0
 40
64.0
  1
V-603KL7-BL_6
 41
0.9
  0
TEXT
  5
48A
  8
ETC
  6
CONTINUOUS
 62
    61
 10
537.17633646410945
 20
394.64377279495523
 30
0.0
 40
64.0
  1
換気扇
 41
0.9
  0
TEXT
  5
48B
  8
ETC
  6
CONTINUOUS
 62
    61
 10
669.34614159147304
 20
313.8994899406552
 30
0.0
 40
50.0
  1
V-603KL6-BL
 41
0.9
  0
TEXT
  5
48C
  8
ETC
  6
CONTINUOUS
 62
    61
 10
666.77869496979611
 20
234.3397496590112
 30
0.0
 40
50.0
  1
V-604KL6-BL
 41
0.9
  0
TEXT
  5
565
  8
ETC
  6
CONTINUOUS
 62
    61
 10
669.34614159147304
 20
155.54780291141461
 30
0.0
 40
50.0
  1
V-603KL7-BL
 41
0.9
  0
TEXT
  5
566
  8
ETC
  6
CONTINUOUS
 62
    61
 10
666.77869496979611
 20
75.988062629770624
 30
0.0
 40
50.0
  1
V-604KL7-BL
 41
0.9
  0
ENDSEC
  0
EOF
