  0
SECTION
  2
HEADER
  9
$ACADVER
  1
AC1009
  9
$INSBASE
 10
0.0
 20
0.0
 30
0.0
  9
$EXTMIN
 10
-582.96968700000014
 20
-1035.3822290000001
 30
0.0
  9
$EXTMAX
 10
1579.454452874797
 20
722.25426567056115
 30
0.0
  9
$LIMMIN
 10
-2970.0
 20
-2100.0
  9
$LIMMAX
 10
2970.0
 20
2100.0
  9
$ORTHOMODE
 70
     0
  9
$REGENMODE
 70
     0
  9
$FILLMODE
 70
     1
  9
$QTEXTMODE
 70
     0
  9
$MIRRTEXT
 70
     0
  9
$DRAGMODE
 70
     2
  9
$LTSCALE
 40
20.0
  9
$OSMODE
 70
    32
  9
$ATTMODE
 70
     1
  9
$TEXTSIZE
 40
64.0
  9
$TRACEWID
 40
0.05
  9
$TEXTSTYLE
  7
STANDARD
  9
$CLAYER
  8
ETC
  9
$CELTYPE
  6
CONTINUOUS
  9
$CECOLOR
 62
    30
  9
$DIMSCALE
 40
1.0
  9
$DIMASZ
 40
12.0
  9
$DIMEXO
 40
20.0
  9
$DIMDLI
 40
200.0
  9
$DIMRND
 40
0.0
  9
$DIMDLE
 40
0.0
  9
$DIMEXE
 40
20.0
  9
$DIMTP
 40
0.0
  9
$DIMTM
 40
0.0
  9
$DIMTXT
 40
64.0
  9
$DIMCEN
 40
0.09
  9
$DIMTSZ
 40
0.0
  9
$DIMTOL
 70
     0
  9
$DIMLIM
 70
     0
  9
$DIMTIH
 70
     0
  9
$DIMTOH
 70
     0
  9
$DIMSE1
 70
     0
  9
$DIMSE2
 70
     0
  9
$DIMTAD
 70
     1
  9
$DIMZIN
 70
     8
  9
$DIMBLK
  1
DOT1
  9
$DIMASO
 70
     1
  9
$DIMSHO
 70
     0
  9
$DIMPOST
  1

  9
$DIMAPOST
  1

  9
$DIMALT
 70
     0
  9
$DIMALTD
 70
     2
  9
$DIMALTF
 40
25.399999999999999
  9
$DIMLFAC
 40
1.0
  9
$DIMTOFL
 70
     1
  9
$DIMTVP
 40
0.0
  9
$DIMTIX
 70
     1
  9
$DIMSOXD
 70
     0
  9
$DIMSAH
 70
     1
  9
$DIMBLK1
  1
ORIGIN
  9
$DIMBLK2
  1
ORIGIN
  9
$DIMSTYLE
  2
STANDARD
  9
$DIMCLRD
 70
     7
  9
$DIMCLRE
 70
     7
  9
$DIMCLRT
 70
     7
  9
$DIMTFAC
 40
1.0
  9
$DIMGAP
 40
25.0
  9
$LUNITS
 70
     2
  9
$LUPREC
 70
     4
  9
$SKETCHINC
 40
0.1
  9
$FILLETRAD
 40
4.0
  9
$AUNITS
 70
     1
  9
$AUPREC
 70
     3
  9
$MENU
  1
ACAD
  9
$ELEVATION
 40
0.0
  9
$PELEVATION
 40
0.0
  9
$THICKNESS
 40
50.0
  9
$LIMCHECK
 70
     0
  9
$BLIPMODE
 70
     0
  9
$CHAMFERA
 40
0.0
  9
$CHAMFERB
 40
0.0
  9
$SKPOLY
 70
     0
  9
$TDCREATE
 40
2453091.3854939472
  9
$TDUPDATE
 40
2454743.608656852
  9
$TDINDWG
 40
0.039140625
  9
$TDUSRTIMER
 40
0.039140625
  9
$USRTIMER
 70
     1
  9
$ANGBASE
 50
0.0
  9
$ANGDIR
 70
     0
  9
$PDMODE
 70
     3
  9
$PDSIZE
 40
-2.0
  9
$PLINEWID
 40
0.0
  9
$COORDS
 70
     1
  9
$SPLFRAME
 70
     0
  9
$SPLINETYPE
 70
     6
  9
$SPLINESEGS
 70
     8
  9
$ATTDIA
 70
     0
  9
$ATTREQ
 70
     1
  9
$HANDLING
 70
     1
  9
$HANDSEED
  5
1FB
  9
$SURFTAB1
 70
     6
  9
$SURFTAB2
 70
     6
  9
$SURFTYPE
 70
     6
  9
$SURFU
 70
     6
  9
$SURFV
 70
     6
  9
$UCSNAME
  2

  9
$UCSORG
 10
0.0
 20
0.0
 30
0.0
  9
$UCSXDIR
 10
1.0
 20
0.0
 30
0.0
  9
$UCSYDIR
 10
0.0
 20
1.0
 30
0.0
  9
$PUCSNAME
  2

  9
$PUCSORG
 10
0.0
 20
0.0
 30
0.0
  9
$PUCSXDIR
 10
1.0
 20
0.0
 30
0.0
  9
$PUCSYDIR
 10
0.0
 20
1.0
 30
0.0
  9
$USERI1
 70
     0
  9
$USERI2
 70
     0
  9
$USERI3
 70
     0
  9
$USERI4
 70
     0
  9
$USERI5
 70
     0
  9
$USERR1
 40
20.0
  9
$USERR2
 40
0.0
  9
$USERR3
 40
0.0
  9
$USERR4
 40
0.0
  9
$USERR5
 40
0.0
  9
$WORLDVIEW
 70
     1
  9
$SHADEDGE
 70
     3
  9
$SHADEDIF
 70
    70
  9
$TILEMODE
 70
     1
  9
$MAXACTVP
 70
    48
  9
$PLIMCHECK
 70
     0
  9
$PEXTMIN
 10
-1.0000000000000000E+020
 20
-1.0000000000000000E+020
 30
-1.0000000000000000E+020
  9
$PEXTMAX
 10
1.0000000000000000E+020
 20
1.0000000000000000E+020
 30
1.0000000000000000E+020
  9
$PLIMMIN
 10
0.0
 20
0.0
  9
$PLIMMAX
 10
12.0
 20
9.0
  9
$UNITMODE
 70
     0
  9
$VISRETAIN
 70
     0
  9
$PLINEGEN
 70
     0
  9
$PSLTSCALE
 70
     0
  0
ENDSEC
  0
SECTION
  2
TABLES
  0
TABLE
  2
VPORT
 70
     1
  0
VPORT
  2
*ACTIVE
 70
     0
 10
0.0
 20
0.0
 11
1.0
 21
1.0
 12
210.6220393880312
 22
95.270585062912247
 13
0.0
 23
0.0
 14
1.0
 24
1.0
 15
0.0
 25
0.0
 16
0.0
 26
0.0
 36
1.0
 17
0.0
 27
0.0
 37
0.0
 40
1969.201268358695
 41
1.8033946251768029
 42
50.0
 43
0.0
 44
0.0
 50
0.0
 51
0.0
 71
     0
 72
  1000
 73
     1
 74
     0
 75
     0
 76
     0
 77
     0
 78
     0
  0
ENDTAB
  0
TABLE
  2
LTYPE
 70
     5
  0
LTYPE
  2
CONTINUOUS
 70
     0
  3
実線
 72
    65
 73
     0
 40
0.0
  0
LTYPE
  2
DASHDOT
 70
     0
  3
____ _ ____ _ ____ _ ____ _ ____ _ ____ _ ____
 72
    65
 73
     4
 40
5.5
 49
4.0
 49
-0.6
 49
0.3
 49
-0.6
  0
LTYPE
  2
DASHED
 70
     0
  3
-- -- -- -- -- -- -- -- -- -- -- -- -- -- --
 72
    65
 73
     2
 40
0.75
 49
0.5
 49
-0.25
  0
LTYPE
  2
CONTINOUS
 70
     0
  3
Solid line
 72
    65
 73
     0
 40
0.0
  0
ENDTAB
  0
TABLE
  2
LAYER
 70
    12
  0
LAYER
  2
0
 70
     0
 62
     7
  6
CONTINUOUS
  0
LAYER
  2
SIZE
 70
     0
 62
    30
  6
CONTINUOUS
  0
LAYER
  2
BASIS
 70
     0
 62
     6
  6
DASHDOT
  0
LAYER
  2
OUTLINE
 70
     0
 62
     3
  6
CONTINUOUS
  0
LAYER
  2
DETAIL
 70
     0
 62
     5
  6
CONTINUOUS
  0
LAYER
  2
ARRANGE
 70
     0
 62
     1
  6
CONTINUOUS
  0
LAYER
  2
DEFPOINTS
 70
     0
 62
     7
  6
CONTINUOUS
  0
LAYER
  2
ETC
 70
     0
 62
    61
  6
CONTINUOUS
  0
LAYER
  2
FIX
 70
     0
 62
    11
  6
CONTINUOUS
  0
LAYER
  2
NOTE
 70
     0
 62
     4
  6
CONTINUOUS
  0
LAYER
  2
SERVICESPACE
 70
     0
 62
     2
  6
DASHDOT
  0
LAYER
  2
SYMBOLLINE
 70
     0
 62
    15
  6
CONTINUOUS
  0
ENDTAB
  0
TABLE
  2
STYLE
 70
     2
  0
STYLE
  2
STANDARD
 70
     0
 40
64.0
 41
0.9
 50
0.0
 71
     0
 42
64.0
  3
SIMPLEX.shx
  4
BIGFONT.shx
  0
STYLE
  2
ANNOTATIVE
 70
     0
 40
0.0
 41
1.0
 50
0.0
 71
     0
 42
0.2
  3
txt
  4

  0
ENDTAB
  0
TABLE
  2
VIEW
 70
     1
  0
VIEW
  2
ALL
 70
     0
 40
4282.6198079999986
 10
0.0
 20
41.309903999999989
 41
5940.0
 11
0.0
 21
0.0
 31
1.0
 12
0.0
 22
0.0
 32
0.0
 42
50.0
 43
0.0
 44
0.0
 50
0.0
 71
     0
  0
ENDTAB
  0
TABLE
  2
UCS
 70
     0
  0
ENDTAB
  0
TABLE
  2
APPID
 70
     5
  0
APPID
  2
ACAD
 70
     0
  0
APPID
  2
ACADANNOTATIVE
 70
     0
  0
APPID
  2
ACAD_MLEADERVER
 70
     0
  0
APPID
  2
AUTOCAD_POSTSCRIPT_FIGURE
 70
     0
  0
APPID
  2
ACAD_EXEMPT_FROM_CAD_STANDARDS
 70
     0
  0
ENDTAB
  0
TABLE
  2
DIMSTYLE
 70
     2
  0
DIMSTYLE
  2
STANDARD
 70
     0
  3

  4

  5

  6

  7

 40
1.0
 41
0.18
 42
0.0625
 43
0.38
 44
0.18
 45
0.0
 46
0.0
 47
0.0
 48
0.0
140
0.18
141
0.09
142
0.0
143
25.399999999999999
144
1.0
145
0.0
146
1.0
147
0.09
 71
     0
 72
     0
 73
     1
 74
     1
 75
     0
 76
     0
 77
     0
 78
     0
170
     0
171
     2
172
     0
173
     0
174
     0
175
     0
176
     7
177
     7
178
     7
  0
DIMSTYLE
  2
ANNOTATIVE
 70
     0
  3

  4

  5

  6

  7

 40
1.0
 41
0.18
 42
0.0625
 43
0.38
 44
0.18
 45
0.0
 46
0.0
 47
0.0
 48
0.0
140
0.18
141
0.09
142
0.0
143
25.399999999999999
144
1.0
145
0.0
146
1.0
147
0.09
 71
     0
 72
     0
 73
     1
 74
     1
 75
     0
 76
     0
 77
     0
 78
     0
170
     0
171
     2
172
     0
173
     0
174
     0
175
     0
176
     0
177
     0
178
     0
  0
ENDTAB
  0
ENDSEC
  0
SECTION
  2
BLOCKS
  0
BLOCK
  8
0
  2
$MODEL_SPACE
 70
     0
 10
0.0
 20
0.0
 30
0.0
  3
$MODEL_SPACE
  1

  0
ENDBLK
  5
76
  8
0
  0
BLOCK
 67
     1
  8
0
  2
$PAPER_SPACE
 70
     0
 10
0.0
 20
0.0
 30
0.0
  3
$PAPER_SPACE
  1

  0
ENDBLK
  5
72
 67
     1
  8
0
  0
BLOCK
  8
0
  2
DOT1
 70
     0
 10
0.0
 20
0.0
 30
0.0
  3
DOT1
  1

  0
CIRCLE
  5
8E
  8
SIZE
  6
CONTINUOUS
 62
     7
 10
0.0
 20
0.0
 30
0.0
 40
3.0
  0
ENDBLK
  5
8F
  8
0
  0
BLOCK
  8
0
  2
_ORIGIN
 70
     0
 10
0.0
 20
0.0
 30
0.0
  3
_ORIGIN
  1

  0
CIRCLE
  5
92
  8
0
  6
CONTINUOUS
 62
     7
 10
0.0
 20
0.0
 30
0.0
 40
0.5
  0
LINE
  5
93
  8
0
  6
CONTINUOUS
 62
     7
 10
0.0
 20
0.0
 30
0.0
 11
-1.0
 21
0.0
 31
0.0
  0
ENDBLK
  5
94
  8
0
  0
ENDSEC
  0
SECTION
  2
ENTITIES
  0
LINE
  5
95
  8
NOTE
  6
CONTINUOUS
 62
     4
 10
480.39793600000002
 20
140.734961
 30
0.0
 11
279.999999
 21
-80.0
 31
0.0
  0
LINE
  5
96
  8
NOTE
  6
CONTINUOUS
 62
     4
 10
313.65481599999998
 20
-58.381642999999997
 30
0.0
 11
279.999999
 21
-80.0
 31
0.0
  0
LINE
  5
97
  8
NOTE
  6
CONTINUOUS
 62
     4
 10
279.999999
 20
-80.0
 30
0.0
 11
298.336747
 21
-44.450544999999998
 31
0.0
  0
POINT
  5
98
  8
ARRANGE
  6
CONTINUOUS
 62
     1
 10
0.0
 20
0.0
 30
0.0
  0
LINE
  5
99
  8
DETAIL
  6
CONTINOUS
 62
     5
 10
369.999999
 20
-600.0
 30
0.0
 11
369.999999
 21
-200.0
 31
0.0
  0
LINE
  5
9A
  8
DETAIL
  6
CONTINOUS
 62
     5
 10
319.999999
 20
-200.0
 30
0.0
 11
319.999999
 21
0.0
 31
0.0
  0
LINE
  5
9B
  8
DETAIL
  6
CONTINOUS
 62
     5
 10
374.999999
 20
-200.0
 30
0.0
 11
374.999999
 21
0.0
 31
0.0
  0
LINE
  5
9C
  8
DETAIL
  6
CONTINOUS
 62
     5
 10
374.999999
 20
0.0
 30
0.0
 11
319.999999
 21
0.0
 31
0.0
  0
LINE
  5
9D
  8
DETAIL
  6
CONTINOUS
 62
     5
 10
464.35512499999987
 20
-200.0
 30
0.0
 11
-0.000001
 21
-200.0
 31
0.0
  0
LINE
  5
9E
  8
DETAIL
  6
CONTINOUS
 62
     5
 10
-0.000001
 20
-600.0
 30
0.0
 11
372.95429100000001
 21
-600.0
 31
0.0
  0
LINE
  5
9F
  8
DETAIL
  6
CONTINOUS
 62
     5
 10
-0.000001
 20
-600.0
 30
0.0
 11
-0.000001
 21
-200.0
 31
0.0
  0
ARC
  5
A0
  8
DETAIL
  6
CONTINOUS
 62
     5
 10
384.55407600000001
 20
51.0
 30
0.0
 40
650.0
 50
271.36164500000001
 51
291.64304800000002
  0
LINE
  5
A1
  8
DETAIL
  6
CONTINOUS
 62
     5
 10
646.21892700000001
 20
-459.31670100000002
 30
0.0
 11
480.20377699999989
 21
-211.419669
 31
0.0
  0
LINE
  5
A2
  8
DETAIL
  6
CONTINOUS
 62
     5
 10
633.84268699999996
 20
-542.44387500000005
 30
0.0
 11
649.999999
 21
-482.14396499999998
 31
0.0
  0
ARC
  5
A3
  8
DETAIL
  6
CONTINOUS
 62
     5
 10
456.93892599999998
 20
-227.0
 30
0.0
 40
28.0
 50
33.809981999999998
 51
74.641114000000002
  0
ARC
  5
A4
  8
DETAIL
  6
CONTINOUS
 62
     5
 10
622.95407599999987
 20
-474.89703200000002
 30
0.0
 40
28.0
 50
345.0
 51
33.809981999999998
  0
ARC
  5
A5
  8
DETAIL
  6
CONTINOUS
 62
     5
 10
618.3878739999999
 20
-538.30277000000001
 30
0.0
 40
16.0
 50
291.64304800000002
 51
345.0
  0
CIRCLE
  5
A6
  8
ARRANGE
  6
CONTINUOUS
 62
     1
 10
0.0
 20
0.0
 30
0.0
 40
40.0
  0
ARC
  5
A7
  8
OUTLINE
  6
CONTINOUS
 62
     3
 10
618.3878739999999
 20
-538.30277000000001
 30
0.0
 40
16.0
 50
291.64304800000002
 51
345.0
  0
ARC
  5
A8
  8
OUTLINE
  6
CONTINOUS
 62
     3
 10
622.95407599999987
 20
-474.89703200000002
 30
0.0
 40
28.0
 50
345.0
 51
33.809981999999998
  0
ARC
  5
A9
  8
OUTLINE
  6
CONTINOUS
 62
     3
 10
456.93892599999998
 20
-227.0
 30
0.0
 40
28.0
 50
33.809981999999998
 51
74.641114000000002
  0
LINE
  5
AA
  8
OUTLINE
  6
CONTINOUS
 62
     3
 10
633.84268699999996
 20
-542.44387500000005
 30
0.0
 11
649.999999
 21
-482.14396499999998
 31
0.0
  0
LINE
  5
AB
  8
OUTLINE
  6
CONTINOUS
 62
     3
 10
646.21892700000001
 20
-459.31670100000002
 30
0.0
 11
480.20377699999989
 21
-211.419669
 31
0.0
  0
ARC
  5
AC
  8
OUTLINE
  6
CONTINOUS
 62
     3
 10
384.55407600000001
 20
51.0
 30
0.0
 40
650.0
 50
271.36164500000001
 51
291.64304800000002
  0
LINE
  5
AD
  8
OUTLINE
  6
CONTINOUS
 62
     3
 10
-0.000001
 20
-600.0
 30
0.0
 11
-0.000001
 21
-200.0
 31
0.0
  0
LINE
  5
AE
  8
OUTLINE
  6
CONTINOUS
 62
     3
 10
-0.000001
 20
-600.0
 30
0.0
 11
372.95429100000001
 21
-600.0
 31
0.0
  0
LINE
  5
AF
  8
OUTLINE
  6
CONTINOUS
 62
     3
 10
464.35512499999987
 20
-200.0
 30
0.0
 11
399.999999
 21
-200.0
 31
0.0
  0
LINE
  5
B0
  8
OUTLINE
  6
CONTINOUS
 62
     3
 10
374.999999
 20
0.0
 30
0.0
 11
319.999999
 21
0.0
 31
0.0
  0
LINE
  5
B1
  8
OUTLINE
  6
CONTINOUS
 62
     3
 10
374.999999
 20
-200.0
 30
0.0
 11
374.999999
 21
0.0
 31
0.0
  0
LINE
  5
B2
  8
OUTLINE
  6
CONTINOUS
 62
     3
 10
319.999999
 20
-200.0
 30
0.0
 11
319.999999
 21
0.0
 31
0.0
  0
LINE
  5
B3
  8
OUTLINE
  6
CONTINOUS
 62
     3
 10
424.999999
 20
-200.0
 30
0.0
 11
-0.000001
 21
-200.0
 31
0.0
  0
LINE
  5
B4
  8
NOTE
  6
CONTINUOUS
 62
     4
 10
-0.000001
 20
-610.0
 30
0.0
 11
-0.000001
 21
-570.0
 31
0.0
  0
LINE
  5
B5
  8
NOTE
  6
CONTINUOUS
 62
     4
 10
19.999998999999999
 20
-590.0
 30
0.0
 11
-20.000001000000001
 21
-590.0
 31
0.0
  0
LINE
  5
B6
  8
NOTE
  6
CONTINUOUS
 62
     4
 10
279.999999
 20
-100.0
 30
0.0
 11
279.999999
 21
-60.0
 31
0.0
  0
LINE
  5
B7
  8
NOTE
  6
CONTINUOUS
 62
     4
 10
299.999999
 20
-80.0
 30
0.0
 11
259.999999
 21
-80.0
 31
0.0
  0
CIRCLE
  5
B8
  8
FIX
  6
CONTINUOUS
 62
    11
 10
279.999999
 20
-80.0
 30
0.0
 40
12.5
  0
LINE
  5
B9
  8
OUTLINE
  6
CONTINUOUS
 62
     3
 10
372.95429100000001
 20
-600.0
 30
0.0
 11
399.999999
 21
-598.81645400000002
 31
0.0
  0
LINE
  5
BA
  8
DETAIL
  6
CONTINUOUS
 62
     5
 10
372.95429100000001
 20
-600.0
 30
0.0
 11
399.999999
 21
-598.81645400000002
 31
0.0
  0
LINE
  5
BB
  8
SIZE
  6
CONTINUOUS
 62
    30
 10
394.999999
 20
0.0
 30
0.0
 11
950.09969699999999
 21
0.0
 31
0.0
  0
LINE
  5
BC
  8
SIZE
  6
CONTINUOUS
 62
    30
 10
367.95429100000001
 20
-600.0
 30
0.0
 11
950.09969699999999
 21
-600.0
 31
0.0
  0
LINE
  5
BD
  8
SIZE
  6
CONTINUOUS
 62
    30
 10
930.09969700000011
 20
-12.0
 30
0.0
 11
930.09969700000011
 21
-588.0
 31
0.0
  0
CIRCLE
  5
BE
  8
SIZE
  6
CONTINUOUS
 62
    30
 10
930.09969700000011
 20
0.0
 30
0.0
 40
6.0
  0
LINE
  5
BF
  8
SIZE
  6
CONTINUOUS
 62
    30
 10
930.09969700000011
 20
0.0
 30
0.0
 11
930.09969700000011
 21
-12.0
 31
0.0
  0
CIRCLE
  5
C0
  8
SIZE
  6
CONTINUOUS
 62
    30
 10
930.09969700000011
 20
-600.0
 30
0.0
 40
6.0
  0
LINE
  5
C1
  8
SIZE
  6
CONTINUOUS
 62
    30
 10
930.09969700000011
 20
-600.0
 30
0.0
 11
930.09969700000011
 21
-588.0
 31
0.0
  0
TEXT
  5
C2
  8
SIZE
  6
CONTINUOUS
 62
    30
 10
905.09969700000011
 20
-374.05714285714282
 30
0.0
 40
64.0
  1
600
 50
90.0
 41
0.9
 72
     1
 11
905.09969700000011
 21
-300.0
 31
0.0
  0
POINT
  5
C3
  8
DEFPOINTS
  6
CONTINUOUS
 62
    30
 10
374.999999
 20
0.0
 30
0.0
  0
POINT
  5
C4
  8
DEFPOINTS
  6
CONTINUOUS
 62
    30
 10
347.95429100000001
 20
-600.0
 30
0.0
  0
POINT
  5
C5
  8
DEFPOINTS
  6
CONTINUOUS
 62
    30
 10
930.09969700000011
 20
-600.0
 30
0.0
  0
LINE
  5
C6
  8
SIZE
  6
CONTINUOUS
 62
    30
 10
-20.000001000000001
 20
-600.0
 30
0.0
 11
-513.96968700000002
 21
-600.0
 31
0.0
  0
LINE
  5
C7
  8
SIZE
  6
CONTINUOUS
 62
    30
 10
-20.000001000000001
 20
-200.0
 30
0.0
 11
-513.96968700000002
 21
-200.0
 31
0.0
  0
LINE
  5
C8
  8
SIZE
  6
CONTINUOUS
 62
    30
 10
-493.96968700000002
 20
-588.0
 30
0.0
 11
-493.96968700000002
 21
-212.0
 31
0.0
  0
CIRCLE
  5
C9
  8
SIZE
  6
CONTINUOUS
 62
    30
 10
-493.96968700000002
 20
-600.0
 30
0.0
 40
6.0
  0
LINE
  5
CA
  8
SIZE
  6
CONTINUOUS
 62
    30
 10
-493.96968700000002
 20
-600.0
 30
0.0
 11
-493.96968700000002
 21
-588.0
 31
0.0
  0
CIRCLE
  5
CB
  8
SIZE
  6
CONTINUOUS
 62
    30
 10
-493.96968700000002
 20
-200.0
 30
0.0
 40
6.0
  0
LINE
  5
CC
  8
SIZE
  6
CONTINUOUS
 62
    30
 10
-493.96968700000002
 20
-200.0
 30
0.0
 11
-493.96968700000002
 21
-212.0
 31
0.0
  0
TEXT
  5
CD
  8
SIZE
  6
CONTINUOUS
 62
    30
 10
-518.96968700000002
 20
-474.05714285714282
 30
0.0
 40
64.0
  1
400
 50
90.0
 41
0.9
 72
     1
 11
-518.96968700000002
 21
-400.0
 31
0.0
  0
POINT
  5
CE
  8
DEFPOINTS
  6
CONTINUOUS
 62
    30
 10
-0.000001
 20
-600.0
 30
0.0
  0
POINT
  5
CF
  8
DEFPOINTS
  6
CONTINUOUS
 62
    30
 10
-0.000001
 20
-200.0
 30
0.0
  0
POINT
  5
D0
  8
DEFPOINTS
  6
CONTINUOUS
 62
    30
 10
-493.96968700000002
 20
-200.0
 30
0.0
  0
LINE
  5
D1
  8
SIZE
  6
CONTINUOUS
 62
    30
 10
319.999999
 20
20.0
 30
0.0
 11
319.999999
 21
387.56039800000002
 31
0.0
  0
LINE
  5
D2
  8
SIZE
  6
CONTINUOUS
 62
    30
 10
374.999999
 20
20.0
 30
0.0
 11
374.999999
 21
387.56039800000002
 31
0.0
  0
LINE
  5
D3
  8
SIZE
  6
CONTINUOUS
 62
    30
 10
307.999999
 20
367.56039800000002
 30
0.0
 11
295.999999
 21
367.56039800000002
 31
0.0
  0
LINE
  5
D4
  8
SIZE
  6
CONTINUOUS
 62
    30
 10
386.999999
 20
367.56039800000002
 30
0.0
 11
398.999999
 21
367.56039800000002
 31
0.0
  0
LINE
  5
D5
  8
SIZE
  6
CONTINUOUS
 62
    30
 10
555.25835800000004
 20
367.56039800000002
 30
0.0
 11
374.999999
 21
367.56039800000002
 31
0.0
  0
TEXT
  5
D6
  8
SIZE
  6
CONTINUOUS
 62
    30
 10
437.00121557142847
 20
392.56039800000002
 30
0.0
 40
64.0
  1
55
 41
0.9
 72
     1
 11
483.62978700000002
 21
392.56039800000002
 31
0.0
  0
LINE
  5
D7
  8
SIZE
  6
CONTINUOUS
 62
    30
 10
319.999999
 20
367.56039800000002
 30
0.0
 11
374.999999
 21
367.56039800000002
 31
0.0
  0
LINE
  5
D8
  8
SIZE
  6
CONTINUOUS
 62
    30
 10
319.999999
 20
367.56039800000002
 30
0.0
 11
374.999999
 21
367.56039800000002
 31
0.0
  0
CIRCLE
  5
D9
  8
SIZE
  6
CONTINUOUS
 62
    30
 10
319.999999
 20
367.56039800000002
 30
0.0
 40
6.0
  0
LINE
  5
DA
  8
SIZE
  6
CONTINUOUS
 62
    30
 10
319.999999
 20
367.56039800000002
 30
0.0
 11
307.999999
 21
367.56039800000002
 31
0.0
  0
CIRCLE
  5
DB
  8
SIZE
  6
CONTINUOUS
 62
    30
 10
374.999999
 20
367.56039800000002
 30
0.0
 40
6.0
  0
LINE
  5
DC
  8
SIZE
  6
CONTINUOUS
 62
    30
 10
374.999999
 20
367.56039800000002
 30
0.0
 11
386.999999
 21
367.56039800000002
 31
0.0
  0
POINT
  5
DD
  8
DEFPOINTS
  6
CONTINUOUS
 62
    30
 10
319.999999
 20
0.0
 30
0.0
  0
POINT
  5
DE
  8
DEFPOINTS
  6
CONTINUOUS
 62
    30
 10
374.999999
 20
0.0
 30
0.0
  0
POINT
  5
DF
  8
DEFPOINTS
  6
CONTINUOUS
 62
    30
 10
374.999999
 20
367.56039800000002
 30
0.0
  0
LINE
  5
E0
  8
SIZE
  6
CONTINUOUS
 62
    30
 10
60.999999000000003
 20
57.0
 30
0.0
 11
60.999999000000003
 21
286.05529300000001
 31
0.0
  0
LINE
  5
E1
  8
SIZE
  6
CONTINUOUS
 62
    30
 10
208.999999
 20
57.0
 30
0.0
 11
208.999999
 21
286.05529300000001
 31
0.0
  0
LINE
  5
E2
  8
SIZE
  6
CONTINUOUS
 62
    30
 10
72.999999000000003
 20
266.05529300000001
 30
0.0
 11
196.999999
 21
266.05529300000001
 31
0.0
  0
LINE
  5
E3
  8
SIZE
  6
CONTINUOUS
 62
    30
 10
-233.879931
 20
266.05529300000001
 30
0.0
 11
60.999999000000003
 21
266.05529300000001
 31
0.0
  0
TEXT
  5
E4
  8
SIZE
  6
CONTINUOUS
 62
    30
 10
-223.14278857142861
 20
291.05529300000001
 30
0.0
 40
64.0
  1
φ148
 41
0.9
 72
     1
 11
-114.25136000000001
 21
291.05529300000001
 31
0.0
  0
CIRCLE
  5
E5
  8
SIZE
  6
CONTINUOUS
 62
    30
 10
60.999999000000003
 20
266.05529300000001
 30
0.0
 40
6.0
  0
LINE
  5
E6
  8
SIZE
  6
CONTINUOUS
 62
    30
 10
60.999999000000003
 20
266.05529300000001
 30
0.0
 11
72.999999000000003
 21
266.05529300000001
 31
0.0
  0
CIRCLE
  5
E7
  8
SIZE
  6
CONTINUOUS
 62
    30
 10
208.999999
 20
266.05529300000001
 30
0.0
 40
6.0
  0
LINE
  5
E8
  8
SIZE
  6
CONTINUOUS
 62
    30
 10
208.999999
 20
266.05529300000001
 30
0.0
 11
196.999999
 21
266.05529300000001
 31
0.0
  0
POINT
  5
E9
  8
DEFPOINTS
  6
CONTINUOUS
 62
    30
 10
60.999999000000003
 20
37.0
 30
0.0
  0
POINT
  5
EA
  8
DEFPOINTS
  6
CONTINUOUS
 62
    30
 10
208.999999
 20
37.0
 30
0.0
  0
POINT
  5
EB
  8
DEFPOINTS
  6
CONTINUOUS
 62
    30
 10
208.999999
 20
266.05529300000001
 30
0.0
  0
LINE
  5
EC
  8
SIZE
  6
CONTINUOUS
 62
    30
 10
-0.000001
 20
-620.0
 30
0.0
 11
-0.000001
 21
-1035.3822290000001
 31
0.0
  0
LINE
  5
ED
  8
SIZE
  6
CONTINUOUS
 62
    30
 10
649.999999
 20
-502.14396499999998
 30
0.0
 11
649.999999
 21
-1035.3822290000001
 31
0.0
  0
LINE
  5
EE
  8
SIZE
  6
CONTINUOUS
 62
    30
 10
11.999999000000001
 20
-1015.3822290000001
 30
0.0
 11
637.99999899999989
 21
-1015.3822290000001
 31
0.0
  0
CIRCLE
  5
EF
  8
SIZE
  6
CONTINUOUS
 62
    30
 10
-0.000001
 20
-1015.3822290000001
 30
0.0
 40
6.0
  0
LINE
  5
F0
  8
SIZE
  6
CONTINUOUS
 62
    30
 10
-0.000001
 20
-1015.3822290000001
 30
0.0
 11
11.999999000000001
 21
-1015.3822290000001
 31
0.0
  0
CIRCLE
  5
F1
  8
SIZE
  6
CONTINUOUS
 62
    30
 10
649.999999
 20
-1015.3822290000001
 30
0.0
 40
6.0
  0
LINE
  5
F2
  8
SIZE
  6
CONTINUOUS
 62
    30
 10
649.999999
 20
-1015.3822290000001
 30
0.0
 11
637.99999899999989
 21
-1015.3822290000001
 31
0.0
  0
TEXT
  5
F3
  8
SIZE
  6
CONTINUOUS
 62
    30
 10
250.9428561428571
 20
-990.38222899999994
 30
0.0
 40
64.0
  1
650
 41
0.9
 72
     1
 11
324.999999
 21
-990.38222899999994
 31
0.0
  0
POINT
  5
F4
  8
DEFPOINTS
  6
CONTINUOUS
 62
    30
 10
-0.000001
 20
-600.0
 30
0.0
  0
POINT
  5
F5
  8
DEFPOINTS
  6
CONTINUOUS
 62
    30
 10
649.999999
 20
-482.14396499999998
 30
0.0
  0
POINT
  5
F6
  8
DEFPOINTS
  6
CONTINUOUS
 62
    30
 10
649.999999
 20
-1015.3822290000001
 30
0.0
  0
LINE
  5
F7
  8
SIZE
  6
CONTINUOUS
 62
    30
 10
-0.000001
 20
-620.0
 30
0.0
 11
-0.000001
 21
-899.66099499999984
 31
0.0
  0
LINE
  5
F8
  8
SIZE
  6
CONTINUOUS
 62
    30
 10
369.999999
 20
-620.0
 30
0.0
 11
369.999999
 21
-899.66099499999984
 31
0.0
  0
LINE
  5
F9
  8
SIZE
  6
CONTINUOUS
 62
    30
 10
11.999999000000001
 20
-879.66099499999996
 30
0.0
 11
357.999999
 21
-879.66099499999996
 31
0.0
  0
CIRCLE
  5
FA
  8
SIZE
  6
CONTINUOUS
 62
    30
 10
-0.000001
 20
-879.66099499999996
 30
0.0
 40
6.0
  0
LINE
  5
FB
  8
SIZE
  6
CONTINUOUS
 62
    30
 10
-0.000001
 20
-879.66099499999996
 30
0.0
 11
11.999999000000001
 21
-879.66099499999996
 31
0.0
  0
CIRCLE
  5
FC
  8
SIZE
  6
CONTINUOUS
 62
    30
 10
369.999999
 20
-879.66099499999996
 30
0.0
 40
6.0
  0
LINE
  5
FD
  8
SIZE
  6
CONTINUOUS
 62
    30
 10
369.999999
 20
-879.66099499999996
 30
0.0
 11
357.999999
 21
-879.66099499999996
 31
0.0
  0
TEXT
  5
FE
  8
SIZE
  6
CONTINUOUS
 62
    30
 10
110.9428561428571
 20
-854.66099499999996
 30
0.0
 40
64.0
  1
370
 41
0.9
 72
     1
 11
184.999999
 21
-854.66099499999996
 31
0.0
  0
POINT
  5
FF
  8
DEFPOINTS
  6
CONTINUOUS
 62
    30
 10
-0.000001
 20
-600.0
 30
0.0
  0
POINT
  5
100
  8
DEFPOINTS
  6
CONTINUOUS
 62
    30
 10
369.999999
 20
-600.0
 30
0.0
  0
POINT
  5
101
  8
DEFPOINTS
  6
CONTINUOUS
 62
    30
 10
369.999999
 20
-879.66099499999996
 30
0.0
  0
ARC
  5
102
  8
DETAIL
  6
CONTINUOUS
 62
     5
 10
649.5506059999999
 20
-497.34393599999999
 30
0.0
 40
0.5
 50
344.99985199999998
 51
358.16383400000001
  0
ARC
  5
103
  8
DETAIL
  6
CONTINUOUS
 62
     5
 10
646.08210699999995
 20
-528.4487069999999
 30
0.0
 40
0.5
 50
254.999852
 51
323.96262999999999
  0
ARC
  5
104
  8
DETAIL
  6
CONTINUOUS
 62
     5
 10
649.70560899999998
 20
-514.92575499999987
 30
0.0
 40
0.5
 50
6.0370729999999986
 51
74.999852000000004
  0
ARC
  5
105
  8
DETAIL
  6
CONTINUOUS
 62
     5
 10
630.31375500000001
 20
-516.97660800000006
 30
0.0
 40
20.0
 50
323.96262999999999
 51
6.0370729999999986
  0
ARC
  5
106
  8
DETAIL
  6
CONTINUOUS
 62
     5
 10
618.79297400000007
 20
-519.95942200000002
 30
0.0
 40
25.0
 50
317.35163899999998
 51
331.83587
  0
ARC
  5
107
  8
DETAIL
  6
CONTINUOUS
 62
     5
 10
636.44558600000005
 20
-536.21935099999985
 30
0.0
 40
1.0
 50
254.999852
 51
317.35163899999998
  0
ARC
  5
108
  8
DETAIL
  6
CONTINUOUS
 62
     5
 10
640.39215299999989
 20
-531.52339600000005
 30
0.0
 40
0.5
 50
331.83587
 51
344.99985199999998
  0
LINE
  5
109
  8
DETAIL
  6
CONTINUOUS
 62
     5
 10
640.87511500000005
 20
-531.65280700000005
 30
0.0
 11
650.03356900000006
 21
-497.47334699999999
 31
0.0
  0
LINE
  5
10A
  8
DETAIL
  6
CONTINUOUS
 62
     5
 10
635.31421899999998
 20
-536.95147599999984
 30
0.0
 11
636.18676500000004
 21
-537.18527599999993
 31
0.0
  0
LINE
  5
10B
  8
DETAIL
  6
CONTINUOUS
 62
     5
 10
641.89554599999985
 20
-527.84454800000003
 30
0.0
 11
645.95269699999994
 21
-528.93166900000006
 31
0.0
  0
LINE
  5
10C
  8
DETAIL
  6
CONTINUOUS
 62
     5
 10
645.77786900000001
 20
-513.35567000000003
 30
0.0
 11
649.83501999999987
 21
-514.44279199999994
 31
0.0
  0
LINE
  5
10D
  8
DETAIL
  6
CONTINUOUS
 62
     5
 10
648.73960899999986
 20
-490.33790599999992
 30
0.0
 11
647.8670639999998
 21
-490.10410599999989
 31
0.0
  0
ARC
  5
10E
  8
DETAIL
  6
CONTINUOUS
 62
     5
 10
648.48078799999985
 20
-491.30383099999989
 30
0.0
 40
1.0
 50
12.648065000000001
 51
74.999852000000004
  0
ARC
  5
10F
  8
DETAIL
  6
CONTINUOUS
 62
     5
 10
625.06318600000009
 20
-496.55891600000001
 30
0.0
 40
25.0
 50
358.16383400000001
 51
12.648065000000001
  0
LINE
  5
110
  8
NOTE
  6
CONTINUOUS
 62
     4
 10
-200.50349299999999
 20
-888.82437599999992
 30
0.0
 11
-473.96639499999998
 21
-888.82437599999992
 31
0.0
  0
TEXT
  5
111
  8
NOTE
  6
CONTINUOUS
 62
     4
 10
-455.05581599999999
 20
-865.97585800000002
 30
0.0
 40
64.0
  1
2-φ5
 41
0.9
  0
LINE
  5
112
  8
SIZE
  6
CONTINUOUS
 62
    30
 10
-0.000001
 20
-180.0
 30
0.0
 11
-0.000001
 21
638.69832799999995
 31
0.0
  0
LINE
  5
113
  8
SIZE
  6
CONTINUOUS
 62
    30
 10
374.999999
 20
20.0
 30
0.0
 11
374.999999
 21
638.69832799999995
 31
0.0
  0
LINE
  5
114
  8
SIZE
  6
CONTINUOUS
 62
    30
 10
-12.000000999999999
 20
618.69832799999995
 30
0.0
 11
-24.000001000000001
 21
618.69832799999995
 31
0.0
  0
LINE
  5
115
  8
SIZE
  6
CONTINUOUS
 62
    30
 10
386.999999
 20
618.69832799999995
 30
0.0
 11
398.999999
 21
618.69832799999995
 31
0.0
  0
LINE
  5
116
  8
SIZE
  6
CONTINUOUS
 62
    30
 10
-0.000001
 20
618.69832799999995
 30
0.0
 11
374.999999
 21
618.69832799999995
 31
0.0
  0
CIRCLE
  5
117
  8
SIZE
  6
CONTINUOUS
 62
    30
 10
-0.000001
 20
618.69832799999995
 30
0.0
 40
6.0
  0
LINE
  5
118
  8
SIZE
  6
CONTINUOUS
 62
    30
 10
-0.000001
 20
618.69832799999995
 30
0.0
 11
-12.000000999999999
 21
618.69832799999995
 31
0.0
  0
CIRCLE
  5
119
  8
SIZE
  6
CONTINUOUS
 62
    30
 10
374.999999
 20
618.69832799999995
 30
0.0
 40
6.0
  0
LINE
  5
11A
  8
SIZE
  6
CONTINUOUS
 62
    30
 10
374.999999
 20
618.69832799999995
 30
0.0
 11
386.999999
 21
618.69832799999995
 31
0.0
  0
TEXT
  5
11B
  8
SIZE
  6
CONTINUOUS
 62
    30
 10
-3.4028581428570979
 20
643.69832799999995
 30
0.0
 40
64.0
  1
375～405
 41
0.9
 72
     1
 11
187.499999
 21
643.69832799999995
 31
0.0
  0
POINT
  5
11C
  8
DEFPOINTS
  6
CONTINUOUS
 62
    30
 10
-0.000001
 20
-200.0
 30
0.0
  0
POINT
  5
11D
  8
DEFPOINTS
  6
CONTINUOUS
 62
    30
 10
374.999999
 20
0.0
 30
0.0
  0
POINT
  5
11E
  8
DEFPOINTS
  6
CONTINUOUS
 62
    30
 10
374.999999
 20
618.69832799999995
 30
0.0
  0
LINE
  5
11F
  8
NOTE
  6
CONTINUOUS
 62
     4
 10
952.89031099999988
 20
140.734961
 30
0.0
 11
480.39793600000002
 21
140.734961
 31
0.0
  0
TEXT
  5
120
  8
NOTE
  6
CONTINUOUS
 62
     4
 10
491.03765700000002
 20
168.04956899999999
 30
0.0
 40
64.0
  1
AH 2-φ25
 41
0.9
  0
LINE
  5
121
  8
DETAIL
  6
CONTINUOUS
 62
     5
 10
60.999999000000003
 20
-3.0
 30
0.0
 11
60.999999000000003
 21
37.0
 31
0.0
  0
LINE
  5
122
  8
DETAIL
  6
CONTINUOUS
 62
     5
 10
208.999999
 20
-3.0
 30
0.0
 11
208.999999
 21
37.0
 31
0.0
  0
LINE
  5
123
  8
BASIS
  6
DASHDOT
 62
     6
 10
134.999999
 20
-227.414108
 30
0.0
 11
134.999999
 21
67.355767
 31
0.0
  0
LINE
  5
124
  8
BASIS
  6
DASHDOT
 62
     6
 10
-29.932359999999999
 20
-109.0
 30
0.0
 11
237.225852
 21
-109.0
 31
0.0
  0
LINE
  5
125
  8
DETAIL
  6
CONTINUOUS
 62
     5
 10
43.999999000000003
 20
-18.0
 30
0.0
 11
225.999999
 21
-18.0
 31
0.0
  0
LINE
  5
126
  8
DETAIL
  6
CONTINUOUS
 62
     5
 10
225.999999
 20
-200.0
 30
0.0
 11
43.999999000000003
 21
-200.0
 31
0.0
  0
LINE
  5
127
  8
DETAIL
  6
CONTINUOUS
 62
     5
 10
225.999999
 20
-18.0
 30
0.0
 11
225.999999
 21
-200.0
 31
0.0
  0
LINE
  5
128
  8
DETAIL
  6
CONTINUOUS
 62
     5
 10
60.999999000000003
 20
-3.0
 30
0.0
 11
208.999999
 21
-3.0
 31
0.0
  0
LINE
  5
129
  8
DETAIL
  6
CONTINUOUS
 62
     5
 10
208.999999
 20
-3.0
 30
0.0
 11
218.999999
 21
-18.0
 31
0.0
  0
LINE
  5
12A
  8
DETAIL
  6
CONTINUOUS
 62
     5
 10
50.999999000000003
 20
-18.0
 30
0.0
 11
60.999999000000003
 21
-3.0
 31
0.0
  0
LINE
  5
12B
  8
DETAIL
  6
CONTINUOUS
 62
     5
 10
43.999999000000003
 20
-200.0
 30
0.0
 11
43.999999000000003
 21
-18.0
 31
0.0
  0
TEXT
  5
12C
  8
NOTE
  6
CONTINUOUS
 62
     4
 10
83.135532999999995
 20
56.351115
 30
0.0
 40
64.0
  1
EA
 41
0.9
  0
LINE
  5
12D
  8
DETAIL
  6
CONTINUOUS
 62
     5
 10
60.999999000000003
 20
37.0
 30
0.0
 11
208.999999
 21
37.0
 31
0.0
  0
LINE
  5
12E
  8
DETAIL
  6
DASHED
 62
     5
 10
28.999998999999999
 20
-183.0
 30
0.0
 11
-11.000000999999999
 21
-183.0
 31
0.0
  0
LINE
  5
12F
  8
DETAIL
  6
DASHED
 62
     5
 10
28.999998999999999
 20
-35.0
 30
0.0
 11
-11.000000999999999
 21
-35.0
 31
0.0
  0
LINE
  5
130
  8
DETAIL
  6
DASHED
 62
     5
 10
28.999998999999999
 20
-183.0
 30
0.0
 11
28.999998999999999
 21
-35.0
 31
0.0
  0
LINE
  5
131
  8
DETAIL
  6
DASHED
 62
     5
 10
28.999998999999999
 20
-35.0
 30
0.0
 11
43.999999000000003
 21
-25.0
 31
0.0
  0
LINE
  5
132
  8
DETAIL
  6
DASHED
 62
     5
 10
43.999999000000003
 20
-193.0
 30
0.0
 11
28.999998999999999
 21
-183.0
 31
0.0
  0
LINE
  5
133
  8
DETAIL
  6
DASHED
 62
     5
 10
-11.000000999999999
 20
-183.0
 30
0.0
 11
-11.000000999999999
 21
-35.0
 31
0.0
  0
LINE
  5
134
  8
DETAIL
  6
CONTINOUS
 62
     5
 10
304.999999
 20
-200.0
 30
0.0
 11
304.999999
 21
-80.0
 31
0.0
  0
LINE
  5
135
  8
DETAIL
  6
CONTINOUS
 62
     5
 10
254.999999
 20
-200.0
 30
0.0
 11
254.999999
 21
-80.0
 31
0.0
  0
LINE
  5
136
  8
DETAIL
  6
CONTINOUS
 62
     5
 10
304.999999
 20
-80.0
 30
0.0
 11
254.999999
 21
-80.0
 31
0.0
  0
LINE
  5
137
  8
SIZE
  6
CONTINUOUS
 62
    30
 10
-0.000001
 20
-180.0
 30
0.0
 11
-0.000001
 21
166.03589600000001
 31
0.0
  0
LINE
  5
138
  8
SIZE
  6
CONTINUOUS
 62
    30
 10
134.999999
 20
87.355767000000014
 30
0.0
 11
134.999999
 21
166.03589600000001
 31
0.0
  0
LINE
  5
139
  8
SIZE
  6
CONTINUOUS
 62
    30
 10
11.999999000000001
 20
146.03589600000001
 30
0.0
 11
122.999999
 21
146.03589600000001
 31
0.0
  0
LINE
  5
13A
  8
SIZE
  6
CONTINUOUS
 62
    30
 10
-205.457201
 20
146.03589600000001
 30
0.0
 11
-0.000001
 21
146.03589600000001
 31
0.0
  0
TEXT
  5
13B
  8
SIZE
  6
CONTINUOUS
 62
    30
 10
-180.45720057142859
 20
171.03589600000001
 30
0.0
 40
64.0
  1
135
 41
0.9
 72
     1
 11
-111.885772
 21
171.03589600000001
 31
0.0
  0
CIRCLE
  5
13C
  8
SIZE
  6
CONTINUOUS
 62
    30
 10
-0.000001
 20
146.03589600000001
 30
0.0
 40
6.0
  0
LINE
  5
13D
  8
SIZE
  6
CONTINUOUS
 62
    30
 10
-0.000001
 20
146.03589600000001
 30
0.0
 11
11.999999000000001
 21
146.03589600000001
 31
0.0
  0
CIRCLE
  5
13E
  8
SIZE
  6
CONTINUOUS
 62
    30
 10
134.999999
 20
146.03589600000001
 30
0.0
 40
6.0
  0
LINE
  5
13F
  8
SIZE
  6
CONTINUOUS
 62
    30
 10
134.999999
 20
146.03589600000001
 30
0.0
 11
122.999999
 21
146.03589600000001
 31
0.0
  0
POINT
  5
140
  8
DEFPOINTS
  6
CONTINUOUS
 62
    30
 10
-0.000001
 20
-200.0
 30
0.0
  0
POINT
  5
141
  8
DEFPOINTS
  6
CONTINUOUS
 62
    30
 10
134.999999
 20
67.355767
 30
0.0
  0
POINT
  5
142
  8
DEFPOINTS
  6
CONTINUOUS
 62
    30
 10
134.999999
 20
146.03589600000001
 30
0.0
  0
LINE
  5
143
  8
SIZE
  6
CONTINUOUS
 62
    30
 10
43.999999000000003
 20
2.0
 30
0.0
 11
43.999999000000003
 21
388.2573779999999
 31
0.0
  0
LINE
  5
144
  8
SIZE
  6
CONTINUOUS
 62
    30
 10
225.999999
 20
2.0
 30
0.0
 11
225.999999
 21
388.2573779999999
 31
0.0
  0
LINE
  5
145
  8
SIZE
  6
CONTINUOUS
 62
    30
 10
31.999998999999999
 20
368.25737800000002
 30
0.0
 11
19.999998999999999
 21
368.25737800000002
 31
0.0
  0
LINE
  5
146
  8
SIZE
  6
CONTINUOUS
 62
    30
 10
237.999999
 20
368.25737800000002
 30
0.0
 11
249.999999
 21
368.25737800000002
 31
0.0
  0
LINE
  5
147
  8
SIZE
  6
CONTINUOUS
 62
    30
 10
43.999999000000003
 20
368.25737800000002
 30
0.0
 11
225.999999
 21
368.25737800000002
 31
0.0
  0
CIRCLE
  5
148
  8
SIZE
  6
CONTINUOUS
 62
    30
 10
43.999999000000003
 20
368.25737800000002
 30
0.0
 40
6.0
  0
LINE
  5
149
  8
SIZE
  6
CONTINUOUS
 62
    30
 10
43.999999000000003
 20
368.25737800000002
 30
0.0
 11
31.999998999999999
 21
368.25737800000002
 31
0.0
  0
CIRCLE
  5
14A
  8
SIZE
  6
CONTINUOUS
 62
    30
 10
225.999999
 20
368.25737800000002
 30
0.0
 40
6.0
  0
LINE
  5
14B
  8
SIZE
  6
CONTINUOUS
 62
    30
 10
225.999999
 20
368.25737800000002
 30
0.0
 11
237.999999
 21
368.25737800000002
 31
0.0
  0
TEXT
  5
14C
  8
SIZE
  6
CONTINUOUS
 62
    30
 10
66.428570428571433
 20
393.25737800000002
 30
0.0
 40
64.0
  1
182
 41
0.9
 72
     1
 11
134.999999
 21
393.25737800000002
 31
0.0
  0
POINT
  5
14D
  8
DEFPOINTS
  6
CONTINUOUS
 62
    30
 10
43.999999000000003
 20
-18.0
 30
0.0
  0
POINT
  5
14E
  8
DEFPOINTS
  6
CONTINUOUS
 62
    30
 10
225.999999
 20
-18.0
 30
0.0
  0
POINT
  5
14F
  8
DEFPOINTS
  6
CONTINUOUS
 62
    30
 10
225.999999
 20
368.25737800000002
 30
0.0
  0
LINE
  5
150
  8
SIZE
  6
CONTINUOUS
 62
    30
 10
484.35512399999999
 20
-200.0
 30
0.0
 11
817.93461100000002
 21
-200.0
 31
0.0
  0
LINE
  5
151
  8
SIZE
  6
CONTINUOUS
 62
    30
 10
324.999999
 20
-80.0
 30
0.0
 11
817.93461100000002
 21
-80.0
 31
0.0
  0
LINE
  5
152
  8
SIZE
  6
CONTINUOUS
 62
    30
 10
797.93461100000002
 20
-188.0
 30
0.0
 11
797.93461100000002
 21
-92.0
 31
0.0
  0
LINE
  5
153
  8
SIZE
  6
CONTINUOUS
 62
    30
 10
797.93461100000002
 20
-405.204654
 30
0.0
 11
797.93461100000002
 21
-200.0
 31
0.0
  0
TEXT
  5
154
  8
SIZE
  6
CONTINUOUS
 62
    30
 10
772.93461100000002
 20
-380.20465357142859
 30
0.0
 40
64.0
  1
120
 50
90.0
 41
0.9
 72
     1
 11
772.93461100000002
 21
-311.63322499999998
 31
0.0
  0
CIRCLE
  5
155
  8
SIZE
  6
CONTINUOUS
 62
    30
 10
797.93461100000002
 20
-200.0
 30
0.0
 40
6.0
  0
LINE
  5
156
  8
SIZE
  6
CONTINUOUS
 62
    30
 10
797.93461100000002
 20
-200.0
 30
0.0
 11
797.93461100000002
 21
-188.0
 31
0.0
  0
CIRCLE
  5
157
  8
SIZE
  6
CONTINUOUS
 62
    30
 10
797.93461100000002
 20
-80.0
 30
0.0
 40
6.0
  0
LINE
  5
158
  8
SIZE
  6
CONTINUOUS
 62
    30
 10
797.93461100000002
 20
-80.0
 30
0.0
 11
797.93461100000002
 21
-92.0
 31
0.0
  0
POINT
  5
159
  8
DEFPOINTS
  6
CONTINUOUS
 62
    30
 10
464.35512399999999
 20
-200.0
 30
0.0
  0
POINT
  5
15A
  8
DEFPOINTS
  6
CONTINUOUS
 62
    30
 10
304.999999
 20
-80.0
 30
0.0
  0
POINT
  5
15B
  8
DEFPOINTS
  6
CONTINUOUS
 62
    30
 10
797.93461100000002
 20
-80.0
 30
0.0
  0
LINE
  5
15C
  8
SIZE
  6
CONTINUOUS
 62
    30
 10
-0.000001
 20
-180.0
 30
0.0
 11
-0.000001
 21
510.27832899999993
 31
0.0
  0
LINE
  5
15D
  8
SIZE
  6
CONTINUOUS
 62
    30
 10
279.999999
 20
-40.0
 30
0.0
 11
279.999999
 21
510.27832899999993
 31
0.0
  0
LINE
  5
15E
  8
SIZE
  6
CONTINUOUS
 62
    30
 10
11.999999000000001
 20
490.27832899999999
 30
0.0
 11
267.999999
 21
490.27832899999999
 31
0.0
  0
CIRCLE
  5
15F
  8
SIZE
  6
CONTINUOUS
 62
    30
 10
-0.000001
 20
490.27832899999999
 30
0.0
 40
6.0
  0
LINE
  5
160
  8
SIZE
  6
CONTINUOUS
 62
    30
 10
-0.000001
 20
490.27832899999999
 30
0.0
 11
11.999999000000001
 21
490.27832899999999
 31
0.0
  0
CIRCLE
  5
161
  8
SIZE
  6
CONTINUOUS
 62
    30
 10
279.999999
 20
490.27832899999999
 30
0.0
 40
6.0
  0
LINE
  5
162
  8
SIZE
  6
CONTINUOUS
 62
    30
 10
279.999999
 20
490.27832899999999
 30
0.0
 11
267.999999
 21
490.27832899999999
 31
0.0
  0
TEXT
  5
163
  8
SIZE
  6
CONTINUOUS
 62
    30
 10
65.942856142857167
 20
515.27832899999999
 30
0.0
 40
64.0
  1
280
 41
0.9
 72
     1
 11
139.999999
 21
515.27832899999999
 31
0.0
  0
POINT
  5
164
  8
DEFPOINTS
  6
CONTINUOUS
 62
    30
 10
-0.000001
 20
-200.0
 30
0.0
  0
POINT
  5
165
  8
DEFPOINTS
  6
CONTINUOUS
 62
    30
 10
279.999999
 20
-60.0
 30
0.0
  0
POINT
  5
166
  8
DEFPOINTS
  6
CONTINUOUS
 62
    30
 10
279.999999
 20
490.27832899999999
 30
0.0
  0
LINE
  5
167
  8
SIZE
  6
CONTINUOUS
 62
    30
 10
-20.000001000000001
 20
-200.0
 30
0.0
 11
-389.81484699999999
 21
-200.0
 31
0.0
  0
LINE
  5
168
  8
SIZE
  6
CONTINUOUS
 62
    30
 10
-49.932359999999989
 20
-109.0
 30
0.0
 11
-389.81484699999999
 21
-109.0
 31
0.0
  0
LINE
  5
169
  8
SIZE
  6
CONTINUOUS
 62
    30
 10
-369.81484699999999
 20
-212.0
 30
0.0
 11
-369.81484699999999
 21
-224.0
 31
0.0
  0
LINE
  5
16A
  8
SIZE
  6
CONTINUOUS
 62
    30
 10
-369.81484699999999
 20
-97.0
 30
0.0
 11
-369.81484699999999
 21
-85.0
 31
0.0
  0
LINE
  5
16B
  8
SIZE
  6
CONTINUOUS
 62
    30
 10
-369.81484699999999
 20
-200.0
 30
0.0
 11
-369.81484699999999
 21
-109.0
 31
0.0
  0
CIRCLE
  5
16C
  8
SIZE
  6
CONTINUOUS
 62
    30
 10
-369.81484699999999
 20
-200.0
 30
0.0
 40
6.0
  0
LINE
  5
16D
  8
SIZE
  6
CONTINUOUS
 62
    30
 10
-369.81484699999999
 20
-200.0
 30
0.0
 11
-369.81484699999999
 21
-212.0
 31
0.0
  0
CIRCLE
  5
16E
  8
SIZE
  6
CONTINUOUS
 62
    30
 10
-369.81484699999999
 20
-109.0
 30
0.0
 40
6.0
  0
LINE
  5
16F
  8
SIZE
  6
CONTINUOUS
 62
    30
 10
-369.81484699999999
 20
-109.0
 30
0.0
 11
-369.81484699999999
 21
-97.0
 31
0.0
  0
TEXT
  5
170
  8
SIZE
  6
CONTINUOUS
 62
    30
 10
-394.81484699999999
 20
-188.78571428571431
 30
0.0
 40
64.0
  1
91
 50
90.0
 41
0.9
 72
     1
 11
-394.81484699999999
 21
-154.5
 31
0.0
  0
POINT
  5
171
  8
DEFPOINTS
  6
CONTINUOUS
 62
    30
 10
-0.000001
 20
-200.0
 30
0.0
  0
POINT
  5
172
  8
DEFPOINTS
  6
CONTINUOUS
 62
    30
 10
-29.932359999999999
 20
-109.0
 30
0.0
  0
POINT
  5
173
  8
DEFPOINTS
  6
CONTINUOUS
 62
    30
 10
-369.81484699999999
 20
-109.0
 30
0.0
  0
LINE
  5
174
  8
SIZE
  6
CONTINUOUS
 62
    30
 10
-20.000001000000001
 20
-200.0
 30
0.0
 11
-513.96968700000002
 21
-200.0
 31
0.0
  0
LINE
  5
175
  8
SIZE
  6
CONTINUOUS
 62
    30
 10
23.999998999999999
 20
-18.0
 30
0.0
 11
-513.96968700000002
 21
-18.0
 31
0.0
  0
LINE
  5
176
  8
SIZE
  6
CONTINUOUS
 62
    30
 10
-493.96968700000002
 20
-212.0
 30
0.0
 11
-493.96968700000002
 21
-224.0
 31
0.0
  0
LINE
  5
177
  8
SIZE
  6
CONTINUOUS
 62
    30
 10
-493.96968700000002
 20
-6.0
 30
0.0
 11
-493.96968700000002
 21
6.0
 31
0.0
  0
LINE
  5
178
  8
SIZE
  6
CONTINUOUS
 62
    30
 10
-493.96968700000002
 20
-200.0
 30
0.0
 11
-493.96968700000002
 21
-18.0
 31
0.0
  0
CIRCLE
  5
179
  8
SIZE
  6
CONTINUOUS
 62
    30
 10
-493.96968700000002
 20
-200.0
 30
0.0
 40
6.0
  0
LINE
  5
17A
  8
SIZE
  6
CONTINUOUS
 62
    30
 10
-493.96968700000002
 20
-200.0
 30
0.0
 11
-493.96968700000002
 21
-212.0
 31
0.0
  0
CIRCLE
  5
17B
  8
SIZE
  6
CONTINUOUS
 62
    30
 10
-493.96968700000002
 20
-18.0
 30
0.0
 40
6.0
  0
LINE
  5
17C
  8
SIZE
  6
CONTINUOUS
 62
    30
 10
-493.96968700000002
 20
-18.0
 30
0.0
 11
-493.96968700000002
 21
-6.0
 31
0.0
  0
TEXT
  5
17D
  8
SIZE
  6
CONTINUOUS
 62
    30
 10
-518.96968700000002
 20
-177.5714285714285
 30
0.0
 40
64.0
  1
182
 50
90.0
 41
0.9
 72
     1
 11
-518.96968700000002
 21
-109.0
 31
0.0
  0
POINT
  5
17E
  8
DEFPOINTS
  6
CONTINUOUS
 62
    30
 10
-0.000001
 20
-200.0
 30
0.0
  0
POINT
  5
17F
  8
DEFPOINTS
  6
CONTINUOUS
 62
    30
 10
43.999999000000003
 20
-18.0
 30
0.0
  0
POINT
  5
180
  8
DEFPOINTS
  6
CONTINUOUS
 62
    30
 10
-493.96968700000002
 20
-18.0
 30
0.0
  0
LINE
  5
181
  8
SIZE
  6
CONTINUOUS
 62
    30
 10
23.999998999999999
 20
-18.0
 30
0.0
 11
-513.96968700000002
 21
-18.0
 31
0.0
  0
LINE
  5
182
  8
SIZE
  6
CONTINUOUS
 62
    30
 10
40.999999000000003
 20
37.0
 30
0.0
 11
-513.96968700000002
 21
37.0
 31
0.0
  0
LINE
  5
183
  8
SIZE
  6
CONTINUOUS
 62
    30
 10
-493.96968700000002
 20
-30.0
 30
0.0
 11
-493.96968700000002
 21
-42.0
 31
0.0
  0
LINE
  5
184
  8
SIZE
  6
CONTINUOUS
 62
    30
 10
-493.96968700000002
 20
49.0
 30
0.0
 11
-493.96968700000002
 21
61.0
 31
0.0
  0
LINE
  5
185
  8
SIZE
  6
CONTINUOUS
 62
    30
 10
-493.96968700000002
 20
213.00512499999999
 30
0.0
 11
-493.96968700000002
 21
37.0
 31
0.0
  0
TEXT
  5
186
  8
SIZE
  6
CONTINUOUS
 62
    30
 10
-518.96968700000002
 20
94.747982571428565
 30
0.0
 40
64.0
  1
55
 50
90.0
 41
0.9
 72
     1
 11
-518.96968700000002
 21
141.376554
 31
0.0
  0
LINE
  5
187
  8
SIZE
  6
CONTINUOUS
 62
    30
 10
-493.96968700000002
 20
-18.0
 30
0.0
 11
-493.96968700000002
 21
37.0
 31
0.0
  0
LINE
  5
188
  8
SIZE
  6
CONTINUOUS
 62
    30
 10
-493.96968700000002
 20
-18.0
 30
0.0
 11
-493.96968700000002
 21
37.0
 31
0.0
  0
CIRCLE
  5
189
  8
SIZE
  6
CONTINUOUS
 62
    30
 10
-493.96968700000002
 20
-18.0
 30
0.0
 40
6.0
  0
LINE
  5
18A
  8
SIZE
  6
CONTINUOUS
 62
    30
 10
-493.96968700000002
 20
-18.0
 30
0.0
 11
-493.96968700000002
 21
-30.0
 31
0.0
  0
CIRCLE
  5
18B
  8
SIZE
  6
CONTINUOUS
 62
    30
 10
-493.96968700000002
 20
37.0
 30
0.0
 40
6.0
  0
LINE
  5
18C
  8
SIZE
  6
CONTINUOUS
 62
    30
 10
-493.96968700000002
 20
37.0
 30
0.0
 11
-493.96968700000002
 21
49.0
 31
0.0
  0
POINT
  5
18D
  8
DEFPOINTS
  6
CONTINUOUS
 62
    30
 10
43.999999000000003
 20
-18.0
 30
0.0
  0
POINT
  5
18E
  8
DEFPOINTS
  6
CONTINUOUS
 62
    30
 10
60.999999000000003
 20
37.0
 30
0.0
  0
POINT
  5
18F
  8
DEFPOINTS
  6
CONTINUOUS
 62
    30
 10
-493.96968700000002
 20
37.0
 30
0.0
  0
LINE
  5
190
  8
SIZE
  6
CONTINUOUS
 62
    30
 10
23.999998999999999
 20
-18.0
 30
0.0
 11
-388.13480900000002
 21
-18.0
 31
0.0
  0
LINE
  5
191
  8
SIZE
  6
CONTINUOUS
 62
    30
 10
40.999999000000003
 20
-3.0
 30
0.0
 11
-388.13480900000002
 21
-3.0
 31
0.0
  0
LINE
  5
192
  8
SIZE
  6
CONTINUOUS
 62
    30
 10
-368.13480900000002
 20
-30.0
 30
0.0
 11
-368.13480900000002
 21
-42.0
 31
0.0
  0
LINE
  5
193
  8
SIZE
  6
CONTINUOUS
 62
    30
 10
-368.13480900000002
 20
9.0
 30
0.0
 11
-368.13480900000002
 21
21.0
 31
0.0
  0
LINE
  5
194
  8
SIZE
  6
CONTINUOUS
 62
    30
 10
-368.13480900000002
 20
174.74670900000001
 30
0.0
 11
-368.13480900000002
 21
-3.0
 31
0.0
  0
TEXT
  5
195
  8
SIZE
  6
CONTINUOUS
 62
    30
 10
-393.13480900000002
 20
67.460994857142879
 30
0.0
 40
64.0
  1
15
 50
90.0
 41
0.9
 72
     1
 11
-393.13480900000002
 21
108.603852
 31
0.0
  0
LINE
  5
196
  8
SIZE
  6
CONTINUOUS
 62
    30
 10
-368.13480900000002
 20
-18.0
 30
0.0
 11
-368.13480900000002
 21
-3.0
 31
0.0
  0
LINE
  5
197
  8
SIZE
  6
CONTINUOUS
 62
    30
 10
-368.13480900000002
 20
-18.0
 30
0.0
 11
-368.13480900000002
 21
-3.0
 31
0.0
  0
CIRCLE
  5
198
  8
SIZE
  6
CONTINUOUS
 62
    30
 10
-368.13480900000002
 20
-18.0
 30
0.0
 40
6.0
  0
LINE
  5
199
  8
SIZE
  6
CONTINUOUS
 62
    30
 10
-368.13480900000002
 20
-18.0
 30
0.0
 11
-368.13480900000002
 21
-30.0
 31
0.0
  0
CIRCLE
  5
19A
  8
SIZE
  6
CONTINUOUS
 62
    30
 10
-368.13480900000002
 20
-3.0
 30
0.0
 40
6.0
  0
LINE
  5
19B
  8
SIZE
  6
CONTINUOUS
 62
    30
 10
-368.13480900000002
 20
-3.0
 30
0.0
 11
-368.13480900000002
 21
9.0
 31
0.0
  0
POINT
  5
19C
  8
DEFPOINTS
  6
CONTINUOUS
 62
    30
 10
43.999999000000003
 20
-18.0
 30
0.0
  0
POINT
  5
19D
  8
DEFPOINTS
  6
CONTINUOUS
 62
    30
 10
60.999999000000003
 20
-3.0
 30
0.0
  0
POINT
  5
19E
  8
DEFPOINTS
  6
CONTINUOUS
 62
    30
 10
-368.13480900000002
 20
-3.0
 30
0.0
  0
LINE
  5
19F
  8
SIZE
  6
CONTINUOUS
 62
    30
 10
-20.000001000000001
 20
-600.0
 30
0.0
 11
-429.499953
 21
-600.0
 31
0.0
  0
LINE
  5
1A0
  8
SIZE
  6
CONTINUOUS
 62
    30
 10
-40.000000999999997
 20
-590.0
 30
0.0
 11
-429.499953
 21
-590.0
 31
0.0
  0
LINE
  5
1A1
  8
SIZE
  6
CONTINUOUS
 62
    30
 10
-409.49995299999989
 20
-612.0
 30
0.0
 11
-409.49995299999989
 21
-624.0
 31
0.0
  0
LINE
  5
1A2
  8
SIZE
  6
CONTINUOUS
 62
    30
 10
-409.49995299999989
 20
-578.0
 30
0.0
 11
-409.49995299999989
 21
-566.0
 31
0.0
  0
LINE
  5
1A3
  8
SIZE
  6
CONTINUOUS
 62
    30
 10
-409.49995299999989
 20
-762.12197699999979
 30
0.0
 11
-409.49995299999989
 21
-600.0
 31
0.0
  0
TEXT
  5
1A4
  8
SIZE
  6
CONTINUOUS
 62
    30
 10
-434.49995299999989
 20
-737.12197714285696
 30
0.0
 40
64.0
  1
10
 50
90.0
 41
0.9
 72
     1
 11
-434.49995299999989
 21
-695.97911999999985
 31
0.0
  0
LINE
  5
1A5
  8
SIZE
  6
CONTINUOUS
 62
    30
 10
-409.49995299999989
 20
-600.0
 30
0.0
 11
-409.49995299999989
 21
-590.0
 31
0.0
  0
LINE
  5
1A6
  8
SIZE
  6
CONTINUOUS
 62
    30
 10
-409.49995299999989
 20
-600.0
 30
0.0
 11
-409.49995299999989
 21
-590.0
 31
0.0
  0
CIRCLE
  5
1A7
  8
SIZE
  6
CONTINUOUS
 62
    30
 10
-409.49995299999989
 20
-600.0
 30
0.0
 40
6.0
  0
LINE
  5
1A8
  8
SIZE
  6
CONTINUOUS
 62
    30
 10
-409.49995299999989
 20
-600.0
 30
0.0
 11
-409.49995299999989
 21
-612.0
 31
0.0
  0
CIRCLE
  5
1A9
  8
SIZE
  6
CONTINUOUS
 62
    30
 10
-409.49995299999989
 20
-590.0
 30
0.0
 40
6.0
  0
LINE
  5
1AA
  8
SIZE
  6
CONTINUOUS
 62
    30
 10
-409.49995299999989
 20
-590.0
 30
0.0
 11
-409.49995299999989
 21
-578.0
 31
0.0
  0
POINT
  5
1AB
  8
DEFPOINTS
  6
CONTINUOUS
 62
    30
 10
-0.000001
 20
-600.0
 30
0.0
  0
POINT
  5
1AC
  8
DEFPOINTS
  6
CONTINUOUS
 62
    30
 10
-20.000001000000001
 20
-590.0
 30
0.0
  0
POINT
  5
1AD
  8
DEFPOINTS
  6
CONTINUOUS
 62
    30
 10
-409.49995299999989
 20
-590.0
 30
0.0
  0
LINE
  5
1AE
  8
NOTE
  6
CONTINUOUS
 62
     4
 10
-0.000001
 20
-590.0
 30
0.0
 11
-200.50349299999999
 21
-888.82437599999992
 31
0.0
  0
LINE
  5
1AF
  8
NOTE
  6
CONTINUOUS
 62
     4
 10
-30.354571
 20
-616.04995399999984
 30
0.0
 11
-0.000001
 21
-590.0
 31
0.0
  0
LINE
  5
1B0
  8
NOTE
  6
CONTINUOUS
 62
     4
 10
-0.000001
 20
-590.0
 30
0.0
 11
-13.262852000000001
 21
-627.73720700000001
 31
0.0
  0
CIRCLE
  5
1B1
  8
FIX
  6
CONTINUOUS
 62
    11
 10
-0.000001
 20
-590.0
 30
0.0
 40
2.5
  0
TEXT
  5
1B2
  8
ETC
  6
CONTINUOUS
 62
    61
 10
670.20591244856485
 20
658.25426567056093
 30
0.0
 40
64.0
  1
V-604KCQ6_5
 41
0.9
  0
TEXT
  5
1B4
  8
ETC
  6
CONTINUOUS
 62
    61
 10
662.29020644856485
 20
558.95040867056093
 30
0.0
 40
64.0
  1
換気扇
 41
0.9
  0
TEXT
  5
1BD
  8
ETC
  6
CONTINUOUS
 62
    61
 10
751.84385612258552
 20
497.13740767626138
 30
0.0
 40
40.0
  1
V-604KCQ5
 41
0.9
  0
TEXT
  5
1BE
  8
ETC
  6
CONTINUOUS
 62
    61
 10
750.70256123667559
 20
440.10873921393062
 30
0.0
 40
40.0
  1
V-604KQH5
 41
0.9
  0
TEXT
  5
1BF
  8
ETC
  6
CONTINUOUS
 62
    61
 10
751.84385612258552
 20
383.37128831960138
 30
0.0
 40
40.0
  1
V-604KCQ6
 41
0.9
  0
TEXT
  5
1C0
  8
ETC
  6
CONTINUOUS
 62
    61
 10
750.70256123667559
 20
326.34261985727062
 30
0.0
 40
40.0
  1
V-604KQH6
 41
0.9
  0
ENDSEC
  0
EOF
