  0
SECTION
  2
HEADER
  9
$ACADVER
  1
AC1009
  9
$DWGCODEPAGE
  3
dos932
  9
$INSBASE
 10
0.0
 20
0.0
 30
0.0
  9
$EXTMIN
 10
-647.14964166883146
 20
-660.41563795927868
 30
-0.0000002793804338
  9
$EXTMAX
 10
1107.5866815838799
 20
531.28052553078123
 30
0.0000000116489898
  9
$LIMMIN
 10
-2970.0
 20
-2100.0
  9
$LIMMAX
 10
2970.0
 20
2100.0
  9
$ORTHOMODE
 70
     1
  9
$REGENMODE
 70
     1
  9
$FILLMODE
 70
     1
  9
$QTEXTMODE
 70
     0
  9
$MIRRTEXT
 70
     0
  9
$LTSCALE
 40
20.0
  9
$ATTMODE
 70
     1
  9
$TEXTSIZE
 40
64.0
  9
$TRACEWID
 40
0.05
  9
$TEXTSTYLE
  7
STANDARD
  9
$CLAYER
  8
NOTE
  9
$CELTYPE
  6
CONTINUOUS
  9
$CECOLOR
 62
     7
  9
$DIMSCALE
 40
1.0
  9
$DIMASZ
 40
12.0
  9
$DIMEXO
 40
20.0
  9
$DIMDLI
 40
200.0
  9
$DIMRND
 40
0.0
  9
$DIMDLE
 40
0.0
  9
$DIMEXE
 40
20.0
  9
$DIMTP
 40
0.0
  9
$DIMTM
 40
0.0
  9
$DIMTXT
 40
64.0
  9
$DIMCEN
 40
0.09
  9
$DIMTSZ
 40
0.0
  9
$DIMTOL
 70
     0
  9
$DIMLIM
 70
     0
  9
$DIMTIH
 70
     0
  9
$DIMTOH
 70
     0
  9
$DIMSE1
 70
     0
  9
$DIMSE2
 70
     0
  9
$DIMTAD
 70
     1
  9
$DIMZIN
 70
     8
  9
$DIMBLK
  1

  9
$DIMASO
 70
     1
  9
$DIMSHO
 70
     0
  9
$DIMPOST
  1

  9
$DIMAPOST
  1

  9
$DIMALT
 70
     0
  9
$DIMALTD
 70
     2
  9
$DIMALTF
 40
25.399999999999999
  9
$DIMLFAC
 40
1.0
  9
$DIMTOFL
 70
     1
  9
$DIMTVP
 40
0.0
  9
$DIMTIX
 70
     1
  9
$DIMSOXD
 70
     0
  9
$DIMSAH
 70
     0
  9
$DIMBLK1
  1

  9
$DIMBLK2
  1

  9
$DIMSTYLE
  2
STANDARD
  9
$DIMCLRD
 70
     7
  9
$DIMCLRE
 70
     7
  9
$DIMCLRT
 70
     7
  9
$DIMTFAC
 40
1.0
  9
$DIMGAP
 40
25.0
  9
$LUNITS
 70
     2
  9
$LUPREC
 70
     4
  9
$SKETCHINC
 40
0.1
  9
$FILLETRAD
 40
3.0
  9
$AUNITS
 70
     1
  9
$AUPREC
 70
     3
  9
$MENU
  1
ACAD
  9
$ELEVATION
 40
0.0
  9
$PELEVATION
 40
0.0
  9
$THICKNESS
 40
50.0
  9
$LIMCHECK
 70
     0
  9
$CHAMFERA
 40
0.0
  9
$CHAMFERB
 40
0.0
  9
$SKPOLY
 70
     0
  9
$TDCREATE
 40
2453019.62301037
  9
$TDUPDATE
 40
2458887.741259294
  9
$TDINDWG
 40
1.7094384722
  9
$TDUSRTIMER
 40
1.7094384722
  9
$USRTIMER
 70
     1
  9
$ANGBASE
 50
0.0
  9
$ANGDIR
 70
     0
  9
$PDMODE
 70
     3
  9
$PDSIZE
 40
-2.0
  9
$PLINEWID
 40
0.0
  9
$SPLFRAME
 70
     0
  9
$SPLINETYPE
 70
     6
  9
$SPLINESEGS
 70
     8
  9
$SURFTAB1
 70
     6
  9
$SURFTAB2
 70
     6
  9
$SURFTYPE
 70
     6
  9
$SURFU
 70
     6
  9
$SURFV
 70
     6
  9
$UCSNAME
  2

  9
$UCSORG
 10
0.0
 20
0.0
 30
0.0
  9
$UCSXDIR
 10
1.0
 20
0.0
 30
0.0
  9
$UCSYDIR
 10
0.0
 20
1.0
 30
0.0
  9
$PUCSNAME
  2

  9
$PUCSORG
 10
0.0
 20
0.0
 30
0.0
  9
$PUCSXDIR
 10
1.0
 20
0.0
 30
0.0
  9
$PUCSYDIR
 10
0.0
 20
1.0
 30
0.0
  9
$USERI1
 70
     0
  9
$USERI2
 70
     0
  9
$USERI3
 70
     0
  9
$USERI4
 70
     0
  9
$USERI5
 70
     0
  9
$USERR1
 40
20.0
  9
$USERR2
 40
0.0
  9
$USERR3
 40
0.0
  9
$USERR4
 40
0.0
  9
$USERR5
 40
0.0
  9
$WORLDVIEW
 70
     1
  9
$SHADEDGE
 70
     3
  9
$SHADEDIF
 70
    70
  9
$TILEMODE
 70
     1
  9
$MAXACTVP
 70
    48
  9
$PINSBASE
 10
0.0
 20
0.0
 30
0.0
  9
$PLIMCHECK
 70
     0
  9
$PEXTMIN
 10
-100000000000000000000.0
 20
-100000000000000000000.0
 30
-100000000000000000000.0
  9
$PEXTMAX
 10
100000000000000000000.0
 20
100000000000000000000.0
 30
100000000000000000000.0
  9
$PLIMMIN
 10
0.0
 20
0.0
  9
$PLIMMAX
 10
12.0
 20
9.0
  9
$UNITMODE
 70
     0
  9
$VISRETAIN
 70
     0
  9
$PLINEGEN
 70
     0
  9
$PSLTSCALE
 70
     0
  9
$TREEDEPTH
 70
  3020
  9
$ATTDIA
 70
     0
  9
$ATTREQ
 70
     1
  9
$BLIPMODE
 70
     1
  9
$COORDS
 70
     1
  9
$DRAGMODE
 70
     2
  9
$OSMODE
 70
     0
  9
$HANDLING
 70
     0
  9
$HANDSEED
  5
E6FB
  0
ENDSEC
  0
SECTION
  2
TABLES
  0
TABLE
  2
LTYPE
 70
     3
  0
LTYPE
  2
CONTINUOUS
 70
     0
  3
実線
 72
    65
 73
     0
 40
0.0
  0
LTYPE
  2
DASHDOT
 70
     0
  3
____ _ ____ _ ____ _ ____ _ ____ _ ____ _ ____
 72
    65
 73
     4
 40
5.5
 49
4.0
 49
-0.6
 49
0.3
 49
-0.6
  0
LTYPE
  2
CONTINOUS
 70
     0
  3
Solid line
 72
    65
 73
     0
 40
0.0
  0
ENDTAB
  0
TABLE
  2
LAYER
 70
    12
  0
LAYER
  2
0
 70
     0
 62
     7
  6
CONTINUOUS
  0
LAYER
  2
BASIS
 70
     0
 62
     6
  6
DASHDOT
  0
LAYER
  2
OUTLINE
 70
     0
 62
     3
  6
CONTINUOUS
  0
LAYER
  2
DETAIL
 70
     0
 62
     5
  6
CONTINUOUS
  0
LAYER
  2
SIZE
 70
     0
 62
    30
  6
CONTINUOUS
  0
LAYER
  2
ARRANGE
 70
     0
 62
     1
  6
CONTINUOUS
  0
LAYER
  2
ETC
 70
     0
 62
    61
  6
CONTINUOUS
  0
LAYER
  2
NOTE
 70
     0
 62
     4
  6
CONTINUOUS
  0
LAYER
  2
DEFPOINTS
 70
    64
 62
     7
  6
CONTINUOUS
  0
LAYER
  2
FIX
 70
    64
 62
    11
  6
CONTINUOUS
  0
LAYER
  2
SERVICESPACE
 70
    64
 62
     2
  6
DASHDOT
  0
LAYER
  2
SYMBOLLINE
 70
    64
 62
    15
  6
CONTINUOUS
  0
ENDTAB
  0
TABLE
  2
STYLE
 70
     1
  0
STYLE
  2
STANDARD
 70
     0
 40
64.0
 41
0.9
 50
0.0
 71
     0
 42
64.0
  3
SIMPLEX.shx
  4
BIGFONT.shx
  0
ENDTAB
  0
TABLE
  2
APPID
 70
    17
  0
APPID
  2
ACAD
 70
     0
  0
APPID
  2
AUTOCAD_POSTSCRIPT_FIGURE
 70
     0
  0
APPID
  2
ACAD_EXEMPT_FROM_CAD_STANDARDS
 70
     0
  0
APPID
  2
ACAD_PSEXT
 70
     0
  0
APPID
  2
ACAUTHENVIRON
 70
     0
  0
APPID
  2
GENIUS_GENOENT_13
 70
     0
  0
APPID
  2
GENIUS_GENCFG_13
 70
     0
  0
APPID
  2
GENIUS_GENCFG0_13
 70
     0
  0
APPID
  2
GENIUS_GENCFG1_13
 70
     0
  0
APPID
  2
GENIUS_GENCFG2_13
 70
     0
  0
APPID
  2
GENIUS_GENCFG3_13
 70
     0
  0
APPID
  2
GENIUS_GENCFG4_13
 70
     0
  0
APPID
  2
GENIUS_GEVCFG0_13
 70
     0
  0
APPID
  2
CONTENTBLOCKICON
 70
     0
  0
APPID
  2
CONTENTBLOCKDESCRIPTION
 70
     0
  0
APPID
  2
ACAD_NAV_VCDISPLAY
 70
     0
  0
APPID
  2
ACAD_MLEADERVER
 70
     0
  0
ENDTAB
  0
TABLE
  2
DIMSTYLE
 70
     1
  0
DIMSTYLE
  2
STANDARD
 70
     0
  3

  4

  5
_ORIGIN
  6

  7

 40
1.0
 41
12.0
 42
20.0
 43
200.0
 44
20.0
 45
0.0
 46
0.0
 47
0.0
 48
0.0
140
64.0
141
0.09
142
0.0
143
25.399999999999999
144
1.0
145
0.0
146
1.0
147
25.0
 71
     0
 72
     0
 73
     0
 74
     0
 75
     0
 76
     0
 77
     1
 78
     8
170
     0
171
     2
172
     1
173
     0
174
     1
175
     0
176
     7
177
     7
178
     7
  0
ENDTAB
  0
TABLE
  2
VIEW
 70
     1
  0
VIEW
  2
ALL
 70
     0
 40
4282.6198079999986
 10
0.0
 20
41.309904000000003
 41
5940.0
 11
0.0
 21
0.0
 31
1.0
 12
0.0
 22
0.0
 32
0.0
 42
50.0
 43
0.0
 44
0.0
 50
0.0
 71
     0
  0
ENDTAB
  0
TABLE
  2
UCS
 70
     0
  0
ENDTAB
  0
TABLE
  2
VPORT
 70
     1
  0
VPORT
  2
*ACTIVE
 70
     0
 10
0.0
 20
0.0
 11
1.0
 21
1.0
 12
230.21851995752411
 22
-64.567556214248725
 13
0.0
 23
0.0
 14
1.0
 24
1.0
 15
0.0
 25
0.0
 16
0.0
 26
0.0
 36
1.0
 17
0.0
 27
0.0
 37
0.0
 40
1199.082709957974
 41
1.6339193381592549
 42
50.0
 43
0.0
 44
0.0
 50
0.0
 51
0.0
 71
     0
 72
  1000
 73
     1
 74
     3
 75
     0
 76
     0
 77
     0
 78
     0
  0
ENDTAB
  0
ENDSEC
  0
SECTION
  2
BLOCKS
  0
BLOCK
  8
0
  2
_ORIGIN
 70
     0
 10
0.0
 20
0.0
 30
0.0
  3
_ORIGIN
  1
_ORIGIN
  0
CIRCLE
  8
0
  6
CONTINUOUS
 62
     7
 10
0.0
 20
0.0
 30
0.0
 40
0.5
  0
LINE
  8
0
  6
CONTINUOUS
 62
     7
 10
0.0
 20
0.0
 30
0.0
 11
-1.0
 21
0.0
 31
0.0
  0
ENDBLK
  8
0
  0
ENDSEC
  0
SECTION
  2
ENTITIES
  0
POINT
  8
ARRANGE
  6
CONTINUOUS
 62
     1
 10
0.0
 20
0.0
 30
0.0
  0
LINE
  8
DETAIL
  6
CONTINUOUS
 62
     5
 10
-300.0
 20
-200.0
 30
0.0
 11
-300.0
 21
0.0
 31
0.0
  0
LINE
  8
BASIS
  6
DASHDOT
 62
     6
 10
0.0
 20
-660.20309699999984
 30
0.0
 11
0.0
 21
53.436089000000038
 31
0.0
  0
LINE
  8
DETAIL
  6
CONTINOUS
 62
     5
 10
-300.0
 20
-600.0
 30
0.0
 11
-300.0
 21
-200.0
 31
0.0
  0
LINE
  8
DETAIL
  6
CONTINOUS
 62
     5
 10
-300.0
 20
-200.0
 30
0.0
 11
300.0
 21
-200.0
 31
0.0
  0
LINE
  8
DETAIL
  6
CONTINOUS
 62
     5
 10
300.0
 20
-600.0
 30
0.0
 11
300.0
 21
0.0
 31
0.0
  0
LINE
  8
DETAIL
  6
CONTINOUS
 62
     5
 10
-300.0
 20
-600.0
 30
0.0
 11
300.0
 21
-600.0
 31
0.0
  0
CIRCLE
  8
ARRANGE
  6
CONTINUOUS
 62
     1
 10
0.0
 20
0.0
 30
0.0
 40
40.0
  0
LINE
  8
OUTLINE
  6
CONTINOUS
 62
     3
 10
300.0
 20
-600.0
 30
0.0
 11
300.0
 21
-200.0
 31
0.0
  0
LINE
  8
OUTLINE
  6
CONTINUOUS
 62
     3
 10
300.0
 20
-200.0
 30
0.0
 11
300.0
 21
0.0
 31
0.0
  0
LINE
  8
OUTLINE
  6
CONTINOUS
 62
     3
 10
-300.0
 20
-600.0
 30
0.0
 11
-300.0
 21
0.0
 31
0.0
  0
LINE
  8
OUTLINE
  6
CONTINOUS
 62
     3
 10
300.0
 20
-600.0
 30
0.0
 11
-300.0
 21
-600.0
 31
0.0
  0
LINE
  8
DETAIL
  6
CONTINUOUS
 62
     5
 10
300.0
 20
0.0
 30
0.0
 11
-300.0
 21
0.0
 31
0.0
  0
LINE
  8
BASIS
  6
DASHDOT
 62
     6
 10
109.0
 20
-29.927254999999949
 30
0.0
 11
109.0
 21
67.355767000000014
 31
0.0
  0
LINE
  8
BASIS
  6
DASHDOT
 62
     6
 10
-167.0
 20
-29.927254999999949
 30
0.0
 11
-167.0
 21
73.410868999999934
 31
0.0
  0
LINE
  8
DETAIL
  6
CONTINUOUS
 62
     5
 10
35.0
 20
37.0
 30
0.0
 11
183.0
 21
37.0
 31
0.0
  0
LINE
  8
DETAIL
  6
CONTINUOUS
 62
     5
 10
183.0
 20
0.0
 30
0.0
 11
183.0
 21
37.0
 31
0.0
  0
LINE
  8
DETAIL
  6
CONTINUOUS
 62
     5
 10
35.0
 20
0.0
 30
0.0
 11
35.0
 21
37.0
 31
0.0
  0
LINE
  8
DETAIL
  6
CONTINUOUS
 62
     5
 10
-241.0
 20
0.0
 30
0.0
 11
-241.0
 21
37.0
 31
0.0
  0
LINE
  8
DETAIL
  6
CONTINUOUS
 62
     5
 10
-93.0
 20
0.0
 30
0.0
 11
-93.0
 21
37.0
 31
0.0
  0
LINE
  8
DETAIL
  6
CONTINUOUS
 62
     5
 10
-241.0
 20
37.0
 30
0.0
 11
-93.0
 21
37.0
 31
0.0
  0
LINE
  8
SIZE
  6
CONTINUOUS
 62
    30
 10
-320.0
 20
0.0
 30
0.0
 11
-577.9483449999999
 21
0.0
 31
0.0
  0
LINE
  8
SIZE
  6
CONTINUOUS
 62
    30
 10
-320.0
 20
-600.0
 30
0.0
 11
-577.9483449999999
 21
-600.0
 31
0.0
  0
LINE
  8
SIZE
  6
CONTINUOUS
 62
    30
 10
-557.94834500000002
 20
-12.0
 30
0.0
 11
-557.94834500000002
 21
-588.0
 31
0.0
  0
CIRCLE
  8
SIZE
  6
CONTINUOUS
 62
    30
 10
-557.94834500000002
 20
0.0
 30
0.0
 40
6.0
  0
LINE
  8
SIZE
  6
CONTINUOUS
 62
    30
 10
-557.94834500000002
 20
0.0
 30
0.0
 11
-557.94834500000002
 21
-12.0
 31
0.0
  0
CIRCLE
  8
SIZE
  6
CONTINUOUS
 62
    30
 10
-557.94834500000002
 20
-600.0
 30
0.0
 40
6.0
  0
LINE
  8
SIZE
  6
CONTINUOUS
 62
    30
 10
-557.94834500000002
 20
-600.0
 30
0.0
 11
-557.94834500000002
 21
-588.0
 31
0.0
  0
TEXT
  8
SIZE
  6
CONTINUOUS
 62
    30
 10
-582.94834500000002
 20
-374.05714285714282
 30
0.0
 40
64.0
  1
600
 50
90.0
 41
0.9
 72
     1
 11
-582.94834500000002
 21
-300.0
 31
0.0
  0
LINE
  8
SIZE
  6
CONTINUOUS
 62
    30
 10
-320.0
 20
-600.0
 30
0.0
 11
-462.52864799999998
 21
-600.0
 31
0.0
  0
LINE
  8
SIZE
  6
CONTINUOUS
 62
    30
 10
-320.0
 20
-200.0
 30
0.0
 11
-462.52864799999998
 21
-200.0
 31
0.0
  0
LINE
  8
SIZE
  6
CONTINUOUS
 62
    30
 10
-442.52864799999998
 20
-588.0
 30
0.0
 11
-442.52864799999998
 21
-212.0
 31
0.0
  0
CIRCLE
  8
SIZE
  6
CONTINUOUS
 62
    30
 10
-442.52864799999998
 20
-600.0
 30
0.0
 40
6.0
  0
LINE
  8
SIZE
  6
CONTINUOUS
 62
    30
 10
-442.52864799999998
 20
-600.0
 30
0.0
 11
-442.52864799999998
 21
-588.0
 31
0.0
  0
CIRCLE
  8
SIZE
  6
CONTINUOUS
 62
    30
 10
-442.52864799999998
 20
-200.0
 30
0.0
 40
6.0
  0
LINE
  8
SIZE
  6
CONTINUOUS
 62
    30
 10
-442.52864799999998
 20
-200.0
 30
0.0
 11
-442.52864799999998
 21
-212.0
 31
0.0
  0
TEXT
  8
SIZE
  6
CONTINUOUS
 62
    30
 10
-467.52864799999998
 20
-474.05714285714282
 30
0.0
 40
64.0
  1
400
 50
90.0
 41
0.9
 72
     1
 11
-467.52864799999998
 21
-400.0
 31
0.0
  0
LINE
  8
SIZE
  6
CONTINUOUS
 62
    30
 10
-300.0
 20
20.0
 30
0.0
 11
-300.0
 21
428.82876700000003
 31
0.0
  0
LINE
  8
SIZE
  6
CONTINUOUS
 62
    30
 10
300.0
 20
20.0
 30
0.0
 11
300.0
 21
428.82876700000003
 31
0.0
  0
LINE
  8
SIZE
  6
CONTINUOUS
 62
    30
 10
-288.0
 20
408.82876700000003
 30
0.0
 11
288.0
 21
408.82876700000003
 31
0.0
  0
CIRCLE
  8
SIZE
  6
CONTINUOUS
 62
    30
 10
-300.0
 20
408.82876700000003
 30
0.0
 40
6.0
  0
LINE
  8
SIZE
  6
CONTINUOUS
 62
    30
 10
-300.0
 20
408.82876700000003
 30
0.0
 11
-288.0
 21
408.82876700000003
 31
0.0
  0
CIRCLE
  8
SIZE
  6
CONTINUOUS
 62
    30
 10
300.0
 20
408.82876700000003
 30
0.0
 40
6.0
  0
LINE
  8
SIZE
  6
CONTINUOUS
 62
    30
 10
300.0
 20
408.82876700000003
 30
0.0
 11
288.0
 21
408.82876700000003
 31
0.0
  0
TEXT
  8
SIZE
  6
CONTINUOUS
 62
    30
 10
-74.05714285714285
 20
433.82876700000003
 30
0.0
 40
64.0
  1
600
 41
0.9
 72
     1
 11
0.0
 21
433.82876700000003
 31
0.0
  0
LINE
  8
SIZE
  6
CONTINUOUS
 62
    30
 10
0.0
 20
73.436089000000038
 30
0.0
 11
0.0
 21
299.28979299999992
 31
0.0
  0
LINE
  8
SIZE
  6
CONTINUOUS
 62
    30
 10
109.0
 20
87.355767000000014
 30
0.0
 11
109.0
 21
299.28979299999992
 31
0.0
  0
LINE
  8
SIZE
  6
CONTINUOUS
 62
    30
 10
12.0
 20
279.28979299999992
 30
0.0
 11
97.0
 21
279.28979299999992
 31
0.0
  0
TEXT
  8
SIZE
  6
CONTINUOUS
 62
    30
 10
40.85524700000002
 20
304.28979299999992
 30
0.0
 40
64.0
  1
109
 41
0.9
 72
     1
 11
108.05524699999999
 21
304.28979299999992
 31
0.0
  0
CIRCLE
  8
SIZE
  6
CONTINUOUS
 62
    30
 10
0.0
 20
279.28979299999992
 30
0.0
 40
6.0
  0
LINE
  8
SIZE
  6
CONTINUOUS
 62
    30
 10
0.0
 20
279.28979299999992
 30
0.0
 11
12.0
 21
279.28979299999992
 31
0.0
  0
CIRCLE
  8
SIZE
  6
CONTINUOUS
 62
    30
 10
109.0
 20
279.28979299999992
 30
0.0
 40
6.0
  0
LINE
  8
SIZE
  6
CONTINUOUS
 62
    30
 10
109.0
 20
279.28979299999992
 30
0.0
 11
97.0
 21
279.28979299999992
 31
0.0
  0
LINE
  8
SIZE
  6
CONTINUOUS
 62
    30
 10
0.0
 20
73.436089000000038
 30
0.0
 11
0.0
 21
299.28979299999992
 31
0.0
  0
LINE
  8
SIZE
  6
CONTINUOUS
 62
    30
 10
-167.0
 20
93.410868999999934
 30
0.0
 11
-167.0
 21
299.28979299999992
 31
0.0
  0
LINE
  8
SIZE
  6
CONTINUOUS
 62
    30
 10
-12.0
 20
279.28979299999992
 30
0.0
 11
-155.0
 21
279.28979299999992
 31
0.0
  0
TEXT
  8
SIZE
  6
CONTINUOUS
 62
    30
 10
-166.1669555714285
 20
305.60173500000002
 30
0.0
 40
64.0
  1
167
 41
0.9
 72
     1
 11
-97.595526999999947
 21
305.60173500000002
 31
0.0
  0
CIRCLE
  8
SIZE
  6
CONTINUOUS
 62
    30
 10
0.0
 20
279.28979299999992
 30
0.0
 40
6.0
  0
LINE
  8
SIZE
  6
CONTINUOUS
 62
    30
 10
0.0
 20
279.28979299999992
 30
0.0
 11
-12.0
 21
279.28979299999992
 31
0.0
  0
CIRCLE
  8
SIZE
  6
CONTINUOUS
 62
    30
 10
-167.0
 20
279.28979299999992
 30
0.0
 40
6.0
  0
LINE
  8
SIZE
  6
CONTINUOUS
 62
    30
 10
-167.0
 20
279.28979299999992
 30
0.0
 11
-155.0
 21
279.28979299999992
 31
0.0
  0
LINE
  8
SIZE
  6
CONTINUOUS
 62
    30
 10
-93.0
 20
57.0
 30
0.0
 11
-93.0
 21
175.515682
 31
0.0
  0
LINE
  8
SIZE
  6
CONTINUOUS
 62
    30
 10
-241.0
 20
57.0
 30
0.0
 11
-241.0
 21
175.515682
 31
0.0
  0
LINE
  8
SIZE
  6
CONTINUOUS
 62
    30
 10
-105.0
 20
155.515682
 30
0.0
 11
-229.0
 21
155.515682
 31
0.0
  0
LINE
  8
SIZE
  6
CONTINUOUS
 62
    30
 10
-546.85440200000005
 20
155.515682
 30
0.0
 11
-241.0
 21
155.515682
 31
0.0
  0
TEXT
  8
SIZE
  6
CONTINUOUS
 62
    30
 10
-525.96868714285699
 20
180.515682
 30
0.0
 40
64.0
  1
φ148
 41
0.9
 72
     1
 11
-427.22582999999992
 21
180.515682
 31
0.0
  0
CIRCLE
  8
SIZE
  6
CONTINUOUS
 62
    30
 10
-93.0
 20
155.515682
 30
0.0
 40
6.0
  0
LINE
  8
SIZE
  6
CONTINUOUS
 62
    30
 10
-93.0
 20
155.515682
 30
0.0
 11
-105.0
 21
155.515682
 31
0.0
  0
CIRCLE
  8
SIZE
  6
CONTINUOUS
 62
    30
 10
-241.0
 20
155.515682
 30
0.0
 40
6.0
  0
LINE
  8
SIZE
  6
CONTINUOUS
 62
    30
 10
-241.0
 20
155.515682
 30
0.0
 11
-229.0
 21
155.515682
 31
0.0
  0
LINE
  8
OUTLINE
  6
CONTINUOUS
 62
     3
 10
300.0
 20
0.0
 30
0.0
 11
183.0
 21
0.0
 31
0.0
  0
LINE
  8
OUTLINE
  6
CONTINUOUS
 62
     3
 10
35.0
 20
0.0
 30
0.0
 11
-93.0
 21
0.0
 31
0.0
  0
LINE
  8
OUTLINE
  6
CONTINUOUS
 62
     3
 10
-241.0
 20
0.0
 30
0.0
 11
-300.0
 21
0.0
 31
0.0
  0
LINE
  8
DETAIL
  6
CONTINOUS
 62
     5
 10
0.0
 20
-553.0
 30
0.0
 11
274.66708499999999
 21
-553.0
 31
0.0
  0
LINE
  8
DETAIL
  6
CONTINOUS
 62
     5
 10
0.0
 20
-470.0
 30
0.0
 11
274.66708499999999
 21
-470.0
 31
0.0
  0
LINE
  8
DETAIL
  6
CONTINOUS
 62
     5
 10
-276.49960199999992
 20
-562.53605000000005
 30
0.0
 11
278.0
 21
-562.53605000000005
 31
0.0
  0
LINE
  8
DETAIL
  6
CONTINOUS
 62
     5
 10
0.0
 20
-553.0
 30
0.0
 11
-273.27989500000012
 21
-553.0
 31
0.0
  0
LINE
  8
DETAIL
  6
CONTINOUS
 62
     5
 10
0.0
 20
-470.0
 30
0.0
 11
-273.64077900000012
 21
-470.0
 31
0.0
  0
LINE
  8
DETAIL
  6
CONTINOUS
 62
     5
 10
221.99883
 20
-496.24780800000002
 30
0.0
 11
257.14290099999988
 21
-496.24780800000002
 31
0.0
  0
LINE
  8
DETAIL
  6
CONTINOUS
 62
     5
 10
51.498829999999998
 20
-535.24780799999996
 30
0.0
 11
256.54532499999999
 21
-535.24780799999996
 31
0.0
  0
LINE
  8
DETAIL
  6
CONTINOUS
 62
     5
 10
51.498829999999998
 20
-526.55063700000005
 30
0.0
 11
261.16022800000002
 21
-526.55063700000005
 31
0.0
  0
LINE
  8
DETAIL
  6
CONTINOUS
 62
     5
 10
51.458442000000097
 20
-505.23160700000011
 30
0.0
 11
261.20438999999988
 21
-505.23160700000011
 31
0.0
  0
ARC
  8
DETAIL
  6
CONTINOUS
 62
     5
 10
51.498829999999998
 20
-515.74780799999996
 30
0.0
 40
19.5
 50
90.0
 51
270.0
  0
ARC
  8
DETAIL
  6
CONTINOUS
 62
     5
 10
51.498829999999998
 20
-515.74780799999996
 30
0.0
 40
10.5
 50
90.0
 51
270.0
  0
CIRCLE
  8
DETAIL
  6
CONTINOUS
 62
     5
 10
121.99883
 20
-518.24780799999996
 30
0.0
 40
8.3000000000000007
  0
CIRCLE
  8
DETAIL
  6
CONTINOUS
 62
     5
 10
121.99883
 20
-518.24780799999996
 30
0.0
 40
6.5
  0
CIRCLE
  8
DETAIL
  6
CONTINOUS
 62
     5
 10
100.49883
 20
-518.24780799999996
 30
0.0
 40
6.5
  0
CIRCLE
  8
DETAIL
  6
CONTINOUS
 62
     5
 10
100.49883
 20
-518.24780799999996
 30
0.0
 40
8.3000000000000007
  0
CIRCLE
  8
DETAIL
  6
CONTINOUS
 62
     5
 10
186.49883
 20
-518.24780799999996
 30
0.0
 40
6.5
  0
CIRCLE
  8
DETAIL
  6
CONTINOUS
 62
     5
 10
186.49883
 20
-518.24780799999996
 30
0.0
 40
8.3000000000000007
  0
CIRCLE
  8
DETAIL
  6
CONTINOUS
 62
     5
 10
164.99883
 20
-518.24780799999996
 30
0.0
 40
6.5
  0
CIRCLE
  8
DETAIL
  6
CONTINOUS
 62
     5
 10
164.99883
 20
-518.24780799999996
 30
0.0
 40
8.3000000000000007
  0
CIRCLE
  8
DETAIL
  6
CONTINOUS
 62
     5
 10
229.49883
 20
-518.24780799999996
 30
0.0
 40
6.5
  0
CIRCLE
  8
DETAIL
  6
CONTINOUS
 62
     5
 10
207.99883
 20
-518.24780799999996
 30
0.0
 40
6.5
  0
CIRCLE
  8
DETAIL
  6
CONTINOUS
 62
     5
 10
229.49883
 20
-518.24780799999996
 30
0.0
 40
8.3000000000000007
  0
CIRCLE
  8
DETAIL
  6
CONTINOUS
 62
     5
 10
207.99883
 20
-518.24780799999996
 30
0.0
 40
8.3000000000000007
  0
LINE
  8
DETAIL
  6
CONTINOUS
 62
     5
 10
51.498829999999998
 20
-496.24780800000002
 30
0.0
 11
221.99883
 21
-496.24780800000002
 31
0.0
  0
ARC
  8
DETAIL
  6
CONTINOUS
 62
     5
 10
191.99883
 20
-515.74780799999996
 30
0.0
 40
70.0
 50
0.0
 51
13.92204399999944
  0
ARC
  8
DETAIL
  6
CONTINOUS
 62
     5
 10
256.54532499999999
 20
-531.74780799999996
 30
0.0
 40
3.5
 50
270.0
 51
346.07795600000048
  0
ARC
  8
DETAIL
  6
CONTINOUS
 62
     5
 10
191.99883
 20
-515.74780799999996
 30
0.0
 40
70.0
 50
346.07795600000048
 51
0.0
  0
ARC
  8
DETAIL
  6
CONTINOUS
 62
     5
 10
256.54532499999999
 20
-499.74780800000002
 30
0.0
 40
3.5
 50
13.92204399999944
 51
90.0
  0
LINE
  8
DETAIL
  6
CONTINOUS
 62
     5
 10
-280.0
 20
-600.0
 30
0.0
 11
-280.0
 21
-200.0
 31
0.0
  0
LINE
  8
DETAIL
  6
CONTINOUS
 62
     5
 10
280.0
 20
-600.0
 30
0.0
 11
280.0
 21
-200.0
 31
0.0
  0
LINE
  8
DETAIL
  6
CONTINUOUS
 62
     5
 10
-0.0000979999999799
 20
-157.00000199999999
 30
0.0
 11
-61.50009799999998
 21
-157.00000199999999
 31
0.0
  0
LINE
  8
DETAIL
  6
CONTINUOUS
 62
     5
 10
-0.0000979999999799
 20
-150.866027
 30
0.0
 11
-63.00009799999998
 21
-150.866027
 31
0.0
  0
LINE
  8
DETAIL
  6
CONTINUOUS
 62
     5
 10
-0.0000979999999799
 20
-154.79903999999999
 30
0.0
 11
-62.00009799999998
 21
-154.79903999999999
 31
0.0
  0
LINE
  8
DETAIL
  6
CONTINUOUS
 62
     5
 10
-0.0000979999999799
 20
-121.79903899999999
 30
0.0
 11
-62.00009799999998
 21
-121.79903899999999
 31
0.0
  0
LINE
  8
DETAIL
  6
CONTINUOUS
 62
     5
 10
-0.0000979999999799
 20
-117.866027
 30
0.0
 11
-63.00009799999998
 21
-117.866027
 31
0.0
  0
LINE
  8
DETAIL
  6
CONTINUOUS
 62
     5
 10
-0.0000979999999799
 20
-124.000001
 30
0.0
 11
-61.50009799999998
 21
-124.000001
 31
0.0
  0
LINE
  8
DETAIL
  6
CONTINUOUS
 62
     5
 10
-0.0000979999999799
 20
-135.000001
 30
0.0
 11
-61.50009799999998
 21
-135.000001
 31
0.0
  0
LINE
  8
DETAIL
  6
CONTINUOUS
 62
     5
 10
-0.0000979999999799
 20
-128.866027
 30
0.0
 11
-63.00009799999998
 21
-128.866027
 31
0.0
  0
LINE
  8
DETAIL
  6
CONTINUOUS
 62
     5
 10
-0.0000979999999799
 20
-132.79903899999999
 30
0.0
 11
-62.00009799999998
 21
-132.79903899999999
 31
0.0
  0
LINE
  8
DETAIL
  6
CONTINUOUS
 62
     5
 10
-0.0000979999999799
 20
-146.000001
 30
0.0
 11
-61.50009799999998
 21
-146.000001
 31
0.0
  0
LINE
  8
DETAIL
  6
CONTINUOUS
 62
     5
 10
-0.0000979999999799
 20
-139.866027
 30
0.0
 11
-63.00009799999998
 21
-139.866027
 31
0.0
  0
LINE
  8
DETAIL
  6
CONTINUOUS
 62
     5
 10
-0.0000979999999799
 20
-143.79903999999999
 30
0.0
 11
-62.00009799999998
 21
-143.79903999999999
 31
0.0
  0
LINE
  8
DETAIL
  6
CONTINUOUS
 62
     5
 10
-0.0000979999999799
 20
-99.799038999999993
 30
0.0
 11
-62.00009799999998
 21
-99.799038999999993
 31
0.0
  0
LINE
  8
DETAIL
  6
CONTINUOUS
 62
     5
 10
-0.0000979999999799
 20
-95.866026000000033
 30
0.0
 11
-63.00009799999998
 21
-95.866026000000033
 31
0.0
  0
LINE
  8
DETAIL
  6
CONTINUOUS
 62
     5
 10
-0.0000979999999799
 20
-102.000001
 30
0.0
 11
-61.50009799999998
 21
-102.000001
 31
0.0
  0
LINE
  8
DETAIL
  6
CONTINUOUS
 62
     5
 10
-0.0000979999999799
 20
-110.79903899999999
 30
0.0
 11
-62.00009799999998
 21
-110.79903899999999
 31
0.0
  0
LINE
  8
DETAIL
  6
CONTINUOUS
 62
     5
 10
-0.0000979999999799
 20
-106.86602600000001
 30
0.0
 11
-63.00009799999998
 21
-106.86602600000001
 31
0.0
  0
LINE
  8
DETAIL
  6
CONTINUOUS
 62
     5
 10
-0.0000979999999799
 20
-113.000001
 30
0.0
 11
-61.50009799999998
 21
-113.000001
 31
0.0
  0
LINE
  8
DETAIL
  6
CONTINUOUS
 62
     5
 10
-0.0000979999999799
 20
-168.00000199999999
 30
0.0
 11
-61.50009799999998
 21
-168.00000199999999
 31
0.0
  0
LINE
  8
DETAIL
  6
CONTINUOUS
 62
     5
 10
-0.0000979999999799
 20
-161.866027
 30
0.0
 11
-63.00009799999998
 21
-161.866027
 31
0.0
  0
LINE
  8
DETAIL
  6
CONTINUOUS
 62
     5
 10
-0.0000979999999799
 20
-165.79903999999999
 30
0.0
 11
-62.00009799999998
 21
-165.79903999999999
 31
0.0
  0
LINE
  8
DETAIL
  6
CONTINUOUS
 62
     5
 10
-65.00009799999998
 20
-164.50000199999999
 30
0.0
 11
-65.00009799999998
 21
-161.00000199999999
 31
0.0
  0
LINE
  8
DETAIL
  6
CONTINUOUS
 62
     5
 10
-235.0001
 20
-164.50000199999999
 30
0.0
 11
-235.0001
 21
-161.00000199999999
 31
0.0
  0
LINE
  8
DETAIL
  6
CONTINUOUS
 62
     5
 10
-105.00009899999991
 20
-164.50000199999999
 30
0.0
 11
-105.00009899999991
 21
-161.00000199999999
 31
0.0
  0
LINE
  8
DETAIL
  6
CONTINUOUS
 62
     5
 10
-108.00009899999991
 20
-165.79903999999999
 30
0.0
 11
-232.0001
 21
-165.79903999999999
 31
0.0
  0
LINE
  8
DETAIL
  6
CONTINUOUS
 62
     5
 10
-107.00009899999991
 20
-161.866027
 30
0.0
 11
-233.0001
 21
-161.866027
 31
0.0
  0
LINE
  8
DETAIL
  6
CONTINUOUS
 62
     5
 10
-108.50009899999991
 20
-168.00000199999999
 30
0.0
 11
-231.5001
 21
-168.00000199999999
 31
0.0
  0
ARC
  8
DETAIL
  6
CONTINUOUS
 62
     5
 10
-232.0001
 20
-162.79903999999999
 30
0.0
 40
3.0
 50
180.0
 51
270.0
  0
ARC
  8
DETAIL
  6
CONTINUOUS
 62
     5
 10
-231.5001
 20
-164.50000199999999
 30
0.0
 40
3.5
 50
180.0
 51
270.0
  0
ARC
  8
DETAIL
  6
CONTINUOUS
 62
     5
 10
-108.00009899999991
 20
-162.79903999999999
 30
0.0
 40
3.0
 50
270.0
 51
0.0
  0
ARC
  8
DETAIL
  6
CONTINUOUS
 62
     5
 10
-108.50009899999991
 20
-164.50000199999999
 30
0.0
 40
3.5
 50
270.0
 51
0.0
  0
ARC
  8
DETAIL
  6
CONTINUOUS
 62
     5
 10
-62.00009799999998
 20
-162.79903999999999
 30
0.0
 40
3.0
 50
180.0
 51
270.0
  0
ARC
  8
DETAIL
  6
CONTINUOUS
 62
     5
 10
-61.50009799999998
 20
-164.50000199999999
 30
0.0
 40
3.5
 50
180.0
 51
270.0
  0
LINE
  8
DETAIL
  6
CONTINUOUS
 62
     5
 10
-108.00009899999991
 20
-143.79903999999999
 30
0.0
 11
-232.0001
 21
-143.79903999999999
 31
0.0
  0
LINE
  8
DETAIL
  6
CONTINUOUS
 62
     5
 10
-107.00009899999991
 20
-139.866027
 30
0.0
 11
-233.0001
 21
-139.866027
 31
0.0
  0
LINE
  8
DETAIL
  6
CONTINUOUS
 62
     5
 10
-108.50009899999991
 20
-146.000001
 30
0.0
 11
-231.5001
 21
-146.000001
 31
0.0
  0
LINE
  8
DETAIL
  6
CONTINUOUS
 62
     5
 10
-108.00009899999991
 20
-132.79903899999999
 30
0.0
 11
-232.0001
 21
-132.79903899999999
 31
0.0
  0
LINE
  8
DETAIL
  6
CONTINUOUS
 62
     5
 10
-107.00009899999991
 20
-128.866027
 30
0.0
 11
-233.0001
 21
-128.866027
 31
0.0
  0
LINE
  8
DETAIL
  6
CONTINUOUS
 62
     5
 10
-108.50009899999991
 20
-135.000001
 30
0.0
 11
-231.5001
 21
-135.000001
 31
0.0
  0
LINE
  8
DETAIL
  6
CONTINUOUS
 62
     5
 10
-108.50009899999991
 20
-124.000001
 30
0.0
 11
-231.5001
 21
-124.000001
 31
0.0
  0
LINE
  8
DETAIL
  6
CONTINUOUS
 62
     5
 10
-107.00009899999991
 20
-117.866027
 30
0.0
 11
-233.0001
 21
-117.866027
 31
0.0
  0
LINE
  8
DETAIL
  6
CONTINUOUS
 62
     5
 10
-108.00009899999991
 20
-121.79903899999999
 30
0.0
 11
-232.0001
 21
-121.79903899999999
 31
0.0
  0
LINE
  8
DETAIL
  6
CONTINUOUS
 62
     5
 10
-108.50009899999991
 20
-113.000001
 30
0.0
 11
-231.5001
 21
-113.000001
 31
0.0
  0
LINE
  8
DETAIL
  6
CONTINUOUS
 62
     5
 10
-107.00009899999991
 20
-106.86602600000001
 30
0.0
 11
-233.0001
 21
-106.86602600000001
 31
0.0
  0
LINE
  8
DETAIL
  6
CONTINUOUS
 62
     5
 10
-108.00009899999991
 20
-110.79903899999999
 30
0.0
 11
-232.0001
 21
-110.79903899999999
 31
0.0
  0
LINE
  8
DETAIL
  6
CONTINUOUS
 62
     5
 10
-108.50009899999991
 20
-102.000001
 30
0.0
 11
-231.5001
 21
-102.000001
 31
0.0
  0
LINE
  8
DETAIL
  6
CONTINUOUS
 62
     5
 10
-107.00009899999991
 20
-95.866026000000033
 30
0.0
 11
-233.0001
 21
-95.866026000000033
 31
0.0
  0
LINE
  8
DETAIL
  6
CONTINUOUS
 62
     5
 10
-108.00009899999991
 20
-99.799038999999993
 30
0.0
 11
-232.0001
 21
-99.799038999999993
 31
0.0
  0
LINE
  8
DETAIL
  6
CONTINUOUS
 62
     5
 10
-108.00009899999991
 20
-154.79903999999999
 30
0.0
 11
-232.0001
 21
-154.79903999999999
 31
0.0
  0
LINE
  8
DETAIL
  6
CONTINUOUS
 62
     5
 10
-107.00009899999991
 20
-150.866027
 30
0.0
 11
-233.0001
 21
-150.866027
 31
0.0
  0
LINE
  8
DETAIL
  6
CONTINUOUS
 62
     5
 10
-108.50009899999991
 20
-157.00000199999999
 30
0.0
 11
-231.5001
 21
-157.00000199999999
 31
0.0
  0
ARC
  8
DETAIL
  6
CONTINUOUS
 62
     5
 10
-232.0001
 20
-140.79903999999999
 30
0.0
 40
3.0
 50
180.0
 51
270.0
  0
LINE
  8
DETAIL
  6
CONTINUOUS
 62
     5
 10
-235.0001
 20
-142.500001
 30
0.0
 11
-235.0001
 21
-139.000001
 31
0.0
  0
ARC
  8
DETAIL
  6
CONTINUOUS
 62
     5
 10
-231.5001
 20
-142.500001
 30
0.0
 40
3.5
 50
180.0
 51
270.0
  0
ARC
  8
DETAIL
  6
CONTINUOUS
 62
     5
 10
-232.0001
 20
-129.79903899999999
 30
0.0
 40
3.0
 50
180.0
 51
270.0
  0
LINE
  8
DETAIL
  6
CONTINUOUS
 62
     5
 10
-235.0001
 20
-131.500001
 30
0.0
 11
-235.0001
 21
-128.000001
 31
0.0
  0
ARC
  8
DETAIL
  6
CONTINUOUS
 62
     5
 10
-231.5001
 20
-131.500001
 30
0.0
 40
3.5
 50
180.0
 51
270.0
  0
ARC
  8
DETAIL
  6
CONTINUOUS
 62
     5
 10
-231.5001
 20
-120.500001
 30
0.0
 40
3.5
 50
180.0
 51
270.0
  0
LINE
  8
DETAIL
  6
CONTINUOUS
 62
     5
 10
-235.0001
 20
-120.500001
 30
0.0
 11
-235.0001
 21
-117.000001
 31
0.0
  0
ARC
  8
DETAIL
  6
CONTINUOUS
 62
     5
 10
-232.0001
 20
-118.79903899999999
 30
0.0
 40
3.0
 50
180.0
 51
270.0
  0
ARC
  8
DETAIL
  6
CONTINUOUS
 62
     5
 10
-232.0001
 20
-151.79903999999999
 30
0.0
 40
3.0
 50
180.0
 51
270.0
  0
LINE
  8
DETAIL
  6
CONTINUOUS
 62
     5
 10
-235.0001
 20
-153.50000199999999
 30
0.0
 11
-235.0001
 21
-150.00000199999999
 31
0.0
  0
ARC
  8
DETAIL
  6
CONTINUOUS
 62
     5
 10
-231.5001
 20
-153.50000199999999
 30
0.0
 40
3.5
 50
180.0
 51
270.0
  0
ARC
  8
DETAIL
  6
CONTINUOUS
 62
     5
 10
-231.5001
 20
-109.500001
 30
0.0
 40
3.5
 50
180.0
 51
270.0
  0
LINE
  8
DETAIL
  6
CONTINUOUS
 62
     5
 10
-235.0001
 20
-109.500001
 30
0.0
 11
-235.0001
 21
-106.000001
 31
0.0
  0
ARC
  8
DETAIL
  6
CONTINUOUS
 62
     5
 10
-232.0001
 20
-107.79903899999999
 30
0.0
 40
3.0
 50
180.0
 51
270.0
  0
ARC
  8
DETAIL
  6
CONTINUOUS
 62
     5
 10
-231.5001
 20
-98.500000999999997
 30
0.0
 40
3.5
 50
180.0
 51
270.0
  0
LINE
  8
DETAIL
  6
CONTINUOUS
 62
     5
 10
-235.0001
 20
-98.500000999999997
 30
0.0
 11
-235.0001
 21
-95.000000999999997
 31
0.0
  0
ARC
  8
DETAIL
  6
CONTINUOUS
 62
     5
 10
-232.0001
 20
-96.799038999999993
 30
0.0
 40
3.0
 50
180.0
 51
270.0
  0
ARC
  8
DETAIL
  6
CONTINUOUS
 62
     5
 10
-108.00009899999991
 20
-140.79903999999999
 30
0.0
 40
3.0
 50
270.0
 51
0.0
  0
ARC
  8
DETAIL
  6
CONTINUOUS
 62
     5
 10
-108.50009899999991
 20
-142.500001
 30
0.0
 40
3.5
 50
270.0
 51
0.0
  0
LINE
  8
DETAIL
  6
CONTINUOUS
 62
     5
 10
-105.00009899999991
 20
-142.500001
 30
0.0
 11
-105.00009899999991
 21
-139.000001
 31
0.0
  0
ARC
  8
DETAIL
  6
CONTINUOUS
 62
     5
 10
-108.00009899999991
 20
-129.79903899999999
 30
0.0
 40
3.0
 50
270.0
 51
0.0
  0
ARC
  8
DETAIL
  6
CONTINUOUS
 62
     5
 10
-108.50009899999991
 20
-131.500001
 30
0.0
 40
3.5
 50
270.0
 51
0.0
  0
LINE
  8
DETAIL
  6
CONTINUOUS
 62
     5
 10
-105.00009899999991
 20
-131.500001
 30
0.0
 11
-105.00009899999991
 21
-128.000001
 31
0.0
  0
LINE
  8
DETAIL
  6
CONTINUOUS
 62
     5
 10
-105.00009899999991
 20
-120.500001
 30
0.0
 11
-105.00009899999991
 21
-117.000001
 31
0.0
  0
ARC
  8
DETAIL
  6
CONTINUOUS
 62
     5
 10
-108.50009899999991
 20
-120.500001
 30
0.0
 40
3.5
 50
270.0
 51
0.0
  0
ARC
  8
DETAIL
  6
CONTINUOUS
 62
     5
 10
-108.00009899999991
 20
-118.79903899999999
 30
0.0
 40
3.0
 50
270.0
 51
0.0
  0
ARC
  8
DETAIL
  6
CONTINUOUS
 62
     5
 10
-108.00009899999991
 20
-151.79903999999999
 30
0.0
 40
3.0
 50
270.0
 51
0.0
  0
ARC
  8
DETAIL
  6
CONTINUOUS
 62
     5
 10
-108.50009899999991
 20
-153.50000199999999
 30
0.0
 40
3.5
 50
270.0
 51
0.0
  0
LINE
  8
DETAIL
  6
CONTINUOUS
 62
     5
 10
-105.00009899999991
 20
-153.50000199999999
 30
0.0
 11
-105.00009899999991
 21
-150.00000199999999
 31
0.0
  0
LINE
  8
DETAIL
  6
CONTINUOUS
 62
     5
 10
-105.00009899999991
 20
-109.500001
 30
0.0
 11
-105.00009899999991
 21
-106.000001
 31
0.0
  0
ARC
  8
DETAIL
  6
CONTINUOUS
 62
     5
 10
-108.50009899999991
 20
-109.500001
 30
0.0
 40
3.5
 50
270.0
 51
0.0
  0
ARC
  8
DETAIL
  6
CONTINUOUS
 62
     5
 10
-108.00009899999991
 20
-107.79903899999999
 30
0.0
 40
3.0
 50
270.0
 51
0.0
  0
LINE
  8
DETAIL
  6
CONTINUOUS
 62
     5
 10
-105.00009899999991
 20
-98.500000999999997
 30
0.0
 11
-105.00009899999991
 21
-95.000000999999997
 31
0.0
  0
ARC
  8
DETAIL
  6
CONTINUOUS
 62
     5
 10
-108.50009899999991
 20
-98.500000999999997
 30
0.0
 40
3.5
 50
270.0
 51
0.0
  0
ARC
  8
DETAIL
  6
CONTINUOUS
 62
     5
 10
-108.00009899999991
 20
-96.799038999999993
 30
0.0
 40
3.0
 50
270.0
 51
0.0
  0
ARC
  8
DETAIL
  6
CONTINUOUS
 62
     5
 10
-62.00009799999998
 20
-140.79903999999999
 30
0.0
 40
3.0
 50
180.0
 51
270.0
  0
LINE
  8
DETAIL
  6
CONTINUOUS
 62
     5
 10
-65.00009799999998
 20
-142.500001
 30
0.0
 11
-65.00009799999998
 21
-139.000001
 31
0.0
  0
ARC
  8
DETAIL
  6
CONTINUOUS
 62
     5
 10
-61.50009799999998
 20
-142.500001
 30
0.0
 40
3.5
 50
180.0
 51
270.0
  0
ARC
  8
DETAIL
  6
CONTINUOUS
 62
     5
 10
-62.00009799999998
 20
-129.79903899999999
 30
0.0
 40
3.0
 50
180.0
 51
270.0
  0
LINE
  8
DETAIL
  6
CONTINUOUS
 62
     5
 10
-65.00009799999998
 20
-131.500001
 30
0.0
 11
-65.00009799999998
 21
-128.000001
 31
0.0
  0
ARC
  8
DETAIL
  6
CONTINUOUS
 62
     5
 10
-61.50009799999998
 20
-131.500001
 30
0.0
 40
3.5
 50
180.0
 51
270.0
  0
ARC
  8
DETAIL
  6
CONTINUOUS
 62
     5
 10
-61.50009799999998
 20
-120.500001
 30
0.0
 40
3.5
 50
180.0
 51
270.0
  0
LINE
  8
DETAIL
  6
CONTINUOUS
 62
     5
 10
-65.00009799999998
 20
-120.500001
 30
0.0
 11
-65.00009799999998
 21
-117.000001
 31
0.0
  0
ARC
  8
DETAIL
  6
CONTINUOUS
 62
     5
 10
-62.00009799999998
 20
-118.79903899999999
 30
0.0
 40
3.0
 50
180.0
 51
270.0
  0
ARC
  8
DETAIL
  6
CONTINUOUS
 62
     5
 10
-62.00009799999998
 20
-151.79903999999999
 30
0.0
 40
3.0
 50
180.0
 51
270.0
  0
LINE
  8
DETAIL
  6
CONTINUOUS
 62
     5
 10
-65.00009799999998
 20
-153.50000199999999
 30
0.0
 11
-65.00009799999998
 21
-150.00000199999999
 31
0.0
  0
ARC
  8
DETAIL
  6
CONTINUOUS
 62
     5
 10
-61.50009799999998
 20
-153.50000199999999
 30
0.0
 40
3.5
 50
180.0
 51
270.0
  0
ARC
  8
DETAIL
  6
CONTINUOUS
 62
     5
 10
-61.50009799999998
 20
-109.500001
 30
0.0
 40
3.5
 50
180.0
 51
270.0
  0
LINE
  8
DETAIL
  6
CONTINUOUS
 62
     5
 10
-65.00009799999998
 20
-109.500001
 30
0.0
 11
-65.00009799999998
 21
-106.000001
 31
0.0
  0
ARC
  8
DETAIL
  6
CONTINUOUS
 62
     5
 10
-62.00009799999998
 20
-107.79903899999999
 30
0.0
 40
3.0
 50
180.0
 51
270.0
  0
ARC
  8
DETAIL
  6
CONTINUOUS
 62
     5
 10
-61.50009799999998
 20
-98.500000999999997
 30
0.0
 40
3.5
 50
180.0
 51
270.0
  0
LINE
  8
DETAIL
  6
CONTINUOUS
 62
     5
 10
-65.00009799999998
 20
-98.500000999999997
 30
0.0
 11
-65.00009799999998
 21
-95.000000999999997
 31
0.0
  0
ARC
  8
DETAIL
  6
CONTINUOUS
 62
     5
 10
-62.00009799999998
 20
-96.799038999999993
 30
0.0
 40
3.0
 50
180.0
 51
270.0
  0
LINE
  8
DETAIL
  6
CONTINUOUS
 62
     5
 10
108.5000009999999
 20
-168.00000199999999
 30
0.0
 11
231.50000199999999
 21
-168.00000199999999
 31
0.0
  0
LINE
  8
DETAIL
  6
CONTINUOUS
 62
     5
 10
107.0000009999999
 20
-161.866027
 30
0.0
 11
233.00000199999999
 21
-161.866027
 31
0.0
  0
LINE
  8
DETAIL
  6
CONTINUOUS
 62
     5
 10
108.0000009999999
 20
-165.79903999999999
 30
0.0
 11
232.00000199999999
 21
-165.79903999999999
 31
0.0
  0
LINE
  8
DETAIL
  6
CONTINUOUS
 62
     5
 10
108.5000009999999
 20
-157.00000199999999
 30
0.0
 11
231.50000199999999
 21
-157.00000199999999
 31
0.0
  0
LINE
  8
DETAIL
  6
CONTINUOUS
 62
     5
 10
107.0000009999999
 20
-150.866027
 30
0.0
 11
233.00000199999999
 21
-150.866027
 31
0.0
  0
LINE
  8
DETAIL
  6
CONTINUOUS
 62
     5
 10
108.0000009999999
 20
-154.79903999999999
 30
0.0
 11
232.00000199999999
 21
-154.79903999999999
 31
0.0
  0
LINE
  8
DETAIL
  6
CONTINUOUS
 62
     5
 10
108.0000009999999
 20
-99.799038999999993
 30
0.0
 11
232.00000199999999
 21
-99.799038999999993
 31
0.0
  0
LINE
  8
DETAIL
  6
CONTINUOUS
 62
     5
 10
107.0000009999999
 20
-95.866026000000033
 30
0.0
 11
233.00000199999999
 21
-95.866026000000033
 31
0.0
  0
LINE
  8
DETAIL
  6
CONTINUOUS
 62
     5
 10
108.5000009999999
 20
-102.000001
 30
0.0
 11
231.50000199999999
 21
-102.000001
 31
0.0
  0
LINE
  8
DETAIL
  6
CONTINUOUS
 62
     5
 10
108.0000009999999
 20
-110.79903899999999
 30
0.0
 11
232.00000199999999
 21
-110.79903899999999
 31
0.0
  0
LINE
  8
DETAIL
  6
CONTINUOUS
 62
     5
 10
107.0000009999999
 20
-106.86602600000001
 30
0.0
 11
233.00000199999999
 21
-106.86602600000001
 31
0.0
  0
LINE
  8
DETAIL
  6
CONTINUOUS
 62
     5
 10
108.5000009999999
 20
-113.000001
 30
0.0
 11
231.50000199999999
 21
-113.000001
 31
0.0
  0
LINE
  8
DETAIL
  6
CONTINUOUS
 62
     5
 10
108.0000009999999
 20
-121.79903899999999
 30
0.0
 11
232.00000199999999
 21
-121.79903899999999
 31
0.0
  0
LINE
  8
DETAIL
  6
CONTINUOUS
 62
     5
 10
107.0000009999999
 20
-117.866027
 30
0.0
 11
233.00000199999999
 21
-117.866027
 31
0.0
  0
LINE
  8
DETAIL
  6
CONTINUOUS
 62
     5
 10
108.5000009999999
 20
-124.000001
 30
0.0
 11
231.50000199999999
 21
-124.000001
 31
0.0
  0
LINE
  8
DETAIL
  6
CONTINUOUS
 62
     5
 10
108.5000009999999
 20
-135.000001
 30
0.0
 11
231.50000199999999
 21
-135.000001
 31
0.0
  0
LINE
  8
DETAIL
  6
CONTINUOUS
 62
     5
 10
107.0000009999999
 20
-128.866027
 30
0.0
 11
233.00000199999999
 21
-128.866027
 31
0.0
  0
LINE
  8
DETAIL
  6
CONTINUOUS
 62
     5
 10
108.0000009999999
 20
-132.79903899999999
 30
0.0
 11
232.00000199999999
 21
-132.79903899999999
 31
0.0
  0
LINE
  8
DETAIL
  6
CONTINUOUS
 62
     5
 10
108.5000009999999
 20
-146.000001
 30
0.0
 11
231.50000199999999
 21
-146.000001
 31
0.0
  0
LINE
  8
DETAIL
  6
CONTINUOUS
 62
     5
 10
107.0000009999999
 20
-139.866027
 30
0.0
 11
233.00000199999999
 21
-139.866027
 31
0.0
  0
LINE
  8
DETAIL
  6
CONTINUOUS
 62
     5
 10
108.0000009999999
 20
-143.79903999999999
 30
0.0
 11
232.00000199999999
 21
-143.79903999999999
 31
0.0
  0
LINE
  8
DETAIL
  6
CONTINUOUS
 62
     5
 10
105.0000009999999
 20
-164.50000199999999
 30
0.0
 11
105.0000009999999
 21
-161.00000199999999
 31
0.0
  0
LINE
  8
DETAIL
  6
CONTINUOUS
 62
     5
 10
65.000000999999884
 20
-164.50000199999999
 30
0.0
 11
65.000000999999884
 21
-161.00000199999999
 31
0.0
  0
LINE
  8
DETAIL
  6
CONTINUOUS
 62
     5
 10
0.0
 20
-165.79903999999999
 30
0.0
 11
62.000000999999877
 21
-165.79903999999999
 31
0.0
  0
LINE
  8
DETAIL
  6
CONTINUOUS
 62
     5
 10
0.0
 20
-161.866027
 30
0.0
 11
63.000000999999877
 21
-161.866027
 31
0.0
  0
LINE
  8
DETAIL
  6
CONTINUOUS
 62
     5
 10
0.0
 20
-168.00000199999999
 30
0.0
 11
61.500000999999877
 21
-168.00000199999999
 31
0.0
  0
ARC
  8
DETAIL
  6
CONTINUOUS
 62
     5
 10
61.500000999999877
 20
-164.50000199999999
 30
0.0
 40
3.5
 50
270.0
 51
0.0
  0
ARC
  8
DETAIL
  6
CONTINUOUS
 62
     5
 10
62.000000999999877
 20
-162.79903999999999
 30
0.0
 40
3.0
 50
270.0
 51
0.0
  0
ARC
  8
DETAIL
  6
CONTINUOUS
 62
     5
 10
108.5000009999999
 20
-164.50000199999999
 30
0.0
 40
3.5
 50
180.0
 51
270.0
  0
ARC
  8
DETAIL
  6
CONTINUOUS
 62
     5
 10
108.0000009999999
 20
-162.79903999999999
 30
0.0
 40
3.0
 50
180.0
 51
270.0
  0
LINE
  8
DETAIL
  6
CONTINUOUS
 62
     5
 10
0.0
 20
-113.000001
 30
0.0
 11
61.500000999999877
 21
-113.000001
 31
0.0
  0
LINE
  8
DETAIL
  6
CONTINUOUS
 62
     5
 10
0.0
 20
-106.86602600000001
 30
0.0
 11
63.000000999999877
 21
-106.86602600000001
 31
0.0
  0
LINE
  8
DETAIL
  6
CONTINUOUS
 62
     5
 10
0.0
 20
-110.79903899999999
 30
0.0
 11
62.000000999999877
 21
-110.79903899999999
 31
0.0
  0
LINE
  8
DETAIL
  6
CONTINUOUS
 62
     5
 10
0.0
 20
-102.000001
 30
0.0
 11
61.500000999999877
 21
-102.000001
 31
0.0
  0
LINE
  8
DETAIL
  6
CONTINUOUS
 62
     5
 10
0.0
 20
-95.866026000000033
 30
0.0
 11
63.000000999999877
 21
-95.866026000000033
 31
0.0
  0
LINE
  8
DETAIL
  6
CONTINUOUS
 62
     5
 10
0.0
 20
-99.799038999999993
 30
0.0
 11
62.000000999999877
 21
-99.799038999999993
 31
0.0
  0
LINE
  8
DETAIL
  6
CONTINUOUS
 62
     5
 10
0.0
 20
-143.79903999999999
 30
0.0
 11
62.000000999999877
 21
-143.79903999999999
 31
0.0
  0
LINE
  8
DETAIL
  6
CONTINUOUS
 62
     5
 10
0.0
 20
-139.866027
 30
0.0
 11
63.000000999999877
 21
-139.866027
 31
0.0
  0
LINE
  8
DETAIL
  6
CONTINUOUS
 62
     5
 10
0.0
 20
-146.000001
 30
0.0
 11
61.500000999999877
 21
-146.000001
 31
0.0
  0
LINE
  8
DETAIL
  6
CONTINUOUS
 62
     5
 10
0.0
 20
-132.79903899999999
 30
0.0
 11
62.000000999999877
 21
-132.79903899999999
 31
0.0
  0
LINE
  8
DETAIL
  6
CONTINUOUS
 62
     5
 10
0.0
 20
-128.866027
 30
0.0
 11
63.000000999999877
 21
-128.866027
 31
0.0
  0
LINE
  8
DETAIL
  6
CONTINUOUS
 62
     5
 10
0.0
 20
-135.000001
 30
0.0
 11
61.500000999999877
 21
-135.000001
 31
0.0
  0
LINE
  8
DETAIL
  6
CONTINUOUS
 62
     5
 10
0.0
 20
-124.000001
 30
0.0
 11
61.500000999999877
 21
-124.000001
 31
0.0
  0
LINE
  8
DETAIL
  6
CONTINUOUS
 62
     5
 10
0.0
 20
-117.866027
 30
0.0
 11
63.000000999999877
 21
-117.866027
 31
0.0
  0
LINE
  8
DETAIL
  6
CONTINUOUS
 62
     5
 10
0.0
 20
-121.79903899999999
 30
0.0
 11
62.000000999999877
 21
-121.79903899999999
 31
0.0
  0
LINE
  8
DETAIL
  6
CONTINUOUS
 62
     5
 10
0.0
 20
-154.79903999999999
 30
0.0
 11
62.000000999999877
 21
-154.79903999999999
 31
0.0
  0
LINE
  8
DETAIL
  6
CONTINUOUS
 62
     5
 10
0.0
 20
-150.866027
 30
0.0
 11
63.000000999999877
 21
-150.866027
 31
0.0
  0
LINE
  8
DETAIL
  6
CONTINUOUS
 62
     5
 10
0.0
 20
-157.00000199999999
 30
0.0
 11
61.500000999999877
 21
-157.00000199999999
 31
0.0
  0
ARC
  8
DETAIL
  6
CONTINUOUS
 62
     5
 10
62.000000999999877
 20
-96.799038999999993
 30
0.0
 40
3.0
 50
270.0
 51
0.0
  0
LINE
  8
DETAIL
  6
CONTINUOUS
 62
     5
 10
65.000000999999884
 20
-98.500000999999997
 30
0.0
 11
65.000000999999884
 21
-95.000000999999997
 31
0.0
  0
ARC
  8
DETAIL
  6
CONTINUOUS
 62
     5
 10
61.500000999999877
 20
-98.500000999999997
 30
0.0
 40
3.5
 50
270.0
 51
0.0
  0
ARC
  8
DETAIL
  6
CONTINUOUS
 62
     5
 10
62.000000999999877
 20
-107.79903899999999
 30
0.0
 40
3.0
 50
270.0
 51
0.0
  0
LINE
  8
DETAIL
  6
CONTINUOUS
 62
     5
 10
65.000000999999884
 20
-109.500001
 30
0.0
 11
65.000000999999884
 21
-106.000001
 31
0.0
  0
ARC
  8
DETAIL
  6
CONTINUOUS
 62
     5
 10
61.500000999999877
 20
-109.500001
 30
0.0
 40
3.5
 50
270.0
 51
0.0
  0
ARC
  8
DETAIL
  6
CONTINUOUS
 62
     5
 10
61.500000999999877
 20
-153.50000199999999
 30
0.0
 40
3.5
 50
270.0
 51
0.0
  0
LINE
  8
DETAIL
  6
CONTINUOUS
 62
     5
 10
65.000000999999884
 20
-153.50000199999999
 30
0.0
 11
65.000000999999884
 21
-150.00000199999999
 31
0.0
  0
ARC
  8
DETAIL
  6
CONTINUOUS
 62
     5
 10
62.000000999999877
 20
-151.79903999999999
 30
0.0
 40
3.0
 50
270.0
 51
0.0
  0
ARC
  8
DETAIL
  6
CONTINUOUS
 62
     5
 10
62.000000999999877
 20
-118.79903899999999
 30
0.0
 40
3.0
 50
270.0
 51
0.0
  0
LINE
  8
DETAIL
  6
CONTINUOUS
 62
     5
 10
65.000000999999884
 20
-120.500001
 30
0.0
 11
65.000000999999884
 21
-117.000001
 31
0.0
  0
ARC
  8
DETAIL
  6
CONTINUOUS
 62
     5
 10
61.500000999999877
 20
-120.500001
 30
0.0
 40
3.5
 50
270.0
 51
0.0
  0
ARC
  8
DETAIL
  6
CONTINUOUS
 62
     5
 10
61.500000999999877
 20
-131.500001
 30
0.0
 40
3.5
 50
270.0
 51
0.0
  0
LINE
  8
DETAIL
  6
CONTINUOUS
 62
     5
 10
65.000000999999884
 20
-131.500001
 30
0.0
 11
65.000000999999884
 21
-128.000001
 31
0.0
  0
ARC
  8
DETAIL
  6
CONTINUOUS
 62
     5
 10
62.000000999999877
 20
-129.79903899999999
 30
0.0
 40
3.0
 50
270.0
 51
0.0
  0
ARC
  8
DETAIL
  6
CONTINUOUS
 62
     5
 10
61.500000999999877
 20
-142.500001
 30
0.0
 40
3.5
 50
270.0
 51
0.0
  0
LINE
  8
DETAIL
  6
CONTINUOUS
 62
     5
 10
65.000000999999884
 20
-142.500001
 30
0.0
 11
65.000000999999884
 21
-139.000001
 31
0.0
  0
ARC
  8
DETAIL
  6
CONTINUOUS
 62
     5
 10
62.000000999999877
 20
-140.79903999999999
 30
0.0
 40
3.0
 50
270.0
 51
0.0
  0
ARC
  8
DETAIL
  6
CONTINUOUS
 62
     5
 10
108.0000009999999
 20
-96.799038999999993
 30
0.0
 40
3.0
 50
180.0
 51
270.0
  0
ARC
  8
DETAIL
  6
CONTINUOUS
 62
     5
 10
108.5000009999999
 20
-98.500000999999997
 30
0.0
 40
3.5
 50
180.0
 51
270.0
  0
LINE
  8
DETAIL
  6
CONTINUOUS
 62
     5
 10
105.0000009999999
 20
-98.500000999999997
 30
0.0
 11
105.0000009999999
 21
-95.000000999999997
 31
0.0
  0
ARC
  8
DETAIL
  6
CONTINUOUS
 62
     5
 10
108.0000009999999
 20
-107.79903899999999
 30
0.0
 40
3.0
 50
180.0
 51
270.0
  0
ARC
  8
DETAIL
  6
CONTINUOUS
 62
     5
 10
108.5000009999999
 20
-109.500001
 30
0.0
 40
3.5
 50
180.0
 51
270.0
  0
LINE
  8
DETAIL
  6
CONTINUOUS
 62
     5
 10
105.0000009999999
 20
-109.500001
 30
0.0
 11
105.0000009999999
 21
-106.000001
 31
0.0
  0
LINE
  8
DETAIL
  6
CONTINUOUS
 62
     5
 10
105.0000009999999
 20
-153.50000199999999
 30
0.0
 11
105.0000009999999
 21
-150.00000199999999
 31
0.0
  0
ARC
  8
DETAIL
  6
CONTINUOUS
 62
     5
 10
108.5000009999999
 20
-153.50000199999999
 30
0.0
 40
3.5
 50
180.0
 51
270.0
  0
ARC
  8
DETAIL
  6
CONTINUOUS
 62
     5
 10
108.0000009999999
 20
-151.79903999999999
 30
0.0
 40
3.0
 50
180.0
 51
270.0
  0
ARC
  8
DETAIL
  6
CONTINUOUS
 62
     5
 10
108.0000009999999
 20
-118.79903899999999
 30
0.0
 40
3.0
 50
180.0
 51
270.0
  0
ARC
  8
DETAIL
  6
CONTINUOUS
 62
     5
 10
108.5000009999999
 20
-120.500001
 30
0.0
 40
3.5
 50
180.0
 51
270.0
  0
LINE
  8
DETAIL
  6
CONTINUOUS
 62
     5
 10
105.0000009999999
 20
-120.500001
 30
0.0
 11
105.0000009999999
 21
-117.000001
 31
0.0
  0
LINE
  8
DETAIL
  6
CONTINUOUS
 62
     5
 10
105.0000009999999
 20
-131.500001
 30
0.0
 11
105.0000009999999
 21
-128.000001
 31
0.0
  0
ARC
  8
DETAIL
  6
CONTINUOUS
 62
     5
 10
108.5000009999999
 20
-131.500001
 30
0.0
 40
3.5
 50
180.0
 51
270.0
  0
ARC
  8
DETAIL
  6
CONTINUOUS
 62
     5
 10
108.0000009999999
 20
-129.79903899999999
 30
0.0
 40
3.0
 50
180.0
 51
270.0
  0
LINE
  8
DETAIL
  6
CONTINUOUS
 62
     5
 10
105.0000009999999
 20
-142.500001
 30
0.0
 11
105.0000009999999
 21
-139.000001
 31
0.0
  0
ARC
  8
DETAIL
  6
CONTINUOUS
 62
     5
 10
108.5000009999999
 20
-142.500001
 30
0.0
 40
3.5
 50
180.0
 51
270.0
  0
ARC
  8
DETAIL
  6
CONTINUOUS
 62
     5
 10
108.0000009999999
 20
-140.79903999999999
 30
0.0
 40
3.0
 50
180.0
 51
270.0
  0
LINE
  8
DETAIL
  6
CONTINUOUS
 62
     5
 10
235.00000199999999
 20
-164.50000199999999
 30
0.0
 11
235.00000199999999
 21
-161.00000199999999
 31
0.0
  0
ARC
  8
DETAIL
  6
CONTINUOUS
 62
     5
 10
231.50000199999999
 20
-164.50000199999999
 30
0.0
 40
3.5
 50
270.0
 51
0.0
  0
ARC
  8
DETAIL
  6
CONTINUOUS
 62
     5
 10
232.00000199999999
 20
-162.79903999999999
 30
0.0
 40
3.0
 50
270.0
 51
0.0
  0
ARC
  8
DETAIL
  6
CONTINUOUS
 62
     5
 10
232.00000199999999
 20
-96.799038999999993
 30
0.0
 40
3.0
 50
270.0
 51
0.0
  0
LINE
  8
DETAIL
  6
CONTINUOUS
 62
     5
 10
235.00000199999999
 20
-98.500000999999997
 30
0.0
 11
235.00000199999999
 21
-95.000000999999997
 31
0.0
  0
ARC
  8
DETAIL
  6
CONTINUOUS
 62
     5
 10
231.50000199999999
 20
-98.500000999999997
 30
0.0
 40
3.5
 50
270.0
 51
0.0
  0
ARC
  8
DETAIL
  6
CONTINUOUS
 62
     5
 10
232.00000199999999
 20
-107.79903899999999
 30
0.0
 40
3.0
 50
270.0
 51
0.0
  0
LINE
  8
DETAIL
  6
CONTINUOUS
 62
     5
 10
235.00000199999999
 20
-109.500001
 30
0.0
 11
235.00000199999999
 21
-106.000001
 31
0.0
  0
ARC
  8
DETAIL
  6
CONTINUOUS
 62
     5
 10
231.50000199999999
 20
-109.500001
 30
0.0
 40
3.5
 50
270.0
 51
0.0
  0
ARC
  8
DETAIL
  6
CONTINUOUS
 62
     5
 10
231.50000199999999
 20
-153.50000199999999
 30
0.0
 40
3.5
 50
270.0
 51
0.0
  0
LINE
  8
DETAIL
  6
CONTINUOUS
 62
     5
 10
235.00000199999999
 20
-153.50000199999999
 30
0.0
 11
235.00000199999999
 21
-150.00000199999999
 31
0.0
  0
ARC
  8
DETAIL
  6
CONTINUOUS
 62
     5
 10
232.00000199999999
 20
-151.79903999999999
 30
0.0
 40
3.0
 50
270.0
 51
0.0
  0
ARC
  8
DETAIL
  6
CONTINUOUS
 62
     5
 10
232.00000199999999
 20
-118.79903899999999
 30
0.0
 40
3.0
 50
270.0
 51
0.0
  0
LINE
  8
DETAIL
  6
CONTINUOUS
 62
     5
 10
235.00000199999999
 20
-120.500001
 30
0.0
 11
235.00000199999999
 21
-117.000001
 31
0.0
  0
ARC
  8
DETAIL
  6
CONTINUOUS
 62
     5
 10
231.50000199999999
 20
-120.500001
 30
0.0
 40
3.5
 50
270.0
 51
0.0
  0
ARC
  8
DETAIL
  6
CONTINUOUS
 62
     5
 10
231.50000199999999
 20
-131.500001
 30
0.0
 40
3.5
 50
270.0
 51
0.0
  0
LINE
  8
DETAIL
  6
CONTINUOUS
 62
     5
 10
235.00000199999999
 20
-131.500001
 30
0.0
 11
235.00000199999999
 21
-128.000001
 31
0.0
  0
ARC
  8
DETAIL
  6
CONTINUOUS
 62
     5
 10
232.00000199999999
 20
-129.79903899999999
 30
0.0
 40
3.0
 50
270.0
 51
0.0
  0
ARC
  8
DETAIL
  6
CONTINUOUS
 62
     5
 10
231.50000199999999
 20
-142.500001
 30
0.0
 40
3.5
 50
270.0
 51
0.0
  0
LINE
  8
DETAIL
  6
CONTINUOUS
 62
     5
 10
235.00000199999999
 20
-142.500001
 30
0.0
 11
235.00000199999999
 21
-139.000001
 31
0.0
  0
ARC
  8
DETAIL
  6
CONTINUOUS
 62
     5
 10
232.00000199999999
 20
-140.79903999999999
 30
0.0
 40
3.0
 50
270.0
 51
0.0
  0
TEXT
  8
NOTE
  6
CONTINUOUS
 62
     4
 10
-213.36241599999991
 20
66.354032999999959
 30
0.0
 40
64.0
  1
EA
 41
0.9
  0
TEXT
  8
NOTE
  6
CONTINUOUS
 62
     4
 10
58.11556900000005
 20
60.500857000000003
 30
0.0
 40
64.0
  1
OA
 41
0.9
  0
TEXT
  8
ETC
  6
CONTINUOUS
 62
    61
 10
481.86255099999988
 20
467.00015499999989
 30
0.0
 40
64.0
  1
V-604KCQ8_2
 41
0.9
  0
TEXT
  8
ETC
  6
CONTINUOUS
 62
    61
 10
473.94684499999988
 20
367.69629900000001
 30
0.0
 40
64.0
  1
換気扇
 41
0.9
  0
TEXT
  8
ETC
  6
CONTINUOUS
 62
    61
 10
559.85667878370236
 20
278.11603615359701
 30
0.0
 40
40.0
  1
V-604KCQ8
 41
0.9
  0
TEXT
  8
ETC
  6
CONTINUOUS
 62
    61
 10
558.71538389779244
 20
221.087367691266
 30
0.0
 40
40.0
  1
V-604KQH8
 41
0.9
  0
LINE
  8
OUTLINE
  6
CONTINUOUS
 62
     3
 10
35.0
 20
37.0
 30
0.0
 11
183.0
 21
37.0
 31
0.0
  0
LINE
  8
OUTLINE
  6
CONTINUOUS
 62
     3
 10
183.0
 20
0.0
 30
0.0
 11
183.0
 21
37.0
 31
0.0
  0
LINE
  8
OUTLINE
  6
CONTINUOUS
 62
     3
 10
35.0
 20
0.0
 30
0.0
 11
35.0
 21
37.0
 31
0.0
  0
LINE
  8
OUTLINE
  6
CONTINUOUS
 62
     3
 10
-241.0
 20
0.0
 30
0.0
 11
-241.0
 21
37.0
 31
0.0
  0
LINE
  8
OUTLINE
  6
CONTINUOUS
 62
     3
 10
-93.0
 20
0.0
 30
0.0
 11
-93.0
 21
37.0
 31
0.0
  0
LINE
  8
OUTLINE
  6
CONTINUOUS
 62
     3
 10
-241.0
 20
37.0
 30
0.0
 11
-93.0
 21
37.0
 31
0.0
  0
ENDSEC
  0
EOF
