  0
SECTION
  2
HEADER
  9
$ACADVER
  1
AC1009
  9
$INSBASE
 10
0.0
 20
0.0
 30
0.0
  9
$EXTMIN
 10
-662.48959400000001
 20
-884.13889399999982
 30
0.0
  9
$EXTMAX
 10
1461.5891003046549
 20
479.7585363855838
 30
50.0
  9
$LIMMIN
 10
-2970.0
 20
-2100.0
  9
$LIMMAX
 10
2970.0
 20
2100.0
  9
$ORTHOMODE
 70
     1
  9
$REGENMODE
 70
     0
  9
$FILLMODE
 70
     1
  9
$QTEXTMODE
 70
     0
  9
$MIRRTEXT
 70
     0
  9
$DRAGMODE
 70
     2
  9
$LTSCALE
 40
20.0
  9
$OSMODE
 70
    32
  9
$ATTMODE
 70
     1
  9
$TEXTSIZE
 40
64.0
  9
$TRACEWID
 40
0.05
  9
$TEXTSTYLE
  7
STANDARD
  9
$CLAYER
  8
ETC
  9
$CELTYPE
  6
CONTINUOUS
  9
$CECOLOR
 62
     3
  9
$DIMSCALE
 40
1.0
  9
$DIMASZ
 40
12.0
  9
$DIMEXO
 40
20.0
  9
$DIMDLI
 40
200.0
  9
$DIMRND
 40
0.0
  9
$DIMDLE
 40
0.0
  9
$DIMEXE
 40
20.0
  9
$DIMTP
 40
0.0
  9
$DIMTM
 40
0.0
  9
$DIMTXT
 40
64.0
  9
$DIMCEN
 40
0.09
  9
$DIMTSZ
 40
0.0
  9
$DIMTOL
 70
     0
  9
$DIMLIM
 70
     0
  9
$DIMTIH
 70
     0
  9
$DIMTOH
 70
     0
  9
$DIMSE1
 70
     0
  9
$DIMSE2
 70
     0
  9
$DIMTAD
 70
     1
  9
$DIMZIN
 70
     8
  9
$DIMBLK
  1
DOT1
  9
$DIMASO
 70
     1
  9
$DIMSHO
 70
     0
  9
$DIMPOST
  1

  9
$DIMAPOST
  1

  9
$DIMALT
 70
     0
  9
$DIMALTD
 70
     2
  9
$DIMALTF
 40
25.399999999999999
  9
$DIMLFAC
 40
1.0
  9
$DIMTOFL
 70
     1
  9
$DIMTVP
 40
0.0
  9
$DIMTIX
 70
     1
  9
$DIMSOXD
 70
     0
  9
$DIMSAH
 70
     1
  9
$DIMBLK1
  1
ORIGIN
  9
$DIMBLK2
  1
ORIGIN
  9
$DIMSTYLE
  2
STANDARD
  9
$DIMCLRD
 70
     7
  9
$DIMCLRE
 70
     7
  9
$DIMCLRT
 70
     7
  9
$DIMTFAC
 40
1.0
  9
$DIMGAP
 40
25.0
  9
$LUNITS
 70
     2
  9
$LUPREC
 70
     4
  9
$SKETCHINC
 40
0.1
  9
$FILLETRAD
 40
4.0
  9
$AUNITS
 70
     1
  9
$AUPREC
 70
     3
  9
$MENU
  1
ACAD
  9
$ELEVATION
 40
0.0
  9
$PELEVATION
 40
0.0
  9
$THICKNESS
 40
50.0
  9
$LIMCHECK
 70
     0
  9
$BLIPMODE
 70
     0
  9
$CHAMFERA
 40
0.0
  9
$CHAMFERB
 40
0.0
  9
$SKPOLY
 70
     0
  9
$TDCREATE
 40
2453095.550511342
  9
$TDUPDATE
 40
2454743.6538442709
  9
$TDINDWG
 40
0.0384239468
  9
$TDUSRTIMER
 40
0.0384239468
  9
$USRTIMER
 70
     1
  9
$ANGBASE
 50
0.0
  9
$ANGDIR
 70
     0
  9
$PDMODE
 70
     3
  9
$PDSIZE
 40
-2.0
  9
$PLINEWID
 40
0.0
  9
$COORDS
 70
     1
  9
$SPLFRAME
 70
     0
  9
$SPLINETYPE
 70
     6
  9
$SPLINESEGS
 70
     8
  9
$ATTDIA
 70
     0
  9
$ATTREQ
 70
     1
  9
$HANDLING
 70
     1
  9
$HANDSEED
  5
871
  9
$SURFTAB1
 70
     6
  9
$SURFTAB2
 70
     6
  9
$SURFTYPE
 70
     6
  9
$SURFU
 70
     6
  9
$SURFV
 70
     6
  9
$UCSNAME
  2

  9
$UCSORG
 10
0.0
 20
0.0
 30
0.0
  9
$UCSXDIR
 10
1.0
 20
0.0
 30
0.0
  9
$UCSYDIR
 10
0.0
 20
1.0
 30
0.0
  9
$PUCSNAME
  2

  9
$PUCSORG
 10
0.0
 20
0.0
 30
0.0
  9
$PUCSXDIR
 10
1.0
 20
0.0
 30
0.0
  9
$PUCSYDIR
 10
0.0
 20
1.0
 30
0.0
  9
$USERI1
 70
     0
  9
$USERI2
 70
     0
  9
$USERI3
 70
     0
  9
$USERI4
 70
     0
  9
$USERI5
 70
     0
  9
$USERR1
 40
20.0
  9
$USERR2
 40
0.0
  9
$USERR3
 40
0.0
  9
$USERR4
 40
0.0
  9
$USERR5
 40
0.0
  9
$WORLDVIEW
 70
     1
  9
$SHADEDGE
 70
     3
  9
$SHADEDIF
 70
    70
  9
$TILEMODE
 70
     1
  9
$MAXACTVP
 70
    48
  9
$PLIMCHECK
 70
     0
  9
$PEXTMIN
 10
-1.0000000000000000E+020
 20
-1.0000000000000000E+020
 30
-1.0000000000000000E+020
  9
$PEXTMAX
 10
1.0000000000000000E+020
 20
1.0000000000000000E+020
 30
1.0000000000000000E+020
  9
$PLIMMIN
 10
0.0
 20
0.0
  9
$PLIMMAX
 10
12.0
 20
9.0
  9
$UNITMODE
 70
     0
  9
$VISRETAIN
 70
     0
  9
$PLINEGEN
 70
     0
  9
$PSLTSCALE
 70
     0
  0
ENDSEC
  0
SECTION
  2
TABLES
  0
TABLE
  2
VPORT
 70
     1
  0
VPORT
  2
*ACTIVE
 70
     0
 10
0.0
 20
0.0
 11
1.0
 21
1.0
 12
439.78702441676842
 22
-133.5579017919606
 13
0.0
 23
0.0
 14
1.0
 24
1.0
 15
0.0
 25
0.0
 16
0.0
 26
0.0
 36
1.0
 17
0.0
 27
0.0
 37
0.0
 40
1379.097840504799
 41
1.8033946251768029
 42
50.0
 43
0.0
 44
0.0
 50
0.0
 51
0.0
 71
     0
 72
  1000
 73
     1
 74
     0
 75
     0
 76
     0
 77
     0
 78
     0
  0
ENDTAB
  0
TABLE
  2
LTYPE
 70
     6
  0
LTYPE
  2
CONTINUOUS
 70
     0
  3
実線
 72
    65
 73
     0
 40
0.0
  0
LTYPE
  2
DASHDOT
 70
     0
  3
____ _ ____ _ ____ _ ____ _ ____ _ ____ _ ____
 72
    65
 73
     4
 40
5.5
 49
4.0
 49
-0.6
 49
0.3
 49
-0.6
  0
LTYPE
  2
DASHED
 70
     0
  3
-- -- -- -- -- -- -- -- -- -- -- -- -- -- --
 72
    65
 73
     2
 40
0.75
 49
0.5
 49
-0.25
  0
LTYPE
  2
CONTINOUS
 70
     0
  3
Solid line
 72
    65
 73
     0
 40
0.0
  0
LTYPE
  2
PHANTOM
 70
     0
  3
Phantom ______  __  __  ______  __  __  ______
 72
    65
 73
     6
 40
2.5
 49
1.25
 49
-0.25
 49
0.25
 49
-0.25
 49
0.25
 49
-0.25
  0
ENDTAB
  0
TABLE
  2
LAYER
 70
    12
  0
LAYER
  2
0
 70
     0
 62
     7
  6
CONTINUOUS
  0
LAYER
  2
OUTLINE
 70
     0
 62
     3
  6
CONTINUOUS
  0
LAYER
  2
SIZE
 70
     0
 62
    30
  6
CONTINUOUS
  0
LAYER
  2
BASIS
 70
     0
 62
     6
  6
DASHDOT
  0
LAYER
  2
DETAIL
 70
     0
 62
     5
  6
CONTINUOUS
  0
LAYER
  2
ARRANGE
 70
     0
 62
     1
  6
CONTINUOUS
  0
LAYER
  2
DEFPOINTS
 70
     0
 62
     7
  6
CONTINUOUS
  0
LAYER
  2
ETC
 70
     0
 62
    61
  6
CONTINUOUS
  0
LAYER
  2
NOTE
 70
     0
 62
     4
  6
CONTINUOUS
  0
LAYER
  2
FIX
 70
     0
 62
    11
  6
CONTINUOUS
  0
LAYER
  2
SERVICESPACE
 70
     0
 62
     2
  6
DASHDOT
  0
LAYER
  2
SYMBOLLINE
 70
     0
 62
    15
  6
CONTINUOUS
  0
ENDTAB
  0
TABLE
  2
STYLE
 70
     3
  0
STYLE
  2
STANDARD
 70
     0
 40
64.0
 41
0.9
 50
0.0
 71
     0
 42
64.0
  3
SIMPLEX.shx
  4
BIGFONT.shx
  0
STYLE
  2
ANNOTATIVE
 70
     0
 40
0.0
 41
1.0
 50
0.0
 71
     0
 42
0.2
  3
txt
  4

  0
STYLE
  2

 70
     1
 40
0.0
 41
1.0
 50
0.0
 71
     0
 42
64.0
  3
ltypeshp.shx
  4

  0
ENDTAB
  0
TABLE
  2
VIEW
 70
     1
  0
VIEW
  2
ALL
 70
     0
 40
4282.6198079999967
 10
0.0
 20
41.309903999999989
 41
5940.0
 11
0.0
 21
0.0
 31
1.0
 12
0.0
 22
0.0
 32
0.0
 42
50.0
 43
0.0
 44
0.0
 50
0.0
 71
     0
  0
ENDTAB
  0
TABLE
  2
UCS
 70
     0
  0
ENDTAB
  0
TABLE
  2
APPID
 70
     5
  0
APPID
  2
ACAD
 70
     0
  0
APPID
  2
ACADANNOTATIVE
 70
     0
  0
APPID
  2
ACAD_MLEADERVER
 70
     0
  0
APPID
  2
AUTOCAD_POSTSCRIPT_FIGURE
 70
     0
  0
APPID
  2
ACAD_EXEMPT_FROM_CAD_STANDARDS
 70
     0
  0
ENDTAB
  0
TABLE
  2
DIMSTYLE
 70
     2
  0
DIMSTYLE
  2
STANDARD
 70
     0
  3

  4

  5

  6

  7

 40
1.0
 41
0.18
 42
0.0625
 43
0.38
 44
0.18
 45
0.0
 46
0.0
 47
0.0
 48
0.0
140
0.18
141
0.09
142
0.0
143
25.399999999999999
144
1.0
145
0.0
146
1.0
147
0.09
 71
     0
 72
     0
 73
     1
 74
     1
 75
     0
 76
     0
 77
     0
 78
     0
170
     0
171
     2
172
     0
173
     0
174
     0
175
     0
176
     7
177
     7
178
     7
  0
DIMSTYLE
  2
ANNOTATIVE
 70
     0
  3

  4

  5

  6

  7

 40
1.0
 41
0.18
 42
0.0625
 43
0.38
 44
0.18
 45
0.0
 46
0.0
 47
0.0
 48
0.0
140
0.18
141
0.09
142
0.0
143
25.399999999999999
144
1.0
145
0.0
146
1.0
147
0.09
 71
     0
 72
     0
 73
     1
 74
     1
 75
     0
 76
     0
 77
     0
 78
     0
170
     0
171
     2
172
     0
173
     0
174
     0
175
     0
176
     0
177
     0
178
     0
  0
ENDTAB
  0
ENDSEC
  0
SECTION
  2
BLOCKS
  0
BLOCK
  8
0
  2
$MODEL_SPACE
 70
     0
 10
0.0
 20
0.0
 30
0.0
  3
$MODEL_SPACE
  1

  0
ENDBLK
  5
811
  8
0
  0
BLOCK
 67
     1
  8
0
  2
$PAPER_SPACE
 70
     0
 10
0.0
 20
0.0
 30
0.0
  3
$PAPER_SPACE
  1

  0
ENDBLK
  5
80D
 67
     1
  8
0
  0
BLOCK
  8
0
  2
DOT1
 70
     0
 10
0.0
 20
0.0
 30
0.0
  3
DOT1
  1

  0
CIRCLE
  5
600
  8
SIZE
  6
CONTINUOUS
 62
     7
 10
0.0
 20
0.0
 30
0.0
 40
3.0
  0
ENDBLK
  5
601
  8
0
  0
BLOCK
  8
0
  2
_ORIGIN
 70
     0
 10
0.0
 20
0.0
 30
0.0
  3
_ORIGIN
  1

  0
CIRCLE
  5
604
  8
0
  6
CONTINUOUS
 62
     7
 10
0.0
 20
0.0
 30
0.0
 40
0.5
  0
LINE
  5
605
  8
0
  6
CONTINUOUS
 62
     7
 10
0.0
 20
0.0
 30
0.0
 11
-1.0
 21
0.0
 31
0.0
  0
ENDBLK
  5
606
  8
0
  0
BLOCK
  8
0
 62
    30
  2
_NONE
 70
     0
 10
0.0
 20
0.0
 30
0.0
  3
_NONE
  1

  0
ENDBLK
  5
609
  8
0
 62
    30
  0
BLOCK
  8
0
 62
    30
  2
_OPEN30
 70
     0
 10
0.0
 20
0.0
 30
0.0
  3
_OPEN30
  1

  0
LINE
  5
60C
  8
0
  6
BYBLOCK
 62
     0
 10
-1.0
 20
0.26794919
 30
0.0
 11
0.0
 21
0.0
 31
0.0
  0
LINE
  5
60D
  8
0
  6
BYBLOCK
 62
     0
 10
0.0
 20
0.0
 30
0.0
 11
-1.0
 21
-0.26794919
 31
0.0
  0
LINE
  5
60E
  8
0
  6
BYBLOCK
 62
     0
 10
0.0
 20
0.0
 30
0.0
 11
-1.0
 21
0.0
 31
0.0
  0
ENDBLK
  5
60F
  8
0
 62
    30
  0
ENDSEC
  0
SECTION
  2
ENTITIES
  0
LINE
  5
610
  8
SIZE
  6
CONTINUOUS
 62
    30
 10
320.0
 20
0.0
 30
0.0
 11
679.09560599999998
 21
0.0
 31
0.0
  0
LINE
  5
611
  8
SIZE
  6
CONTINUOUS
 62
    30
 10
320.0
 20
-600.0
 30
0.0
 11
679.09560599999998
 21
-600.0
 31
0.0
  0
LINE
  5
612
  8
SIZE
  6
CONTINUOUS
 62
    30
 10
659.09560599999986
 20
-12.0
 30
0.0
 11
659.09560599999986
 21
-588.0
 31
0.0
  0
TEXT
  5
613
  8
SIZE
  6
CONTINUOUS
 62
    30
 10
634.15786900000001
 20
-374.05714285714282
 30
0.0
 40
64.0
  1
600
 50
90.0
 41
0.9
 72
     1
 11
634.15786900000001
 21
-300.0
 31
0.0
  0
CIRCLE
  5
614
  8
SIZE
  6
CONTINUOUS
 62
    30
 10
659.09560599999986
 20
0.0
 30
0.0
 40
6.0
  0
LINE
  5
615
  8
SIZE
  6
CONTINUOUS
 62
    30
 10
659.09560599999986
 20
0.0
 30
0.0
 11
659.09560599999986
 21
-12.0
 31
0.0
  0
CIRCLE
  5
616
  8
SIZE
  6
CONTINUOUS
 62
    30
 10
659.09560599999986
 20
-600.0
 30
0.0
 40
6.0
  0
LINE
  5
617
  8
SIZE
  6
CONTINUOUS
 62
    30
 10
659.09560599999986
 20
-600.0
 30
0.0
 11
659.09560599999986
 21
-588.0
 31
0.0
  0
LINE
  5
618
  8
DETAIL
  6
CONTINUOUS
 62
     5
 10
-300.0
 20
-200.0
 30
0.0
 11
-300.0
 21
0.0
 31
0.0
  0
LINE
  5
619
  8
DETAIL
  6
CONTINUOUS
 62
     5
 10
300.0
 20
0.0
 30
0.0
 11
-300.0
 21
0.0
 31
0.0
  0
LINE
  5
61A
  8
BASIS
  6
DASHDOT
 62
     6
 10
0.0
 20
-671.94006799999966
 30
0.0
 11
0.0
 21
91.970927000000003
 31
0.0
  0
LINE
  5
61B
  8
DETAIL
  6
CONTINOUS
 62
     5
 10
-300.0
 20
-600.0
 30
0.0
 11
-300.0
 21
-200.0
 31
0.0
  0
LINE
  5
61C
  8
DETAIL
  6
CONTINOUS
 62
     5
 10
-300.0
 20
-200.0
 30
0.0
 11
300.0
 21
-200.0
 31
0.0
  0
LINE
  5
61D
  8
DETAIL
  6
CONTINOUS
 62
     5
 10
300.0
 20
-600.0
 30
0.0
 11
300.0
 21
0.0
 31
0.0
  0
LINE
  5
61E
  8
DETAIL
  6
CONTINOUS
 62
     5
 10
-300.0
 20
-600.0
 30
0.0
 11
300.0
 21
-600.0
 31
0.0
  0
LINE
  5
61F
  8
DETAIL
  6
CONTINOUS
 62
     5
 10
-280.0
 20
-600.0
 30
0.0
 11
-280.0
 21
-200.0
 31
0.0
  0
LINE
  5
620
  8
DETAIL
  6
CONTINOUS
 62
     5
 10
280.0
 20
-600.0
 30
0.0
 11
280.0
 21
-200.0
 31
0.0
  0
TEXT
  5
621
  8
NOTE
  6
CONTINUOUS
 62
     4
 10
27.698610999999989
 20
63.697349000000003
 30
0.0
 40
64.0
  1
OA
 41
0.9
  0
LINE
  5
622
  8
SIZE
  6
CONTINUOUS
 62
    30
 10
300.0
 20
-620.0
 30
0.0
 11
300.0
 21
-884.13889399999982
 31
0.0
  0
LINE
  5
623
  8
SIZE
  6
CONTINUOUS
 62
    30
 10
-300.0
 20
-620.0
 30
0.0
 11
-300.0
 21
-884.13889399999982
 31
0.0
  0
LINE
  5
624
  8
SIZE
  6
CONTINUOUS
 62
    30
 10
288.0
 20
-864.13889399999982
 30
0.0
 11
-288.0
 21
-864.13889399999982
 31
0.0
  0
TEXT
  5
625
  8
SIZE
  6
CONTINUOUS
 62
    30
 10
-74.05714285714285
 20
-843.41845099999989
 30
0.0
 40
64.0
  1
600
 41
0.9
 72
     1
 11
0.0
 21
-843.41845099999989
 31
0.0
  0
CIRCLE
  5
626
  8
SIZE
  6
CONTINUOUS
 62
    30
 10
300.0
 20
-864.13889399999982
 30
0.0
 40
6.0
  0
LINE
  5
627
  8
SIZE
  6
CONTINUOUS
 62
    30
 10
300.0
 20
-864.13889399999982
 30
0.0
 11
288.0
 21
-864.13889399999982
 31
0.0
  0
CIRCLE
  5
628
  8
SIZE
  6
CONTINUOUS
 62
    30
 10
-300.0
 20
-864.13889399999982
 30
0.0
 40
6.0
  0
LINE
  5
629
  8
SIZE
  6
CONTINUOUS
 62
    30
 10
-300.0
 20
-864.13889399999982
 30
0.0
 11
-288.0
 21
-864.13889399999982
 31
0.0
  0
POINT
  5
62A
  8
ARRANGE
  6
CONTINUOUS
 62
     1
 10
0.0
 20
0.0
 30
0.0
  0
CIRCLE
  5
62B
  8
ARRANGE
  6
CONTINUOUS
 62
     1
 10
0.0
 20
0.0
 30
0.0
 40
40.0
  0
LINE
  5
62D
  8
OUTLINE
  6
CONTINOUS
 62
     3
 10
300.0
 20
-600.0
 30
0.0
 11
300.0
 21
0.0
 31
0.0
  0
LINE
  5
62E
  8
OUTLINE
  6
CONTINOUS
 62
     3
 10
-300.0
 20
-600.0
 30
0.0
 11
300.0
 21
-600.0
 31
0.0
  0
LINE
  5
62F
  8
OUTLINE
  6
CONTINUOUS
 62
     3
 10
-300.0
 20
-600.0
 30
0.0
 11
-300.0
 21
0.0
 31
0.0
  0
LINE
  5
630
  8
DETAIL
  6
PHANTOM
 62
     5
 10
-6.0
 20
0.0
 30
0.0
 11
-6.0
 21
45.0
 31
0.0
  0
LINE
  5
631
  8
DETAIL
  6
PHANTOM
 62
     5
 10
-6.0
 20
45.0
 30
0.0
 11
-154.0
 21
45.0
 31
0.0
  0
LINE
  5
632
  8
DETAIL
  6
PHANTOM
 62
     5
 10
-154.0
 20
0.0
 30
0.0
 11
-154.0
 21
45.0
 31
0.0
  0
LINE
  5
633
  8
BASIS
  6
DASHDOT
 62
     6
 10
-80.0
 20
-33.590437000000001
 30
0.0
 11
-80.0
 21
75.513159999999985
 31
0.0
  0
TEXT
  5
634
  8
NOTE
  6
CONTINUOUS
 62
     4
 10
-389.80576300000001
 20
281.39555000000001
 30
0.0
 40
64.0
  1
上部給気接続口移動寸法
 41
0.9
  0
LINE
  5
635
  8
DETAIL
  6
CONTINOUS
 62
     5
 10
-300.0
 20
-185.0
 30
0.0
 11
300.0
 21
-185.0
 31
0.0
  0
LINE
  5
636
  8
SIZE
  6
CONTINUOUS
 62
    30
 10
-320.0
 20
-200.0
 30
0.0
 11
-442.22278299999988
 21
-200.0
 31
0.0
  0
LINE
  5
637
  8
SIZE
  6
CONTINUOUS
 62
    30
 10
-320.0
 20
-185.0
 30
0.0
 11
-442.22278299999988
 21
-185.0
 31
0.0
  0
LINE
  5
638
  8
SIZE
  6
CONTINUOUS
 62
    30
 10
-422.22278299999988
 20
-212.0
 30
0.0
 11
-422.22278299999988
 21
-224.0
 31
0.0
  0
LINE
  5
639
  8
SIZE
  6
CONTINUOUS
 62
    30
 10
-422.22278299999988
 20
-173.0
 30
0.0
 11
-422.22278299999988
 21
-161.0
 31
0.0
  0
LINE
  5
63A
  8
SIZE
  6
CONTINUOUS
 62
    30
 10
-422.22278299999988
 20
-363.814347
 30
0.0
 11
-422.22278299999988
 21
-200.0
 31
0.0
  0
TEXT
  5
63B
  8
SIZE
  6
CONTINUOUS
 62
    30
 10
-447.22278299999999
 20
-338.81434614285712
 30
0.0
 40
64.0
  1
15
 50
90.0
 41
0.9
 72
     1
 11
-447.22278299999999
 21
-297.67148900000001
 31
0.0
  0
LINE
  5
63C
  8
SIZE
  6
CONTINUOUS
 62
    30
 10
-422.22278299999988
 20
-200.0
 30
0.0
 11
-422.22278299999988
 21
-185.0
 31
0.0
  0
LINE
  5
63D
  8
SIZE
  6
CONTINUOUS
 62
    30
 10
-422.22278299999988
 20
-200.0
 30
0.0
 11
-422.22278299999988
 21
-185.0
 31
0.0
  0
CIRCLE
  5
63E
  8
SIZE
  6
CONTINUOUS
 62
    30
 10
-422.22278299999988
 20
-200.0
 30
0.0
 40
6.0
  0
LINE
  5
63F
  8
SIZE
  6
CONTINUOUS
 62
    30
 10
-422.22278299999988
 20
-200.0
 30
0.0
 11
-422.22278299999988
 21
-212.0
 31
0.0
  0
CIRCLE
  5
640
  8
SIZE
  6
CONTINUOUS
 62
    30
 10
-422.22278299999988
 20
-185.0
 30
0.0
 40
6.0
  0
LINE
  5
641
  8
SIZE
  6
CONTINUOUS
 62
    30
 10
-422.22278299999988
 20
-185.0
 30
0.0
 11
-422.22278299999988
 21
-173.0
 31
0.0
  0
LINE
  5
642
  8
SIZE
  6
CONTINUOUS
 62
    30
 10
-320.0
 20
-185.0
 30
0.0
 11
-442.22278299999988
 21
-185.0
 31
0.0
  0
LINE
  5
643
  8
SIZE
  6
CONTINUOUS
 62
    30
 10
-320.0
 20
0.0
 30
0.0
 11
-442.22278299999988
 21
0.0
 31
0.0
  0
LINE
  5
644
  8
SIZE
  6
CONTINUOUS
 62
    30
 10
-422.22278299999988
 20
-197.0
 30
0.0
 11
-422.22278299999988
 21
-209.0
 31
0.0
  0
LINE
  5
645
  8
SIZE
  6
CONTINUOUS
 62
    30
 10
-422.22278299999988
 20
-185.0
 30
0.0
 11
-422.22278299999988
 21
0.0
 31
0.0
  0
CIRCLE
  5
646
  8
SIZE
  6
CONTINUOUS
 62
    30
 10
-422.22278299999988
 20
-185.0
 30
0.0
 40
6.0
  0
LINE
  5
647
  8
SIZE
  6
CONTINUOUS
 62
    30
 10
-422.22278299999988
 20
-185.0
 30
0.0
 11
-422.22278299999988
 21
-197.0
 31
0.0
  0
CIRCLE
  5
648
  8
SIZE
  6
CONTINUOUS
 62
    30
 10
-422.22278299999988
 20
0.0
 30
0.0
 40
6.0
  0
TEXT
  5
649
  8
SIZE
  6
CONTINUOUS
 62
    30
 10
-447.22278299999999
 20
-161.0714285714285
 30
0.0
 40
64.0
  1
185
 50
90.0
 41
0.9
 72
     1
 11
-447.22278299999999
 21
-92.5
 31
0.0
  0
LINE
  5
64A
  8
BASIS
  6
DASHDOT
 62
     6
 10
80.0
 20
-33.590437000000001
 30
0.0
 11
80.0
 21
75.513159999999985
 31
0.0
  0
LINE
  5
64B
  8
DETAIL
  6
PHANTOM
 62
     5
 10
154.0
 20
0.0
 30
0.0
 11
154.0
 21
45.0
 31
0.0
  0
LINE
  5
64C
  8
DETAIL
  6
PHANTOM
 62
     5
 10
6.0
 20
0.0
 30
0.0
 11
6.0
 21
45.0
 31
0.0
  0
LINE
  5
64D
  8
DETAIL
  6
PHANTOM
 62
     5
 10
154.0
 20
45.0
 30
0.0
 11
6.0
 21
45.0
 31
0.0
  0
LINE
  5
64E
  8
NOTE
  6
CONTINUOUS
 62
     4
 10
-181.0590949999999
 20
134.34873400000001
 30
0.0
 11
-662.48959400000001
 21
134.34873400000001
 31
0.0
  0
TEXT
  5
64F
  8
NOTE
  6
CONTINUOUS
 62
     4
 10
-659.09017699999981
 20
164.50348600000001
 30
0.0
 40
64.0
  1
上部給気接続口
 41
0.9
  0
LINE
  5
650
  8
SIZE
  6
CONTINUOUS
 62
    30
 10
320.0
 20
-600.0
 30
0.0
 11
550.06108200000006
 21
-600.0
 31
0.0
  0
LINE
  5
651
  8
SIZE
  6
CONTINUOUS
 62
    30
 10
320.0
 20
-200.0
 30
0.0
 11
550.06108200000006
 21
-200.0
 31
0.0
  0
LINE
  5
652
  8
SIZE
  6
CONTINUOUS
 62
    30
 10
530.06108200000006
 20
-588.0
 30
0.0
 11
530.06108200000006
 21
-212.0
 31
0.0
  0
CIRCLE
  5
653
  8
SIZE
  6
CONTINUOUS
 62
    30
 10
530.06108200000006
 20
-600.0
 30
0.0
 40
6.0
  0
LINE
  5
654
  8
SIZE
  6
CONTINUOUS
 62
    30
 10
530.06108200000006
 20
-600.0
 30
0.0
 11
530.06108200000006
 21
-588.0
 31
0.0
  0
CIRCLE
  5
655
  8
SIZE
  6
CONTINUOUS
 62
    30
 10
530.06108200000006
 20
-200.0
 30
0.0
 40
6.0
  0
LINE
  5
656
  8
SIZE
  6
CONTINUOUS
 62
    30
 10
530.06108200000006
 20
-200.0
 30
0.0
 11
530.06108200000006
 21
-212.0
 31
0.0
  0
TEXT
  5
657
  8
SIZE
  6
CONTINUOUS
 62
    30
 10
505.06108200000011
 20
-474.05714285714282
 30
0.0
 40
64.0
  1
400
 50
90.0
 41
0.9
 72
     1
 11
505.06108200000011
 21
-400.0
 31
0.0
  0
LINE
  5
658
  8
DETAIL
  6
CONTINUOUS
 62
     5
 10
0.0
 20
-67.164063999999996
 30
0.0
 11
-62.0
 21
-67.164063999999996
 31
0.0
  0
LINE
  5
659
  8
DETAIL
  6
CONTINUOUS
 62
     5
 10
0.0
 20
-63.231051000000001
 30
0.0
 11
-63.0
 21
-63.231051000000001
 31
0.0
  0
LINE
  5
65A
  8
DETAIL
  6
CONTINUOUS
 62
     5
 10
0.0
 20
-69.365025000000003
 30
0.0
 11
-61.5
 21
-69.365025000000003
 31
0.0
  0
LINE
  5
65B
  8
DETAIL
  6
CONTINUOUS
 62
     5
 10
0.0
 20
-56.164064000000003
 30
0.0
 11
-62.0
 21
-56.164064000000003
 31
0.0
  0
LINE
  5
65C
  8
DETAIL
  6
CONTINUOUS
 62
     5
 10
0.0
 20
-52.231051000000001
 30
0.0
 11
-63.0
 21
-52.231051000000001
 31
0.0
  0
LINE
  5
65D
  8
DETAIL
  6
CONTINUOUS
 62
     5
 10
0.0
 20
-58.365025000000003
 30
0.0
 11
-61.5
 21
-58.365025000000003
 31
0.0
  0
LINE
  5
65E
  8
DETAIL
  6
CONTINUOUS
 62
     5
 10
0.0
 20
-78.164063999999982
 30
0.0
 11
-62.0
 21
-78.164063999999982
 31
0.0
  0
LINE
  5
65F
  8
DETAIL
  6
CONTINUOUS
 62
     5
 10
0.0
 20
-74.231050999999979
 30
0.0
 11
-63.0
 21
-74.231050999999979
 31
0.0
  0
LINE
  5
660
  8
DETAIL
  6
CONTINUOUS
 62
     5
 10
0.0
 20
-80.365025000000003
 30
0.0
 11
-61.5
 21
-80.365025000000003
 31
0.0
  0
LINE
  5
661
  8
DETAIL
  6
CONTINUOUS
 62
     5
 10
0.0
 20
-89.164063999999968
 30
0.0
 11
-62.0
 21
-89.164063999999968
 31
0.0
  0
LINE
  5
662
  8
DETAIL
  6
CONTINUOUS
 62
     5
 10
0.0
 20
-85.231050999999979
 30
0.0
 11
-63.0
 21
-85.231050999999979
 31
0.0
  0
LINE
  5
663
  8
DETAIL
  6
CONTINUOUS
 62
     5
 10
0.0
 20
-91.365025000000003
 30
0.0
 11
-61.5
 21
-91.365025000000003
 31
0.0
  0
LINE
  5
664
  8
DETAIL
  6
CONTINUOUS
 62
     5
 10
0.0
 20
-96.231050999999994
 30
0.0
 11
-63.0
 21
-96.231050999999994
 31
0.0
  0
LINE
  5
665
  8
DETAIL
  6
CONTINUOUS
 62
     5
 10
0.0
 20
-100.1640639999999
 30
0.0
 11
-62.0
 21
-100.1640639999999
 31
0.0
  0
LINE
  5
666
  8
DETAIL
  6
CONTINUOUS
 62
     5
 10
0.0
 20
-102.3650249999999
 30
0.0
 11
-61.5
 21
-102.3650249999999
 31
0.0
  0
LINE
  5
667
  8
DETAIL
  6
CONTINUOUS
 62
     5
 10
0.0
 20
-111.164064
 30
0.0
 11
-62.0
 21
-111.164064
 31
0.0
  0
LINE
  5
668
  8
DETAIL
  6
CONTINUOUS
 62
     5
 10
0.0
 20
-107.2310509999997
 30
0.0
 11
-63.0
 21
-107.2310509999997
 31
0.0
  0
LINE
  5
669
  8
DETAIL
  6
CONTINUOUS
 62
     5
 10
0.0
 20
-113.365025
 30
0.0
 11
-61.5
 21
-113.365025
 31
0.0
  0
LINE
  5
66A
  8
DETAIL
  6
CONTINUOUS
 62
     5
 10
0.0
 20
-118.2310509999997
 30
0.0
 11
-63.0
 21
-118.2310509999997
 31
0.0
  0
LINE
  5
66B
  8
DETAIL
  6
CONTINUOUS
 62
     5
 10
0.0
 20
-122.1640639999999
 30
0.0
 11
-62.0
 21
-122.1640639999999
 31
0.0
  0
LINE
  5
66C
  8
DETAIL
  6
CONTINUOUS
 62
     5
 10
0.0
 20
-124.3650249999999
 30
0.0
 11
-61.5
 21
-124.3650249999999
 31
0.0
  0
LINE
  5
66D
  8
DETAIL
  6
CONTINUOUS
 62
     5
 10
-88.0
 20
-67.164063999999996
 30
0.0
 11
-212.0
 21
-67.164063999999996
 31
0.0
  0
LINE
  5
66E
  8
DETAIL
  6
CONTINUOUS
 62
     5
 10
-87.0
 20
-63.231051000000001
 30
0.0
 11
-213.0
 21
-63.231051000000001
 31
0.0
  0
LINE
  5
66F
  8
DETAIL
  6
CONTINUOUS
 62
     5
 10
-88.499999999999986
 20
-69.365025000000003
 30
0.0
 11
-211.5
 21
-69.365025000000003
 31
0.0
  0
LINE
  5
670
  8
DETAIL
  6
CONTINUOUS
 62
     5
 10
-88.0
 20
-56.164064000000003
 30
0.0
 11
-212.0
 21
-56.164064000000003
 31
0.0
  0
LINE
  5
671
  8
DETAIL
  6
CONTINUOUS
 62
     5
 10
-87.0
 20
-52.231051000000001
 30
0.0
 11
-213.0
 21
-52.231051000000001
 31
0.0
  0
LINE
  5
672
  8
DETAIL
  6
CONTINUOUS
 62
     5
 10
-88.499999999999986
 20
-58.365025000000003
 30
0.0
 11
-211.5
 21
-58.365025000000003
 31
0.0
  0
LINE
  5
673
  8
DETAIL
  6
CONTINUOUS
 62
     5
 10
-88.0
 20
-78.164063999999982
 30
0.0
 11
-212.0
 21
-78.164063999999982
 31
0.0
  0
LINE
  5
674
  8
DETAIL
  6
CONTINUOUS
 62
     5
 10
-87.0
 20
-74.231050999999979
 30
0.0
 11
-213.0
 21
-74.231050999999979
 31
0.0
  0
LINE
  5
675
  8
DETAIL
  6
CONTINUOUS
 62
     5
 10
-88.499999999999986
 20
-80.365025000000003
 30
0.0
 11
-211.5
 21
-80.365025000000003
 31
0.0
  0
LINE
  5
676
  8
DETAIL
  6
CONTINUOUS
 62
     5
 10
-88.0
 20
-89.164063999999968
 30
0.0
 11
-212.0
 21
-89.164063999999968
 31
0.0
  0
LINE
  5
677
  8
DETAIL
  6
CONTINUOUS
 62
     5
 10
-87.0
 20
-85.231050999999979
 30
0.0
 11
-213.0
 21
-85.231050999999979
 31
0.0
  0
LINE
  5
678
  8
DETAIL
  6
CONTINUOUS
 62
     5
 10
-88.499999999999986
 20
-91.365025000000003
 30
0.0
 11
-211.5
 21
-91.365025000000003
 31
0.0
  0
LINE
  5
679
  8
DETAIL
  6
CONTINUOUS
 62
     5
 10
-87.0
 20
-96.231050999999994
 30
0.0
 11
-213.0
 21
-96.231050999999994
 31
0.0
  0
LINE
  5
67A
  8
DETAIL
  6
CONTINUOUS
 62
     5
 10
-88.0
 20
-100.1640639999999
 30
0.0
 11
-212.0
 21
-100.1640639999999
 31
0.0
  0
LINE
  5
67B
  8
DETAIL
  6
CONTINUOUS
 62
     5
 10
-88.499999999999986
 20
-102.3650249999999
 30
0.0
 11
-211.5
 21
-102.3650249999999
 31
0.0
  0
LINE
  5
67C
  8
DETAIL
  6
CONTINUOUS
 62
     5
 10
-88.0
 20
-111.164064
 30
0.0
 11
-212.0
 21
-111.164064
 31
0.0
  0
LINE
  5
67D
  8
DETAIL
  6
CONTINUOUS
 62
     5
 10
-87.0
 20
-107.2310509999997
 30
0.0
 11
-213.0
 21
-107.2310509999997
 31
0.0
  0
LINE
  5
67E
  8
DETAIL
  6
CONTINUOUS
 62
     5
 10
-88.499999999999986
 20
-113.365025
 30
0.0
 11
-211.5
 21
-113.365025
 31
0.0
  0
LINE
  5
67F
  8
DETAIL
  6
CONTINUOUS
 62
     5
 10
-87.0
 20
-118.2310509999997
 30
0.0
 11
-213.0
 21
-118.2310509999997
 31
0.0
  0
LINE
  5
680
  8
DETAIL
  6
CONTINUOUS
 62
     5
 10
-88.0
 20
-122.1640639999999
 30
0.0
 11
-212.0
 21
-122.1640639999999
 31
0.0
  0
LINE
  5
681
  8
DETAIL
  6
CONTINUOUS
 62
     5
 10
-88.499999999999986
 20
-124.3650249999999
 30
0.0
 11
-211.5
 21
-124.3650249999999
 31
0.0
  0
ARC
  5
682
  8
DETAIL
  6
CONTINUOUS
 62
     5
 10
-212.0
 20
-53.164064000000003
 30
0.0
 40
3.0
 50
180.0
 51
270.0
  0
LINE
  5
683
  8
DETAIL
  6
CONTINUOUS
 62
     5
 10
-215.0
 20
-54.865025000000003
 30
0.0
 11
-215.0
 21
-51.365025000000003
 31
0.0
  0
ARC
  5
684
  8
DETAIL
  6
CONTINUOUS
 62
     5
 10
-211.5
 20
-54.865025000000003
 30
0.0
 40
3.5
 50
180.0
 51
270.0
  0
ARC
  5
685
  8
DETAIL
  6
CONTINUOUS
 62
     5
 10
-212.0
 20
-64.164063999999996
 30
0.0
 40
3.0
 50
180.0
 51
270.0
  0
LINE
  5
686
  8
DETAIL
  6
CONTINUOUS
 62
     5
 10
-215.0
 20
-65.865025000000003
 30
0.0
 11
-215.0
 21
-62.365025000000003
 31
0.0
  0
ARC
  5
687
  8
DETAIL
  6
CONTINUOUS
 62
     5
 10
-211.5
 20
-65.865025000000003
 30
0.0
 40
3.5
 50
180.0
 51
270.0
  0
ARC
  5
688
  8
DETAIL
  6
CONTINUOUS
 62
     5
 10
-212.0
 20
-75.164063999999982
 30
0.0
 40
3.0
 50
180.0
 51
270.0
  0
LINE
  5
689
  8
DETAIL
  6
CONTINUOUS
 62
     5
 10
-215.0
 20
-76.865025000000003
 30
0.0
 11
-215.0
 21
-73.365025000000003
 31
0.0
  0
ARC
  5
68A
  8
DETAIL
  6
CONTINUOUS
 62
     5
 10
-211.5
 20
-76.865025000000003
 30
0.0
 40
3.5
 50
180.0
 51
270.0
  0
ARC
  5
68B
  8
DETAIL
  6
CONTINUOUS
 62
     5
 10
-212.0
 20
-86.164063999999982
 30
0.0
 40
3.0
 50
180.0
 51
270.0
  0
LINE
  5
68C
  8
DETAIL
  6
CONTINUOUS
 62
     5
 10
-215.0
 20
-87.865025000000003
 30
0.0
 11
-215.0
 21
-84.365025000000017
 31
0.0
  0
ARC
  5
68D
  8
DETAIL
  6
CONTINUOUS
 62
     5
 10
-211.5
 20
-87.865025000000003
 30
0.0
 40
3.5
 50
180.0
 51
270.0
  0
ARC
  5
68E
  8
DETAIL
  6
CONTINUOUS
 62
     5
 10
-212.0
 20
-97.164063999999996
 30
0.0
 40
3.0
 50
180.0
 51
270.0
  0
LINE
  5
68F
  8
DETAIL
  6
CONTINUOUS
 62
     5
 10
-215.0
 20
-98.865025000000003
 30
0.0
 11
-215.0
 21
-95.365025000000003
 31
0.0
  0
ARC
  5
690
  8
DETAIL
  6
CONTINUOUS
 62
     5
 10
-211.5
 20
-98.865025000000003
 30
0.0
 40
3.5
 50
180.0
 51
270.0
  0
ARC
  5
691
  8
DETAIL
  6
CONTINUOUS
 62
     5
 10
-211.5
 20
-109.865025
 30
0.0
 40
3.5
 50
180.0
 51
270.0
  0
ARC
  5
692
  8
DETAIL
  6
CONTINUOUS
 62
     5
 10
-211.5
 20
-120.865025
 30
0.0
 40
3.5
 50
180.0
 51
270.0
  0
LINE
  5
693
  8
DETAIL
  6
CONTINUOUS
 62
     5
 10
-215.0
 20
-120.865025
 30
0.0
 11
-215.0
 21
-117.365025
 31
0.0
  0
ARC
  5
694
  8
DETAIL
  6
CONTINUOUS
 62
     5
 10
-212.0
 20
-119.1640639999999
 30
0.0
 40
3.0
 50
180.0
 51
270.0
  0
ARC
  5
695
  8
DETAIL
  6
CONTINUOUS
 62
     5
 10
-212.0
 20
-108.164064
 30
0.0
 40
3.0
 50
180.0
 51
270.0
  0
LINE
  5
696
  8
DETAIL
  6
CONTINUOUS
 62
     5
 10
-215.0
 20
-109.865025
 30
0.0
 11
-215.0
 21
-106.365025
 31
0.0
  0
ARC
  5
697
  8
DETAIL
  6
CONTINUOUS
 62
     5
 10
-88.0
 20
-64.164063999999996
 30
0.0
 40
3.0
 50
270.0
 51
0.0
  0
ARC
  5
698
  8
DETAIL
  6
CONTINUOUS
 62
     5
 10
-88.499999999999986
 20
-65.865025000000003
 30
0.0
 40
3.5
 50
270.0
 51
0.0
  0
LINE
  5
699
  8
DETAIL
  6
CONTINUOUS
 62
     5
 10
-85.0
 20
-65.865025000000003
 30
0.0
 11
-85.0
 21
-62.365025000000003
 31
0.0
  0
ARC
  5
69A
  8
DETAIL
  6
CONTINUOUS
 62
     5
 10
-88.0
 20
-53.164064000000003
 30
0.0
 40
3.0
 50
270.0
 51
0.0
  0
ARC
  5
69B
  8
DETAIL
  6
CONTINUOUS
 62
     5
 10
-88.499999999999986
 20
-54.865025000000003
 30
0.0
 40
3.5
 50
270.0
 51
0.0
  0
LINE
  5
69C
  8
DETAIL
  6
CONTINUOUS
 62
     5
 10
-85.0
 20
-54.865025000000003
 30
0.0
 11
-85.0
 21
-51.365025000000003
 31
0.0
  0
ARC
  5
69D
  8
DETAIL
  6
CONTINUOUS
 62
     5
 10
-88.0
 20
-75.164063999999982
 30
0.0
 40
3.0
 50
270.0
 51
0.0
  0
ARC
  5
69E
  8
DETAIL
  6
CONTINUOUS
 62
     5
 10
-88.499999999999986
 20
-76.865025000000003
 30
0.0
 40
3.5
 50
270.0
 51
0.0
  0
LINE
  5
69F
  8
DETAIL
  6
CONTINUOUS
 62
     5
 10
-85.0
 20
-76.865025000000003
 30
0.0
 11
-85.0
 21
-73.365025000000003
 31
0.0
  0
ARC
  5
6A0
  8
DETAIL
  6
CONTINUOUS
 62
     5
 10
-88.0
 20
-86.164063999999982
 30
0.0
 40
3.0
 50
270.0
 51
0.0
  0
ARC
  5
6A1
  8
DETAIL
  6
CONTINUOUS
 62
     5
 10
-88.499999999999986
 20
-87.865025000000003
 30
0.0
 40
3.5
 50
270.0
 51
0.0
  0
LINE
  5
6A2
  8
DETAIL
  6
CONTINUOUS
 62
     5
 10
-85.0
 20
-87.865025000000003
 30
0.0
 11
-85.0
 21
-84.365025000000017
 31
0.0
  0
ARC
  5
6A3
  8
DETAIL
  6
CONTINUOUS
 62
     5
 10
-88.0
 20
-97.164063999999996
 30
0.0
 40
3.0
 50
270.0
 51
0.0
  0
LINE
  5
6A4
  8
DETAIL
  6
CONTINUOUS
 62
     5
 10
-85.0
 20
-98.865025000000003
 30
0.0
 11
-85.0
 21
-95.365025000000003
 31
0.0
  0
ARC
  5
6A5
  8
DETAIL
  6
CONTINUOUS
 62
     5
 10
-88.499999999999986
 20
-98.865025000000003
 30
0.0
 40
3.5
 50
270.0
 51
0.0
  0
ARC
  5
6A6
  8
DETAIL
  6
CONTINUOUS
 62
     5
 10
-88.499999999999986
 20
-109.865025
 30
0.0
 40
3.5
 50
270.0
 51
0.0
  0
LINE
  5
6A7
  8
DETAIL
  6
CONTINUOUS
 62
     5
 10
-85.0
 20
-120.865025
 30
0.0
 11
-85.0
 21
-117.365025
 31
0.0
  0
ARC
  5
6A8
  8
DETAIL
  6
CONTINUOUS
 62
     5
 10
-88.499999999999986
 20
-120.865025
 30
0.0
 40
3.5
 50
270.0
 51
0.0
  0
ARC
  5
6A9
  8
DETAIL
  6
CONTINUOUS
 62
     5
 10
-88.0
 20
-119.1640639999999
 30
0.0
 40
3.0
 50
270.0
 51
0.0
  0
ARC
  5
6AA
  8
DETAIL
  6
CONTINUOUS
 62
     5
 10
-88.0
 20
-108.164064
 30
0.0
 40
3.0
 50
270.0
 51
0.0
  0
LINE
  5
6AB
  8
DETAIL
  6
CONTINUOUS
 62
     5
 10
-85.0
 20
-109.865025
 30
0.0
 11
-85.0
 21
-106.365025
 31
0.0
  0
ARC
  5
6AC
  8
DETAIL
  6
CONTINUOUS
 62
     5
 10
-62.0
 20
-53.164064000000003
 30
0.0
 40
3.0
 50
180.0
 51
270.0
  0
LINE
  5
6AD
  8
DETAIL
  6
CONTINUOUS
 62
     5
 10
-65.0
 20
-54.865025000000003
 30
0.0
 11
-65.0
 21
-51.365025000000003
 31
0.0
  0
ARC
  5
6AE
  8
DETAIL
  6
CONTINUOUS
 62
     5
 10
-61.5
 20
-54.865025000000003
 30
0.0
 40
3.5
 50
180.0
 51
270.0
  0
ARC
  5
6AF
  8
DETAIL
  6
CONTINUOUS
 62
     5
 10
-62.0
 20
-64.164063999999996
 30
0.0
 40
3.0
 50
180.0
 51
270.0
  0
LINE
  5
6B0
  8
DETAIL
  6
CONTINUOUS
 62
     5
 10
-65.0
 20
-65.865025000000003
 30
0.0
 11
-65.0
 21
-62.365025000000003
 31
0.0
  0
ARC
  5
6B1
  8
DETAIL
  6
CONTINUOUS
 62
     5
 10
-61.5
 20
-65.865025000000003
 30
0.0
 40
3.5
 50
180.0
 51
270.0
  0
ARC
  5
6B2
  8
DETAIL
  6
CONTINUOUS
 62
     5
 10
-62.0
 20
-75.164063999999982
 30
0.0
 40
3.0
 50
180.0
 51
270.0
  0
LINE
  5
6B3
  8
DETAIL
  6
CONTINUOUS
 62
     5
 10
-65.0
 20
-76.865025000000003
 30
0.0
 11
-65.0
 21
-73.365025000000003
 31
0.0
  0
ARC
  5
6B4
  8
DETAIL
  6
CONTINUOUS
 62
     5
 10
-61.5
 20
-76.865025000000003
 30
0.0
 40
3.5
 50
180.0
 51
270.0
  0
ARC
  5
6B5
  8
DETAIL
  6
CONTINUOUS
 62
     5
 10
-62.0
 20
-86.164063999999982
 30
0.0
 40
3.0
 50
180.0
 51
270.0
  0
LINE
  5
6B6
  8
DETAIL
  6
CONTINUOUS
 62
     5
 10
-65.0
 20
-87.865025000000003
 30
0.0
 11
-65.0
 21
-84.365025000000017
 31
0.0
  0
ARC
  5
6B7
  8
DETAIL
  6
CONTINUOUS
 62
     5
 10
-61.5
 20
-87.865025000000003
 30
0.0
 40
3.5
 50
180.0
 51
270.0
  0
ARC
  5
6B8
  8
DETAIL
  6
CONTINUOUS
 62
     5
 10
-62.0
 20
-97.164063999999996
 30
0.0
 40
3.0
 50
180.0
 51
270.0
  0
LINE
  5
6B9
  8
DETAIL
  6
CONTINUOUS
 62
     5
 10
-65.0
 20
-98.865025000000003
 30
0.0
 11
-65.0
 21
-95.365025000000003
 31
0.0
  0
ARC
  5
6BA
  8
DETAIL
  6
CONTINUOUS
 62
     5
 10
-61.5
 20
-98.865025000000003
 30
0.0
 40
3.5
 50
180.0
 51
270.0
  0
ARC
  5
6BB
  8
DETAIL
  6
CONTINUOUS
 62
     5
 10
-61.5
 20
-109.865025
 30
0.0
 40
3.5
 50
180.0
 51
270.0
  0
ARC
  5
6BC
  8
DETAIL
  6
CONTINUOUS
 62
     5
 10
-61.5
 20
-120.865025
 30
0.0
 40
3.5
 50
180.0
 51
270.0
  0
LINE
  5
6BD
  8
DETAIL
  6
CONTINUOUS
 62
     5
 10
-65.0
 20
-120.865025
 30
0.0
 11
-65.0
 21
-117.365025
 31
0.0
  0
ARC
  5
6BE
  8
DETAIL
  6
CONTINUOUS
 62
     5
 10
-62.0
 20
-119.1640639999999
 30
0.0
 40
3.0
 50
180.0
 51
270.0
  0
ARC
  5
6BF
  8
DETAIL
  6
CONTINUOUS
 62
     5
 10
-62.0
 20
-108.164064
 30
0.0
 40
3.0
 50
180.0
 51
270.0
  0
LINE
  5
6C0
  8
DETAIL
  6
CONTINUOUS
 62
     5
 10
-65.0
 20
-109.865025
 30
0.0
 11
-65.0
 21
-106.365025
 31
0.0
  0
LINE
  5
6C1
  8
DETAIL
  6
CONTINUOUS
 62
     5
 10
88.499999999999986
 20
-124.3650249999999
 30
0.0
 11
211.5
 21
-124.3650249999999
 31
0.0
  0
LINE
  5
6C2
  8
DETAIL
  6
CONTINUOUS
 62
     5
 10
88.0
 20
-122.1640639999999
 30
0.0
 11
212.0
 21
-122.1640639999999
 31
0.0
  0
LINE
  5
6C3
  8
DETAIL
  6
CONTINUOUS
 62
     5
 10
87.0
 20
-118.2310509999997
 30
0.0
 11
213.0
 21
-118.2310509999997
 31
0.0
  0
LINE
  5
6C4
  8
DETAIL
  6
CONTINUOUS
 62
     5
 10
88.499999999999986
 20
-113.365025
 30
0.0
 11
211.5
 21
-113.365025
 31
0.0
  0
LINE
  5
6C5
  8
DETAIL
  6
CONTINUOUS
 62
     5
 10
87.0
 20
-107.2310509999997
 30
0.0
 11
213.0
 21
-107.2310509999997
 31
0.0
  0
LINE
  5
6C6
  8
DETAIL
  6
CONTINUOUS
 62
     5
 10
88.0
 20
-111.164064
 30
0.0
 11
212.0
 21
-111.164064
 31
0.0
  0
LINE
  5
6C7
  8
DETAIL
  6
CONTINUOUS
 62
     5
 10
88.499999999999986
 20
-102.3650249999999
 30
0.0
 11
211.5
 21
-102.3650249999999
 31
0.0
  0
LINE
  5
6C8
  8
DETAIL
  6
CONTINUOUS
 62
     5
 10
88.0
 20
-100.1640639999999
 30
0.0
 11
212.0
 21
-100.1640639999999
 31
0.0
  0
LINE
  5
6C9
  8
DETAIL
  6
CONTINUOUS
 62
     5
 10
87.0
 20
-96.231050999999994
 30
0.0
 11
213.0
 21
-96.231050999999994
 31
0.0
  0
LINE
  5
6CA
  8
DETAIL
  6
CONTINUOUS
 62
     5
 10
88.499999999999986
 20
-91.365025000000003
 30
0.0
 11
211.5
 21
-91.365025000000003
 31
0.0
  0
LINE
  5
6CB
  8
DETAIL
  6
CONTINUOUS
 62
     5
 10
87.0
 20
-85.231050999999979
 30
0.0
 11
213.0
 21
-85.231050999999979
 31
0.0
  0
LINE
  5
6CC
  8
DETAIL
  6
CONTINUOUS
 62
     5
 10
88.0
 20
-89.164063999999968
 30
0.0
 11
212.0
 21
-89.164063999999968
 31
0.0
  0
LINE
  5
6CD
  8
DETAIL
  6
CONTINUOUS
 62
     5
 10
88.499999999999986
 20
-80.365025000000003
 30
0.0
 11
211.5
 21
-80.365025000000003
 31
0.0
  0
LINE
  5
6CE
  8
DETAIL
  6
CONTINUOUS
 62
     5
 10
87.0
 20
-74.231050999999979
 30
0.0
 11
213.0
 21
-74.231050999999979
 31
0.0
  0
LINE
  5
6CF
  8
DETAIL
  6
CONTINUOUS
 62
     5
 10
88.0
 20
-78.164063999999982
 30
0.0
 11
212.0
 21
-78.164063999999982
 31
0.0
  0
LINE
  5
6D0
  8
DETAIL
  6
CONTINUOUS
 62
     5
 10
88.499999999999986
 20
-58.365025000000003
 30
0.0
 11
211.5
 21
-58.365025000000003
 31
0.0
  0
LINE
  5
6D1
  8
DETAIL
  6
CONTINUOUS
 62
     5
 10
87.0
 20
-52.231051000000001
 30
0.0
 11
213.0
 21
-52.231051000000001
 31
0.0
  0
LINE
  5
6D2
  8
DETAIL
  6
CONTINUOUS
 62
     5
 10
88.0
 20
-56.164064000000003
 30
0.0
 11
212.0
 21
-56.164064000000003
 31
0.0
  0
LINE
  5
6D3
  8
DETAIL
  6
CONTINUOUS
 62
     5
 10
88.499999999999986
 20
-69.365025000000003
 30
0.0
 11
211.5
 21
-69.365025000000003
 31
0.0
  0
LINE
  5
6D4
  8
DETAIL
  6
CONTINUOUS
 62
     5
 10
87.0
 20
-63.231051000000001
 30
0.0
 11
213.0
 21
-63.231051000000001
 31
0.0
  0
LINE
  5
6D5
  8
DETAIL
  6
CONTINUOUS
 62
     5
 10
88.0
 20
-67.164063999999996
 30
0.0
 11
212.0
 21
-67.164063999999996
 31
0.0
  0
LINE
  5
6D6
  8
DETAIL
  6
CONTINUOUS
 62
     5
 10
0.0
 20
-124.3650249999999
 30
0.0
 11
61.5
 21
-124.3650249999999
 31
0.0
  0
LINE
  5
6D7
  8
DETAIL
  6
CONTINUOUS
 62
     5
 10
0.0
 20
-122.1640639999999
 30
0.0
 11
62.0
 21
-122.1640639999999
 31
0.0
  0
LINE
  5
6D8
  8
DETAIL
  6
CONTINUOUS
 62
     5
 10
0.0
 20
-118.2310509999997
 30
0.0
 11
63.0
 21
-118.2310509999997
 31
0.0
  0
LINE
  5
6D9
  8
DETAIL
  6
CONTINUOUS
 62
     5
 10
0.0
 20
-113.365025
 30
0.0
 11
61.5
 21
-113.365025
 31
0.0
  0
LINE
  5
6DA
  8
DETAIL
  6
CONTINUOUS
 62
     5
 10
0.0
 20
-107.2310509999997
 30
0.0
 11
63.0
 21
-107.2310509999997
 31
0.0
  0
LINE
  5
6DB
  8
DETAIL
  6
CONTINUOUS
 62
     5
 10
0.0
 20
-111.164064
 30
0.0
 11
62.0
 21
-111.164064
 31
0.0
  0
LINE
  5
6DC
  8
DETAIL
  6
CONTINUOUS
 62
     5
 10
0.0
 20
-102.3650249999999
 30
0.0
 11
61.5
 21
-102.3650249999999
 31
0.0
  0
LINE
  5
6DD
  8
DETAIL
  6
CONTINUOUS
 62
     5
 10
0.0
 20
-100.1640639999999
 30
0.0
 11
62.0
 21
-100.1640639999999
 31
0.0
  0
LINE
  5
6DE
  8
DETAIL
  6
CONTINUOUS
 62
     5
 10
0.0
 20
-96.231050999999994
 30
0.0
 11
63.0
 21
-96.231050999999994
 31
0.0
  0
LINE
  5
6DF
  8
DETAIL
  6
CONTINUOUS
 62
     5
 10
0.0
 20
-91.365025000000003
 30
0.0
 11
61.5
 21
-91.365025000000003
 31
0.0
  0
LINE
  5
6E0
  8
DETAIL
  6
CONTINUOUS
 62
     5
 10
0.0
 20
-85.231050999999979
 30
0.0
 11
63.0
 21
-85.231050999999979
 31
0.0
  0
LINE
  5
6E1
  8
DETAIL
  6
CONTINUOUS
 62
     5
 10
0.0
 20
-89.164063999999968
 30
0.0
 11
62.0
 21
-89.164063999999968
 31
0.0
  0
LINE
  5
6E2
  8
DETAIL
  6
CONTINUOUS
 62
     5
 10
0.0
 20
-80.365025000000003
 30
0.0
 11
61.5
 21
-80.365025000000003
 31
0.0
  0
LINE
  5
6E3
  8
DETAIL
  6
CONTINUOUS
 62
     5
 10
0.0
 20
-74.231050999999979
 30
0.0
 11
63.0
 21
-74.231050999999979
 31
0.0
  0
LINE
  5
6E4
  8
DETAIL
  6
CONTINUOUS
 62
     5
 10
0.0
 20
-78.164063999999982
 30
0.0
 11
62.0
 21
-78.164063999999982
 31
0.0
  0
LINE
  5
6E5
  8
DETAIL
  6
CONTINUOUS
 62
     5
 10
0.0
 20
-58.365025000000003
 30
0.0
 11
61.5
 21
-58.365025000000003
 31
0.0
  0
LINE
  5
6E6
  8
DETAIL
  6
CONTINUOUS
 62
     5
 10
0.0
 20
-52.231051000000001
 30
0.0
 11
63.0
 21
-52.231051000000001
 31
0.0
  0
LINE
  5
6E7
  8
DETAIL
  6
CONTINUOUS
 62
     5
 10
0.0
 20
-56.164064000000003
 30
0.0
 11
62.0
 21
-56.164064000000003
 31
0.0
  0
LINE
  5
6E8
  8
DETAIL
  6
CONTINUOUS
 62
     5
 10
0.0
 20
-69.365025000000003
 30
0.0
 11
61.5
 21
-69.365025000000003
 31
0.0
  0
LINE
  5
6E9
  8
DETAIL
  6
CONTINUOUS
 62
     5
 10
0.0
 20
-63.231051000000001
 30
0.0
 11
63.0
 21
-63.231051000000001
 31
0.0
  0
LINE
  5
6EA
  8
DETAIL
  6
CONTINUOUS
 62
     5
 10
0.0
 20
-67.164063999999996
 30
0.0
 11
62.0
 21
-67.164063999999996
 31
0.0
  0
ARC
  5
6EB
  8
DETAIL
  6
CONTINUOUS
 62
     5
 10
88.499999999999986
 20
-98.865025000000003
 30
0.0
 40
3.5
 50
180.0
 51
270.0
  0
LINE
  5
6EC
  8
DETAIL
  6
CONTINUOUS
 62
     5
 10
85.0
 20
-98.865025000000003
 30
0.0
 11
85.0
 21
-95.365025000000003
 31
0.0
  0
ARC
  5
6ED
  8
DETAIL
  6
CONTINUOUS
 62
     5
 10
88.0
 20
-97.164063999999996
 30
0.0
 40
3.0
 50
180.0
 51
270.0
  0
LINE
  5
6EE
  8
DETAIL
  6
CONTINUOUS
 62
     5
 10
85.0
 20
-87.865025000000003
 30
0.0
 11
85.0
 21
-84.365025000000017
 31
0.0
  0
ARC
  5
6EF
  8
DETAIL
  6
CONTINUOUS
 62
     5
 10
88.499999999999986
 20
-87.865025000000003
 30
0.0
 40
3.5
 50
180.0
 51
270.0
  0
ARC
  5
6F0
  8
DETAIL
  6
CONTINUOUS
 62
     5
 10
88.0
 20
-86.164063999999982
 30
0.0
 40
3.0
 50
180.0
 51
270.0
  0
LINE
  5
6F1
  8
DETAIL
  6
CONTINUOUS
 62
     5
 10
85.0
 20
-76.865025000000003
 30
0.0
 11
85.0
 21
-73.365025000000003
 31
0.0
  0
ARC
  5
6F2
  8
DETAIL
  6
CONTINUOUS
 62
     5
 10
88.499999999999986
 20
-76.865025000000003
 30
0.0
 40
3.5
 50
180.0
 51
270.0
  0
ARC
  5
6F3
  8
DETAIL
  6
CONTINUOUS
 62
     5
 10
88.0
 20
-75.164063999999982
 30
0.0
 40
3.0
 50
180.0
 51
270.0
  0
LINE
  5
6F4
  8
DETAIL
  6
CONTINUOUS
 62
     5
 10
85.0
 20
-54.865025000000003
 30
0.0
 11
85.0
 21
-51.365025000000003
 31
0.0
  0
ARC
  5
6F5
  8
DETAIL
  6
CONTINUOUS
 62
     5
 10
88.499999999999986
 20
-54.865025000000003
 30
0.0
 40
3.5
 50
180.0
 51
270.0
  0
ARC
  5
6F6
  8
DETAIL
  6
CONTINUOUS
 62
     5
 10
88.0
 20
-53.164064000000003
 30
0.0
 40
3.0
 50
180.0
 51
270.0
  0
LINE
  5
6F7
  8
DETAIL
  6
CONTINUOUS
 62
     5
 10
85.0
 20
-65.865025000000003
 30
0.0
 11
85.0
 21
-62.365025000000003
 31
0.0
  0
ARC
  5
6F8
  8
DETAIL
  6
CONTINUOUS
 62
     5
 10
88.499999999999986
 20
-65.865025000000003
 30
0.0
 40
3.5
 50
180.0
 51
270.0
  0
ARC
  5
6F9
  8
DETAIL
  6
CONTINUOUS
 62
     5
 10
88.0
 20
-64.164063999999996
 30
0.0
 40
3.0
 50
180.0
 51
270.0
  0
ARC
  5
6FA
  8
DETAIL
  6
CONTINUOUS
 62
     5
 10
61.5
 20
-98.865025000000003
 30
0.0
 40
3.5
 50
270.0
 51
0.0
  0
LINE
  5
6FB
  8
DETAIL
  6
CONTINUOUS
 62
     5
 10
65.0
 20
-98.865025000000003
 30
0.0
 11
65.0
 21
-95.365025000000003
 31
0.0
  0
ARC
  5
6FC
  8
DETAIL
  6
CONTINUOUS
 62
     5
 10
62.0
 20
-97.164063999999996
 30
0.0
 40
3.0
 50
270.0
 51
0.0
  0
ARC
  5
6FD
  8
DETAIL
  6
CONTINUOUS
 62
     5
 10
61.5
 20
-87.865025000000003
 30
0.0
 40
3.5
 50
270.0
 51
0.0
  0
LINE
  5
6FE
  8
DETAIL
  6
CONTINUOUS
 62
     5
 10
65.0
 20
-87.865025000000003
 30
0.0
 11
65.0
 21
-84.365025000000017
 31
0.0
  0
ARC
  5
6FF
  8
DETAIL
  6
CONTINUOUS
 62
     5
 10
62.0
 20
-86.164063999999982
 30
0.0
 40
3.0
 50
270.0
 51
0.0
  0
ARC
  5
700
  8
DETAIL
  6
CONTINUOUS
 62
     5
 10
61.5
 20
-76.865025000000003
 30
0.0
 40
3.5
 50
270.0
 51
0.0
  0
LINE
  5
701
  8
DETAIL
  6
CONTINUOUS
 62
     5
 10
65.0
 20
-76.865025000000003
 30
0.0
 11
65.0
 21
-73.365025000000003
 31
0.0
  0
ARC
  5
702
  8
DETAIL
  6
CONTINUOUS
 62
     5
 10
62.0
 20
-75.164063999999982
 30
0.0
 40
3.0
 50
270.0
 51
0.0
  0
ARC
  5
703
  8
DETAIL
  6
CONTINUOUS
 62
     5
 10
61.5
 20
-65.865025000000003
 30
0.0
 40
3.5
 50
270.0
 51
0.0
  0
LINE
  5
704
  8
DETAIL
  6
CONTINUOUS
 62
     5
 10
65.0
 20
-65.865025000000003
 30
0.0
 11
65.0
 21
-62.365025000000003
 31
0.0
  0
ARC
  5
705
  8
DETAIL
  6
CONTINUOUS
 62
     5
 10
62.0
 20
-64.164063999999996
 30
0.0
 40
3.0
 50
270.0
 51
0.0
  0
ARC
  5
706
  8
DETAIL
  6
CONTINUOUS
 62
     5
 10
61.5
 20
-54.865025000000003
 30
0.0
 40
3.5
 50
270.0
 51
0.0
  0
LINE
  5
707
  8
DETAIL
  6
CONTINUOUS
 62
     5
 10
65.0
 20
-54.865025000000003
 30
0.0
 11
65.0
 21
-51.365025000000003
 31
0.0
  0
ARC
  5
708
  8
DETAIL
  6
CONTINUOUS
 62
     5
 10
62.0
 20
-53.164064000000003
 30
0.0
 40
3.0
 50
270.0
 51
0.0
  0
ARC
  5
709
  8
DETAIL
  6
CONTINUOUS
 62
     5
 10
88.0
 20
-119.1640639999999
 30
0.0
 40
3.0
 50
180.0
 51
270.0
  0
ARC
  5
70A
  8
DETAIL
  6
CONTINUOUS
 62
     5
 10
88.499999999999986
 20
-120.865025
 30
0.0
 40
3.5
 50
180.0
 51
270.0
  0
LINE
  5
70B
  8
DETAIL
  6
CONTINUOUS
 62
     5
 10
85.0
 20
-120.865025
 30
0.0
 11
85.0
 21
-117.365025
 31
0.0
  0
ARC
  5
70C
  8
DETAIL
  6
CONTINUOUS
 62
     5
 10
88.499999999999986
 20
-109.865025
 30
0.0
 40
3.5
 50
180.0
 51
270.0
  0
ARC
  5
70D
  8
DETAIL
  6
CONTINUOUS
 62
     5
 10
62.0
 20
-119.1640639999999
 30
0.0
 40
3.0
 50
270.0
 51
0.0
  0
LINE
  5
70E
  8
DETAIL
  6
CONTINUOUS
 62
     5
 10
65.0
 20
-120.865025
 30
0.0
 11
65.0
 21
-117.365025
 31
0.0
  0
ARC
  5
70F
  8
DETAIL
  6
CONTINUOUS
 62
     5
 10
61.5
 20
-120.865025
 30
0.0
 40
3.5
 50
270.0
 51
0.0
  0
ARC
  5
710
  8
DETAIL
  6
CONTINUOUS
 62
     5
 10
61.5
 20
-109.865025
 30
0.0
 40
3.5
 50
270.0
 51
0.0
  0
LINE
  5
711
  8
DETAIL
  6
CONTINUOUS
 62
     5
 10
85.0
 20
-109.865025
 30
0.0
 11
85.0
 21
-106.365025
 31
0.0
  0
ARC
  5
712
  8
DETAIL
  6
CONTINUOUS
 62
     5
 10
88.0
 20
-108.164064
 30
0.0
 40
3.0
 50
180.0
 51
270.0
  0
LINE
  5
713
  8
DETAIL
  6
CONTINUOUS
 62
     5
 10
65.0
 20
-109.865025
 30
0.0
 11
65.0
 21
-106.365025
 31
0.0
  0
ARC
  5
714
  8
DETAIL
  6
CONTINUOUS
 62
     5
 10
62.0
 20
-108.164064
 30
0.0
 40
3.0
 50
270.0
 51
0.0
  0
ARC
  5
715
  8
DETAIL
  6
CONTINUOUS
 62
     5
 10
211.5
 20
-98.865025000000003
 30
0.0
 40
3.5
 50
270.0
 51
0.0
  0
LINE
  5
716
  8
DETAIL
  6
CONTINUOUS
 62
     5
 10
215.0
 20
-98.865025000000003
 30
0.0
 11
215.0
 21
-95.365025000000003
 31
0.0
  0
ARC
  5
717
  8
DETAIL
  6
CONTINUOUS
 62
     5
 10
212.0
 20
-97.164063999999996
 30
0.0
 40
3.0
 50
270.0
 51
0.0
  0
ARC
  5
718
  8
DETAIL
  6
CONTINUOUS
 62
     5
 10
211.5
 20
-87.865025000000003
 30
0.0
 40
3.5
 50
270.0
 51
0.0
  0
LINE
  5
719
  8
DETAIL
  6
CONTINUOUS
 62
     5
 10
215.0
 20
-87.865025000000003
 30
0.0
 11
215.0
 21
-84.365025000000017
 31
0.0
  0
ARC
  5
71A
  8
DETAIL
  6
CONTINUOUS
 62
     5
 10
212.0
 20
-86.164063999999982
 30
0.0
 40
3.0
 50
270.0
 51
0.0
  0
ARC
  5
71B
  8
DETAIL
  6
CONTINUOUS
 62
     5
 10
211.5
 20
-76.865025000000003
 30
0.0
 40
3.5
 50
270.0
 51
0.0
  0
LINE
  5
71C
  8
DETAIL
  6
CONTINUOUS
 62
     5
 10
215.0
 20
-76.865025000000003
 30
0.0
 11
215.0
 21
-73.365025000000003
 31
0.0
  0
ARC
  5
71D
  8
DETAIL
  6
CONTINUOUS
 62
     5
 10
212.0
 20
-75.164063999999982
 30
0.0
 40
3.0
 50
270.0
 51
0.0
  0
ARC
  5
71E
  8
DETAIL
  6
CONTINUOUS
 62
     5
 10
211.5
 20
-65.865025000000003
 30
0.0
 40
3.5
 50
270.0
 51
0.0
  0
LINE
  5
71F
  8
DETAIL
  6
CONTINUOUS
 62
     5
 10
215.0
 20
-65.865025000000003
 30
0.0
 11
215.0
 21
-62.365025000000003
 31
0.0
  0
ARC
  5
720
  8
DETAIL
  6
CONTINUOUS
 62
     5
 10
212.0
 20
-64.164063999999996
 30
0.0
 40
3.0
 50
270.0
 51
0.0
  0
ARC
  5
721
  8
DETAIL
  6
CONTINUOUS
 62
     5
 10
211.5
 20
-54.865025000000003
 30
0.0
 40
3.5
 50
270.0
 51
0.0
  0
LINE
  5
722
  8
DETAIL
  6
CONTINUOUS
 62
     5
 10
215.0
 20
-54.865025000000003
 30
0.0
 11
215.0
 21
-51.365025000000003
 31
0.0
  0
ARC
  5
723
  8
DETAIL
  6
CONTINUOUS
 62
     5
 10
212.0
 20
-53.164064000000003
 30
0.0
 40
3.0
 50
270.0
 51
0.0
  0
ARC
  5
724
  8
DETAIL
  6
CONTINUOUS
 62
     5
 10
212.0
 20
-119.1640639999999
 30
0.0
 40
3.0
 50
270.0
 51
0.0
  0
LINE
  5
725
  8
DETAIL
  6
CONTINUOUS
 62
     5
 10
215.0
 20
-120.865025
 30
0.0
 11
215.0
 21
-117.365025
 31
0.0
  0
ARC
  5
726
  8
DETAIL
  6
CONTINUOUS
 62
     5
 10
211.5
 20
-120.865025
 30
0.0
 40
3.5
 50
270.0
 51
0.0
  0
ARC
  5
727
  8
DETAIL
  6
CONTINUOUS
 62
     5
 10
211.5
 20
-109.865025
 30
0.0
 40
3.5
 50
270.0
 51
0.0
  0
LINE
  5
728
  8
DETAIL
  6
CONTINUOUS
 62
     5
 10
215.0
 20
-109.865025
 30
0.0
 11
215.0
 21
-106.365025
 31
0.0
  0
ARC
  5
729
  8
DETAIL
  6
CONTINUOUS
 62
     5
 10
212.0
 20
-108.164064
 30
0.0
 40
3.0
 50
270.0
 51
0.0
  0
LINE
  5
72A
  8
SIZE
  6
CONTINUOUS
 62
    30
 10
80.0
 20
95.513159999999985
 30
0.0
 11
80.0
 21
388.94017999999988
 31
0.0
  0
LINE
  5
72B
  8
SIZE
  6
CONTINUOUS
 62
    30
 10
-80.0
 20
95.513159999999985
 30
0.0
 11
-80.0
 21
388.94017999999988
 31
0.0
  0
LINE
  5
72C
  8
SIZE
  6
CONTINUOUS
 62
    30
 10
80.0
 20
368.94018
 30
0.0
 11
-80.0
 21
368.94018
 31
0.0
  0
CIRCLE
  5
72D
  8
SIZE
  6
CONTINUOUS
 62
    30
 10
80.0
 20
368.94018
 30
0.0
 40
6.0
  0
CIRCLE
  5
72E
  8
SIZE
  6
CONTINUOUS
 62
    30
 10
-80.0
 20
368.94018
 30
0.0
 40
6.0
  0
TEXT
  5
72F
  8
SIZE
  6
CONTINUOUS
 62
    30
 10
-68.571428571428555
 20
393.94018
 30
0.0
 40
64.0
  1
160
 41
0.9
 72
     1
 11
0.0
 21
393.94018
 31
0.0
  0
LINE
  5
730
  8
NOTE
  6
CONTINUOUS
 62
     4
 10
-95.558785
 20
45.0
 30
0.0
 11
-181.0590949999999
 21
134.34873400000001
 31
0.0
  0
LINE
  5
731
  8
NOTE
  6
CONTINUOUS
 62
     4
 10
-181.0590949999999
 20
134.34873400000001
 30
0.0
 11
30.578194
 21
45.0
 31
0.0
  0
LINE
  5
732
  8
NOTE
  6
CONTINUOUS
 62
     4
 10
-9.0432939999999995
 20
50.489781000000001
 30
0.0
 11
30.578194
 21
45.0
 31
0.0
  0
LINE
  5
733
  8
NOTE
  6
CONTINUOUS
 62
     4
 10
30.578194
 20
45.0
 30
0.0
 11
-0.99013
 21
69.565033999999983
 31
0.0
  0
LINE
  5
734
  8
NOTE
  6
CONTINUOUS
 62
     4
 10
-129.7513209999999
 20
65.757419999999996
 30
0.0
 11
-95.558785
 21
45.0
 31
0.0
  0
LINE
  5
735
  8
NOTE
  6
CONTINUOUS
 62
     4
 10
-95.558785
 20
45.0
 30
0.0
 11
-114.791679
 21
80.072720999999987
 31
0.0
  0
LINE
  5
736
  8
DETAIL
  6
CONTINOUS
 62
     5
 10
-276.49960199999992
 20
-562.53605000000005
 30
0.0
 11
278.0
 21
-562.53605000000005
 31
0.0
  0
LINE
  5
737
  8
DETAIL
  6
CONTINOUS
 62
     5
 10
0.0
 20
-470.0
 30
0.0
 11
274.66708499999999
 21
-470.0
 31
0.0
  0
LINE
  5
738
  8
DETAIL
  6
CONTINOUS
 62
     5
 10
0.0
 20
-553.0
 30
0.0
 11
274.66708499999999
 21
-553.0
 31
0.0
  0
LINE
  5
739
  8
DETAIL
  6
CONTINOUS
 62
     5
 10
0.0
 20
-553.0
 30
0.0
 11
-273.27989500000001
 21
-553.0
 31
0.0
  0
LINE
  5
73A
  8
DETAIL
  6
CONTINOUS
 62
     5
 10
0.0
 20
-470.0
 30
0.0
 11
-273.64077900000001
 21
-470.0
 31
0.0
  0
LINE
  5
73B
  8
DETAIL
  6
CONTINOUS
 62
     5
 10
-107.4999999999999
 20
-534.24780799999985
 30
0.0
 11
97.546494999999993
 21
-534.24780799999985
 31
0.0
  0
LINE
  5
73C
  8
DETAIL
  6
CONTINOUS
 62
     5
 10
-107.4999999999999
 20
-495.24780800000002
 30
0.0
 11
62.999999999999972
 21
-495.24780800000002
 31
0.0
  0
LINE
  5
73D
  8
DETAIL
  6
CONTINOUS
 62
     5
 10
-107.4999999999999
 20
-525.55063700000005
 30
0.0
 11
102.16139799999991
 21
-525.55063700000005
 31
0.0
  0
LINE
  5
73E
  8
DETAIL
  6
CONTINOUS
 62
     5
 10
-107.54038799999969
 20
-504.231607
 30
0.0
 11
102.20555999999991
 21
-504.231607
 31
0.0
  0
ARC
  5
73F
  8
DETAIL
  6
CONTINOUS
 62
     5
 10
-107.4999999999999
 20
-514.74780799999985
 30
0.0
 40
19.5
 50
90.0
 51
270.0
  0
ARC
  5
740
  8
DETAIL
  6
CONTINOUS
 62
     5
 10
-107.4999999999999
 20
-514.74780799999985
 30
0.0
 40
10.5
 50
90.0
 51
270.0
  0
LINE
  5
741
  8
DETAIL
  6
CONTINOUS
 62
     5
 10
-27.0
 20
-515.74780799999985
 30
0.0
 11
-43.0
 21
-515.74780799999985
 31
0.0
  0
LINE
  5
742
  8
DETAIL
  6
CONTINOUS
 62
     5
 10
-27.0
 20
-523.74780799999985
 30
0.0
 11
-43.0
 21
-523.74780799999985
 31
0.0
  0
ARC
  5
743
  8
DETAIL
  6
CONTINOUS
 62
     5
 10
-43.0
 20
-519.74780799999985
 30
0.0
 40
4.0
 50
90.0
 51
270.0
  0
LINE
  5
744
  8
DETAIL
  6
CONTINOUS
 62
     5
 10
8.0
 20
-515.74780799999985
 30
0.0
 11
-8.0
 21
-515.74780799999985
 31
0.0
  0
LINE
  5
745
  8
DETAIL
  6
CONTINOUS
 62
     5
 10
8.0
 20
-523.74780799999985
 30
0.0
 11
-8.0
 21
-523.74780799999985
 31
0.0
  0
ARC
  5
746
  8
DETAIL
  6
CONTINOUS
 62
     5
 10
8.0
 20
-519.74780799999985
 30
0.0
 40
4.0
 50
270.0
 51
90.0
  0
ARC
  5
747
  8
DETAIL
  6
CONTINOUS
 62
     5
 10
-8.0
 20
-519.74780799999985
 30
0.0
 40
4.0
 50
90.0
 51
270.0
  0
ARC
  5
748
  8
DETAIL
  6
CONTINOUS
 62
     5
 10
-27.0
 20
-519.74780799999985
 30
0.0
 40
4.0
 50
270.0
 51
90.0
  0
LINE
  5
749
  8
DETAIL
  6
CONTINOUS
 62
     5
 10
77.999999999999972
 20
-515.74780799999985
 30
0.0
 11
61.999999999999972
 21
-515.74780799999985
 31
0.0
  0
LINE
  5
74A
  8
DETAIL
  6
CONTINOUS
 62
     5
 10
62.999999999999972
 20
-495.24780800000002
 30
0.0
 11
98.144070999999997
 21
-495.24780800000002
 31
0.0
  0
LINE
  5
74B
  8
DETAIL
  6
CONTINOUS
 62
     5
 10
77.999999999999972
 20
-523.74780799999985
 30
0.0
 11
61.999999999999972
 21
-523.74780799999985
 31
0.0
  0
ARC
  5
74C
  8
DETAIL
  6
CONTINOUS
 62
     5
 10
61.999999999999972
 20
-519.74780799999985
 30
0.0
 40
4.0
 50
90.0
 51
270.0
  0
ARC
  5
74D
  8
DETAIL
  6
CONTINOUS
 62
     5
 10
43.0
 20
-519.74780799999985
 30
0.0
 40
4.0
 50
270.0
 51
90.0
  0
ARC
  5
74E
  8
DETAIL
  6
CONTINOUS
 62
     5
 10
27.0
 20
-519.74780799999985
 30
0.0
 40
4.0
 50
90.0
 51
270.0
  0
LINE
  5
74F
  8
DETAIL
  6
CONTINOUS
 62
     5
 10
43.0
 20
-515.74780799999985
 30
0.0
 11
27.0
 21
-515.74780799999985
 31
0.0
  0
LINE
  5
750
  8
DETAIL
  6
CONTINOUS
 62
     5
 10
43.0
 20
-523.74780799999985
 30
0.0
 11
27.0
 21
-523.74780799999985
 31
0.0
  0
ARC
  5
751
  8
DETAIL
  6
CONTINOUS
 62
     5
 10
33.0
 20
-514.74780799999985
 30
0.0
 40
70.0
 50
0.0
 51
13.922043999999991
  0
ARC
  5
752
  8
DETAIL
  6
CONTINOUS
 62
     5
 10
97.546494999999993
 20
-498.74780800000002
 30
0.0
 40
3.5
 50
13.922043999999991
 51
90.0
  0
ARC
  5
753
  8
DETAIL
  6
CONTINOUS
 62
     5
 10
97.546494999999993
 20
-530.74780799999996
 30
0.0
 40
3.5
 50
270.0
 51
346.07795600000009
  0
ARC
  5
754
  8
DETAIL
  6
CONTINOUS
 62
     5
 10
33.0
 20
-514.74780799999985
 30
0.0
 40
70.0
 50
346.07795600000009
 51
0.0
  0
ARC
  5
755
  8
DETAIL
  6
CONTINOUS
 62
     5
 10
77.999999999999972
 20
-519.74780799999985
 30
0.0
 40
4.0
 50
270.0
 51
90.0
  0
TEXT
  5
756
  8
ETC
  6
CONTINUOUS
 62
    61
 10
718.27481459036835
 20
415.75853638558368
 30
0.0
 40
64.0
  1
V-604KQ7-BL_2
 41
0.9
  0
TEXT
  5
757
  8
ETC
  6
CONTINUOUS
 62
    61
 10
714.0528465903684
 20
319.26770938558383
 30
0.0
 40
64.0
  1
換気扇
 41
0.9
  0
TEXT
  5
758
  8
ETC
  6
CONTINUOUS
 62
    61
 10
860.25561286264485
 20
232.20796682773599
 30
0.0
 40
50.0
  1
V-604KQ6-BL
 41
0.9
  0
LINE
  5
75A
  8
OUTLINE
  6
CONTINUOUS
 62
     3
 39
50.0
 10
-300.0
 20
0.0
 30
0.0
 11
300.0
 21
0.0
 31
0.0
  0
TEXT
  5
836
  8
ETC
  6
CONTINUOUS
 62
    61
 10
860.25561286264485
 20
154.2928393078686
 30
0.0
 40
50.0
  1
V-604KQ7-BL
 41
0.9
  0
ENDSEC
  0
EOF
