  0
SECTION
  2
HEADER
  9
$ACADVER
  1
AC1009
  9
$INSBASE
 10
0.0
 20
0.0
 30
0.0
  9
$EXTMIN
 10
-1485.2072820000001
 20
-926.16119399999991
 30
0.0
  9
$EXTMAX
 10
1358.8613504938601
 20
777.92650739920759
 30
50.0
  9
$LIMMIN
 10
-2970.0
 20
-2100.0
  9
$LIMMAX
 10
2970.0
 20
2100.0
  9
$ORTHOMODE
 70
     1
  9
$REGENMODE
 70
     0
  9
$FILLMODE
 70
     1
  9
$QTEXTMODE
 70
     0
  9
$MIRRTEXT
 70
     0
  9
$DRAGMODE
 70
     2
  9
$LTSCALE
 40
20.0
  9
$OSMODE
 70
    32
  9
$ATTMODE
 70
     1
  9
$TEXTSIZE
 40
64.0
  9
$TRACEWID
 40
0.05
  9
$TEXTSTYLE
  7
STANDARD
  9
$CLAYER
  8
ETC
  9
$CELTYPE
  6
CONTINUOUS
  9
$CECOLOR
 62
    30
  9
$DIMSCALE
 40
1.0
  9
$DIMASZ
 40
12.0
  9
$DIMEXO
 40
20.0
  9
$DIMDLI
 40
200.0
  9
$DIMRND
 40
0.0
  9
$DIMDLE
 40
0.0
  9
$DIMEXE
 40
20.0
  9
$DIMTP
 40
0.0
  9
$DIMTM
 40
0.0
  9
$DIMTXT
 40
64.0
  9
$DIMCEN
 40
0.09
  9
$DIMTSZ
 40
0.0
  9
$DIMTOL
 70
     0
  9
$DIMLIM
 70
     0
  9
$DIMTIH
 70
     0
  9
$DIMTOH
 70
     0
  9
$DIMSE1
 70
     0
  9
$DIMSE2
 70
     0
  9
$DIMTAD
 70
     1
  9
$DIMZIN
 70
     8
  9
$DIMBLK
  1
NONE
  9
$DIMASO
 70
     1
  9
$DIMSHO
 70
     0
  9
$DIMPOST
  1

  9
$DIMAPOST
  1

  9
$DIMALT
 70
     0
  9
$DIMALTD
 70
     2
  9
$DIMALTF
 40
25.399999999999999
  9
$DIMLFAC
 40
1.0
  9
$DIMTOFL
 70
     1
  9
$DIMTVP
 40
0.0
  9
$DIMTIX
 70
     1
  9
$DIMSOXD
 70
     0
  9
$DIMSAH
 70
     0
  9
$DIMBLK1
  1
ORIGIN
  9
$DIMBLK2
  1
ORIGIN
  9
$DIMSTYLE
  2
STANDARD
  9
$DIMCLRD
 70
   256
  9
$DIMCLRE
 70
   256
  9
$DIMCLRT
 70
   256
  9
$DIMTFAC
 40
1.0
  9
$DIMGAP
 40
25.0
  9
$LUNITS
 70
     2
  9
$LUPREC
 70
     4
  9
$SKETCHINC
 40
0.1
  9
$FILLETRAD
 40
4.0
  9
$AUNITS
 70
     1
  9
$AUPREC
 70
     3
  9
$MENU
  1
ACAD
  9
$ELEVATION
 40
0.0
  9
$PELEVATION
 40
0.0
  9
$THICKNESS
 40
50.0
  9
$LIMCHECK
 70
     0
  9
$BLIPMODE
 70
     0
  9
$CHAMFERA
 40
0.0
  9
$CHAMFERB
 40
0.0
  9
$SKPOLY
 70
     0
  9
$TDCREATE
 40
2453095.5609012851
  9
$TDUPDATE
 40
2454743.658000845
  9
$TDINDWG
 40
0.1242203009
  9
$TDUSRTIMER
 40
0.1242197685
  9
$USRTIMER
 70
     1
  9
$ANGBASE
 50
0.0
  9
$ANGDIR
 70
     0
  9
$PDMODE
 70
     3
  9
$PDSIZE
 40
-2.0
  9
$PLINEWID
 40
0.0
  9
$COORDS
 70
     1
  9
$SPLFRAME
 70
     0
  9
$SPLINETYPE
 70
     6
  9
$SPLINESEGS
 70
     8
  9
$ATTDIA
 70
     0
  9
$ATTREQ
 70
     1
  9
$HANDLING
 70
     1
  9
$HANDSEED
  5
A32
  9
$SURFTAB1
 70
     6
  9
$SURFTAB2
 70
     6
  9
$SURFTYPE
 70
     6
  9
$SURFU
 70
     6
  9
$SURFV
 70
     6
  9
$UCSNAME
  2

  9
$UCSORG
 10
0.0
 20
0.0
 30
0.0
  9
$UCSXDIR
 10
1.0
 20
0.0
 30
0.0
  9
$UCSYDIR
 10
0.0
 20
1.0
 30
0.0
  9
$PUCSNAME
  2

  9
$PUCSORG
 10
0.0
 20
0.0
 30
0.0
  9
$PUCSXDIR
 10
1.0
 20
0.0
 30
0.0
  9
$PUCSYDIR
 10
0.0
 20
1.0
 30
0.0
  9
$USERI1
 70
     0
  9
$USERI2
 70
     0
  9
$USERI3
 70
     0
  9
$USERI4
 70
     0
  9
$USERI5
 70
     0
  9
$USERR1
 40
20.0
  9
$USERR2
 40
0.0
  9
$USERR3
 40
0.0
  9
$USERR4
 40
0.0
  9
$USERR5
 40
0.0
  9
$WORLDVIEW
 70
     1
  9
$SHADEDGE
 70
     3
  9
$SHADEDIF
 70
    70
  9
$TILEMODE
 70
     1
  9
$MAXACTVP
 70
    48
  9
$PLIMCHECK
 70
     0
  9
$PEXTMIN
 10
-1.0000000000000000E+020
 20
-1.0000000000000000E+020
 30
-1.0000000000000000E+020
  9
$PEXTMAX
 10
1.0000000000000000E+020
 20
1.0000000000000000E+020
 30
1.0000000000000000E+020
  9
$PLIMMIN
 10
0.0
 20
0.0
  9
$PLIMMAX
 10
12.0
 20
9.0
  9
$UNITMODE
 70
     0
  9
$VISRETAIN
 70
     0
  9
$PLINEGEN
 70
     0
  9
$PSLTSCALE
 70
     0
  0
ENDSEC
  0
SECTION
  2
TABLES
  0
TABLE
  2
VPORT
 70
     1
  0
VPORT
  2
*ACTIVE
 70
     0
 10
0.0
 20
0.0
 11
1.0
 21
1.0
 12
468.7189988633645
 22
-136.13112092095301
 13
0.0
 23
0.0
 14
1.0
 24
1.0
 15
0.0
 25
0.0
 16
0.0
 26
0.0
 36
1.0
 17
0.0
 27
0.0
 37
0.0
 40
2504.932755643887
 41
1.812051649928264
 42
50.0
 43
0.0
 44
0.0
 50
0.0
 51
0.0
 71
     0
 72
  1000
 73
     1
 74
     0
 75
     0
 76
     0
 77
     0
 78
     0
  0
ENDTAB
  0
TABLE
  2
LTYPE
 70
     6
  0
LTYPE
  2
CONTINUOUS
 70
     0
  3
実線
 72
    65
 73
     0
 40
0.0
  0
LTYPE
  2
PHANTOM
 70
     0
  3
Phantom ______  __  __  ______  __  __  ______
 72
    65
 73
     6
 40
2.5
 49
1.25
 49
-0.25
 49
0.25
 49
-0.25
 49
0.25
 49
-0.25
  0
LTYPE
  2
DASHDOT
 70
     0
  3
____ _ ____ _ ____ _ ____ _ ____ _ ____ _ ____
 72
    65
 73
     4
 40
5.5
 49
4.0
 49
-0.6
 49
0.3
 49
-0.6
  0
LTYPE
  2
DASHED
 70
     0
  3
-- -- -- -- -- -- -- -- -- -- -- -- -- -- --
 72
    65
 73
     2
 40
0.75
 49
0.5
 49
-0.25
  0
LTYPE
  2
CONTINOUS
 70
     0
  3
Solid line
 72
    65
 73
     0
 40
0.0
  0
ENDTAB
  0
TABLE
  2
LAYER
 70
    12
  0
LAYER
  2
0
 70
     0
 62
     7
  6
CONTINUOUS
  0
LAYER
  2
SIZE
 70
     0
 62
    30
  6
CONTINUOUS
  0
LAYER
  2
DETAIL
 70
     0
 62
     5
  6
CONTINUOUS
  0
LAYER
  2
OUTLINE
 70
     0
 62
     3
  6
CONTINUOUS
  0
LAYER
  2
BASIS
 70
     0
 62
     6
  6
DASHDOT
  0
LAYER
  2
ARRANGE
 70
     0
 62
     1
  6
CONTINUOUS
  0
LAYER
  2
DEFPOINTS
 70
     0
 62
     7
  6
CONTINUOUS
  0
LAYER
  2
ETC
 70
     0
 62
    61
  6
CONTINUOUS
  0
LAYER
  2
FIX
 70
     0
 62
    11
  6
CONTINUOUS
  0
LAYER
  2
NOTE
 70
     0
 62
     4
  6
CONTINUOUS
  0
LAYER
  2
SERVICESPACE
 70
     0
 62
     2
  6
DASHDOT
  0
LAYER
  2
SYMBOLLINE
 70
     0
 62
    15
  6
CONTINUOUS
  0
ENDTAB
  0
TABLE
  2
STYLE
 70
     3
  0
STYLE
  2
STANDARD
 70
     0
 40
64.0
 41
0.9
 50
0.0
 71
     0
 42
64.0
  3
SIMPLEX.shx
  4
BIGFONT.shx
  0
STYLE
  2
ANNOTATIVE
 70
     0
 40
0.0
 41
1.0
 50
0.0
 71
     0
 42
0.2
  3
txt
  4

  0
STYLE
  2

 70
     1
 40
0.0
 41
1.0
 50
0.0
 71
     0
 42
64.0
  3
ltypeshp.shx
  4

  0
ENDTAB
  0
TABLE
  2
VIEW
 70
     1
  0
VIEW
  2
ALL
 70
     0
 40
4282.6198079999967
 10
0.0
 20
41.309903999999989
 41
5940.0
 11
0.0
 21
0.0
 31
1.0
 12
0.0
 22
0.0
 32
0.0
 42
50.0
 43
0.0
 44
0.0
 50
0.0
 71
     0
  0
ENDTAB
  0
TABLE
  2
UCS
 70
     0
  0
ENDTAB
  0
TABLE
  2
APPID
 70
     5
  0
APPID
  2
ACAD
 70
     0
  0
APPID
  2
ACADANNOTATIVE
 70
     0
  0
APPID
  2
ACAD_MLEADERVER
 70
     0
  0
APPID
  2
AUTOCAD_POSTSCRIPT_FIGURE
 70
     0
  0
APPID
  2
ACAD_EXEMPT_FROM_CAD_STANDARDS
 70
     0
  0
ENDTAB
  0
TABLE
  2
DIMSTYLE
 70
     2
  0
DIMSTYLE
  2
STANDARD
 70
     0
  3

  4

  5

  6

  7

 40
1.0
 41
0.18
 42
0.0625
 43
0.38
 44
0.18
 45
0.0
 46
0.0
 47
0.0
 48
0.0
140
0.18
141
0.09
142
0.0
143
25.399999999999999
144
1.0
145
0.0
146
1.0
147
0.09
 71
     0
 72
     0
 73
     1
 74
     1
 75
     0
 76
     0
 77
     0
 78
     0
170
     0
171
     2
172
     0
173
     0
174
     0
175
     0
176
     7
177
     7
178
     7
  0
DIMSTYLE
  2
ANNOTATIVE
 70
     0
  3

  4

  5

  6

  7

 40
1.0
 41
0.18
 42
0.0625
 43
0.38
 44
0.18
 45
0.0
 46
0.0
 47
0.0
 48
0.0
140
0.18
141
0.09
142
0.0
143
25.399999999999999
144
1.0
145
0.0
146
1.0
147
0.09
 71
     0
 72
     0
 73
     1
 74
     1
 75
     0
 76
     0
 77
     0
 78
     0
170
     0
171
     2
172
     0
173
     0
174
     0
175
     0
176
     0
177
     0
178
     0
  0
ENDTAB
  0
ENDSEC
  0
SECTION
  2
BLOCKS
  0
BLOCK
  8
0
  2
$MODEL_SPACE
 70
     0
 10
0.0
 20
0.0
 30
0.0
  3
$MODEL_SPACE
  1

  0
ENDBLK
  5
9D0
  8
0
  0
BLOCK
 67
     1
  8
0
  2
$PAPER_SPACE
 70
     0
 10
0.0
 20
0.0
 30
0.0
  3
$PAPER_SPACE
  1

  0
ENDBLK
  5
9CC
 67
     1
  8
0
  0
BLOCK
  8
0
  2
DOT1
 70
     0
 10
0.0
 20
0.0
 30
0.0
  3
DOT1
  1

  0
CIRCLE
  5
7CB
  8
SIZE
  6
CONTINUOUS
 62
     7
 10
0.0
 20
0.0
 30
0.0
 40
3.0
  0
ENDBLK
  5
7CC
  8
0
  0
BLOCK
  8
0
  2
_ORIGIN
 70
     0
 10
0.0
 20
0.0
 30
0.0
  3
_ORIGIN
  1

  0
CIRCLE
  5
7CF
  8
0
  6
CONTINUOUS
 62
     7
 10
0.0
 20
0.0
 30
0.0
 40
0.5
  0
LINE
  5
7D0
  8
0
  6
CONTINUOUS
 62
     7
 10
0.0
 20
0.0
 30
0.0
 11
-1.0
 21
0.0
 31
0.0
  0
ENDBLK
  5
7D1
  8
0
  0
BLOCK
  8
0
 62
    30
  2
_NONE
 70
     0
 10
0.0
 20
0.0
 30
0.0
  3
_NONE
  1

  0
ENDBLK
  5
7D4
  8
0
 62
    30
  0
BLOCK
  8
0
 62
    30
  2
_OPEN30
 70
     0
 10
0.0
 20
0.0
 30
0.0
  3
_OPEN30
  1

  0
LINE
  5
7D7
  8
0
  6
BYBLOCK
 62
     0
 10
-1.0
 20
0.26794919
 30
0.0
 11
0.0
 21
0.0
 31
0.0
  0
LINE
  5
7D8
  8
0
  6
BYBLOCK
 62
     0
 10
0.0
 20
0.0
 30
0.0
 11
-1.0
 21
-0.26794919
 31
0.0
  0
LINE
  5
7D9
  8
0
  6
BYBLOCK
 62
     0
 10
0.0
 20
0.0
 30
0.0
 11
-1.0
 21
0.0
 31
0.0
  0
ENDBLK
  5
7DA
  8
0
 62
    30
  0
BLOCK
  8
0
 62
    30
  2
*D6
 70
     1
 10
0.0
 20
0.0
 30
0.0
  3
*D6
  1

  0
LINE
  5
7DD
  8
SIZE
  6
CONTINUOUS
 10
-208.0
 20
-240.0
 30
0.0
 11
-208.0
 21
-800.41605512823855
 31
0.0
  0
LINE
  5
7DE
  8
SIZE
  6
CONTINUOUS
 10
-0.0000000000000012
 20
-620.0
 30
0.0
 11
-0.0000000000000123
 21
-800.41605512823855
 31
0.0
  0
LINE
  5
7DF
  8
SIZE
  6
CONTINUOUS
 10
-208.0
 20
-780.41605512823855
 30
0.0
 11
-0.000000000000011
 21
-780.41605512823855
 31
0.0
  0
TEXT
  5
7E0
  8
SIZE
  6
CONTINUOUS
 10
-178.05714285714279
 20
-755.41605512823855
 30
0.0
 40
64.0
  1
208
 41
0.9
  0
POINT
  5
7E1
  8
DEFPOINTS
  6
CONTINUOUS
 62
     0
 10
-208.0
 20
-220.0
 30
0.0
  0
POINT
  5
7E2
  8
DEFPOINTS
  6
CONTINUOUS
 62
     0
 10
0.0
 20
-600.0
 30
0.0
  0
POINT
  5
7E3
  8
DEFPOINTS
  6
CONTINUOUS
 62
     0
 10
-0.000000000000011
 20
-780.41605512823855
 30
0.0
  0
ENDBLK
  5
7E4
  8
0
 62
    30
  0
ENDSEC
  0
SECTION
  2
ENTITIES
  0
LINE
  5
7E5
  8
NOTE
  6
CONTINUOUS
 62
     4
 10
-141.6844889999999
 20
-389.116534
 30
0.0
 11
-208.0
 21
-200.0
 31
0.0
  0
LINE
  5
7E6
  8
SIZE
  6
CONTINUOUS
 62
    30
 10
20.0
 20
-600.0
 30
0.0
 11
752.35662699999989
 21
-600.0
 31
0.0
  0
LINE
  5
7E7
  8
SIZE
  6
CONTINUOUS
 62
    30
 10
20.0
 20
-200.0
 30
0.0
 11
752.35662699999989
 21
-200.0
 31
0.0
  0
LINE
  5
7E8
  8
SIZE
  6
CONTINUOUS
 62
    30
 10
732.356627
 20
-588.0
 30
0.0
 11
732.356627
 21
-212.0
 31
0.0
  0
TEXT
  5
7E9
  8
SIZE
  6
CONTINUOUS
 62
    30
 10
709.65642000000003
 20
-470.05714285714282
 30
0.0
 40
64.0
  1
400
 50
90.0
 41
0.9
 72
     1
 11
709.65642000000003
 21
-396.0
 31
0.0
  0
CIRCLE
  5
7EA
  8
SIZE
  6
CONTINUOUS
 62
    30
 10
732.356627
 20
-600.0
 30
0.0
 40
6.0
  0
LINE
  5
7EB
  8
SIZE
  6
CONTINUOUS
 62
    30
 10
732.356627
 20
-600.0
 30
0.0
 11
732.356627
 21
-588.0
 31
0.0
  0
CIRCLE
  5
7EC
  8
SIZE
  6
CONTINUOUS
 62
    30
 10
732.356627
 20
-200.0
 30
0.0
 40
6.0
  0
LINE
  5
7ED
  8
SIZE
  6
CONTINUOUS
 62
    30
 10
732.356627
 20
-200.0
 30
0.0
 11
732.356627
 21
-212.0
 31
0.0
  0
LINE
  5
7EE
  8
NOTE
  6
CONTINUOUS
 62
     4
 10
-185.6542252512925
 20
-229.13893380902749
 30
0.0
 11
-208.0
 21
-200.0
 31
0.0
  0
LINE
  5
7EF
  8
NOTE
  6
CONTINUOUS
 62
     4
 10
-208.0
 20
-200.0
 30
0.0
 11
-205.6010763425756
 21
-234.30830895113721
 31
0.0
  0
LINE
  5
7F0
  8
NOTE
  6
CONTINUOUS
 62
     4
 10
-141.6844889999999
 20
-389.116534
 30
0.0
 11
-26.591609999999999
 21
-389.116534
 31
0.0
  0
TEXT
  5
7F1
  8
NOTE
  6
CONTINUOUS
 62
     4
 10
-121.551435
 20
-364.81146799999988
 30
0.0
 40
64.0
  1
EL
 41
0.9
  0
LINE
  5
7F2
  8
DETAIL
  6
CONTINOUS
 62
     5
 10
-480.0
 20
0.0
 30
0.0
 11
-320.0
 21
0.0
 31
0.0
  0
LINE
  5
7F3
  8
DETAIL
  6
CONTINOUS
 62
     5
 10
-464.35512499999987
 20
-200.0
 30
0.0
 11
0.0
 21
-200.0
 31
0.0
  0
LINE
  5
7F4
  8
DETAIL
  6
CONTINOUS
 62
     5
 10
0.0
 20
-600.0
 30
0.0
 11
-372.95429100000001
 21
-600.0
 31
0.0
  0
LINE
  5
7F5
  8
DETAIL
  6
CONTINOUS
 62
     5
 10
0.0
 20
-600.0
 30
0.0
 11
0.0
 21
-200.0
 31
0.0
  0
ARC
  5
7F6
  8
DETAIL
  6
CONTINOUS
 62
     5
 10
-384.55407699999989
 20
51.0
 30
0.0
 40
650.0
 50
248.35695200000001
 51
271.02254499999992
  0
LINE
  5
7F7
  8
DETAIL
  6
CONTINOUS
 62
     5
 10
-646.21892800000001
 20
-459.31670100000002
 30
0.0
 11
-480.203778
 21
-211.41966899999991
 31
0.0
  0
LINE
  5
7F8
  8
DETAIL
  6
CONTINOUS
 62
     5
 10
-633.84268799999995
 20
-542.44387500000005
 30
0.0
 11
-650.0
 21
-482.14396499999998
 31
0.0
  0
ARC
  5
7F9
  8
DETAIL
  6
CONTINOUS
 62
     5
 10
-456.93892699999998
 20
-227.0
 30
0.0
 40
28.0
 50
105.358886
 51
146.19001799999981
  0
ARC
  5
7FA
  8
DETAIL
  6
CONTINOUS
 62
     5
 10
-622.95407699999976
 20
-474.89703200000002
 30
0.0
 40
28.0
 50
146.19001799999981
 51
195.0
  0
ARC
  5
7FB
  8
DETAIL
  6
CONTINOUS
 62
     5
 10
-618.3878739999999
 20
-538.30277000000001
 30
0.0
 40
16.0
 50
195.0
 51
248.35695200000001
  0
LINE
  5
7FC
  8
DETAIL
  6
CONTINOUS
 62
     5
 10
-370.0
 20
-600.0
 30
0.0
 11
-370.0
 21
-200.0
 31
0.0
  0
LINE
  5
7FD
  8
NOTE
  6
CONTINUOUS
 62
     4
 10
-230.7193313252763
 20
-200.0
 30
0.0
 11
-185.6542252512925
 21
-200.0
 31
0.0
  0
LINE
  5
7FE
  8
SIZE
  6
CONTINUOUS
 62
    30
 10
-650.0
 20
-511.91519
 30
0.0
 11
-650.0
 21
-926.16119399999991
 31
0.0
  0
LINE
  5
7FF
  8
SIZE
  6
CONTINUOUS
 62
    30
 10
0.0
 20
-620.0
 30
0.0
 11
0.0
 21
-926.16119399999991
 31
0.0
  0
LINE
  5
800
  8
SIZE
  6
CONTINUOUS
 62
    30
 10
-638.0
 20
-906.16119399999968
 30
0.0
 11
-12.0
 21
-906.16119399999968
 31
0.0
  0
TEXT
  5
801
  8
SIZE
  6
CONTINUOUS
 62
    30
 10
-399.05714285714282
 20
-881.16119399999968
 30
0.0
 40
64.0
  1
650
 41
0.9
 72
     1
 11
-325.0
 21
-881.16119399999968
 31
0.0
  0
CIRCLE
  5
802
  8
SIZE
  6
CONTINUOUS
 62
    30
 10
-650.0
 20
-906.16119399999968
 30
0.0
 40
6.0
  0
LINE
  5
803
  8
SIZE
  6
CONTINUOUS
 62
    30
 10
-650.0
 20
-906.16119399999968
 30
0.0
 11
-638.0
 21
-906.16119399999968
 31
0.0
  0
CIRCLE
  5
804
  8
SIZE
  6
CONTINUOUS
 62
    30
 10
0.0
 20
-906.16119399999968
 30
0.0
 40
6.0
  0
LINE
  5
805
  8
SIZE
  6
CONTINUOUS
 62
    30
 10
0.0
 20
-906.16119399999968
 30
0.0
 11
-12.0
 21
-906.16119399999968
 31
0.0
  0
LINE
  5
806
  8
NOTE
  6
CONTINUOUS
 62
     4
 10
0.0
 20
-515.0
 30
0.0
 11
0.0
 21
-475.0
 31
0.0
  0
LINE
  5
807
  8
NOTE
  6
CONTINUOUS
 62
     4
 10
-20.0
 20
-495.0
 30
0.0
 11
20.0
 21
-495.0
 31
0.0
  0
ARC
  5
808
  8
OUTLINE
  6
CONTINOUS
 62
     3
 10
-618.3878739999999
 20
-538.30277000000001
 30
0.0
 40
16.0
 50
195.0
 51
248.35695200000001
  0
ARC
  5
809
  8
OUTLINE
  6
CONTINOUS
 62
     3
 10
-622.95407699999976
 20
-474.89703200000002
 30
0.0
 40
28.0
 50
146.19001799999981
 51
195.0
  0
ARC
  5
80A
  8
OUTLINE
  6
CONTINOUS
 62
     3
 10
-456.93892699999998
 20
-227.0
 30
0.0
 40
28.0
 50
105.358886
 51
146.19001799999981
  0
LINE
  5
80B
  8
OUTLINE
  6
CONTINOUS
 62
     3
 10
-633.84268799999995
 20
-542.44387500000005
 30
0.0
 11
-650.0
 21
-482.14396499999998
 31
0.0
  0
LINE
  5
80C
  8
OUTLINE
  6
CONTINOUS
 62
     3
 10
-646.21892800000001
 20
-459.31670100000002
 30
0.0
 11
-480.203778
 21
-211.41966899999991
 31
0.0
  0
ARC
  5
80D
  8
OUTLINE
  6
CONTINOUS
 62
     3
 10
-384.55407699999989
 20
51.0
 30
0.0
 40
650.0
 50
248.35695200000001
 51
271.02254499999992
  0
LINE
  5
80E
  8
OUTLINE
  6
CONTINOUS
 62
     3
 10
0.0
 20
-600.0
 30
0.0
 11
0.0
 21
-200.0
 31
0.0
  0
LINE
  5
80F
  8
OUTLINE
  6
CONTINOUS
 62
     3
 10
0.0
 20
-600.0
 30
0.0
 11
-372.95429100000001
 21
-600.0
 31
0.0
  0
LINE
  5
810
  8
OUTLINE
  6
CONTINOUS
 62
     3
 10
-464.35512499999987
 20
-200.0
 30
0.0
 11
0.0
 21
-200.0
 31
0.0
  0
LINE
  5
811
  8
NOTE
  6
CONTINUOUS
 62
     4
 10
0.0
 20
-280.0
 30
0.0
 11
0.0
 21
-240.0
 31
0.0
  0
LINE
  5
812
  8
NOTE
  6
CONTINUOUS
 62
     4
 10
-20.0
 20
-260.0
 30
0.0
 11
20.0
 21
-260.0
 31
0.0
  0
CIRCLE
  5
813
  8
FIX
  6
CONTINUOUS
 62
    11
 10
0.0
 20
-260.0
 30
0.0
 40
4.0
  0
CIRCLE
  5
814
  8
FIX
  6
CONTINUOUS
 62
    11
 10
0.0
 20
-495.0
 30
0.0
 40
4.0
  0
TEXT
  5
815
  8
NOTE
  6
CONTINUOUS
 62
     4
 10
67.211730000000003
 20
-697.59203200000002
 30
0.0
 40
64.0
  1
4-φ8
 41
0.9
  0
LINE
  5
816
  8
NOTE
  6
CONTINUOUS
 62
     4
 10
310.32718199999982
 20
-729.25006599999983
 30
0.0
 11
56.525725000000001
 21
-729.25006599999983
 31
0.0
  0
LINE
  5
817
  8
DETAIL
  6
CONTINOUS
 62
     5
 10
-480.0
 20
-185.0
 30
0.0
 11
-440.0
 21
-185.0
 31
0.0
  0
LINE
  5
818
  8
DETAIL
  6
CONTINOUS
 62
     5
 10
-270.0
 20
-185.0
 30
0.0
 11
-270.0
 21
-10.0
 31
0.0
  0
LINE
  5
819
  8
BASIS
  6
DASHDOT
 62
     6
 10
-365.0
 20
-213.74200499999981
 30
0.0
 11
-365.0
 21
60.984850000000002
 31
0.0
  0
LINE
  5
81A
  8
DETAIL
  6
CONTINOUS
 62
     5
 10
-480.0
 20
-185.0
 30
0.0
 11
-480.0
 21
0.0
 31
0.0
  0
LINE
  5
81B
  8
DETAIL
  6
PHANTOM
 62
     5
 10
-439.0
 20
0.0
 30
0.0
 11
-439.0
 21
45.0
 31
0.0
  0
LINE
  5
81C
  8
DETAIL
  6
PHANTOM
 62
     5
 10
-291.0
 20
45.0
 30
0.0
 11
-439.0
 21
45.0
 31
0.0
  0
LINE
  5
81D
  8
DETAIL
  6
PHANTOM
 62
     5
 10
-291.0
 20
0.0
 30
0.0
 11
-291.0
 21
45.0
 31
0.0
  0
LINE
  5
81E
  8
DETAIL
  6
CONTINOUS
 62
     5
 10
-320.0
 20
-10.0
 30
0.0
 11
-270.0
 21
-10.0
 31
0.0
  0
LINE
  5
81F
  8
DETAIL
  6
CONTINOUS
 62
     5
 10
-450.0
 20
-185.0
 30
0.0
 11
-450.0
 21
0.0
 31
0.0
  0
LINE
  5
820
  8
DETAIL
  6
CONTINUOUS
 62
     5
 10
-440.0
 20
-185.0
 30
0.0
 11
-440.0
 21
-200.0
 31
0.0
  0
LINE
  5
821
  8
DETAIL
  6
CONTINOUS
 62
     5
 10
-320.0
 20
-200.0
 30
0.0
 11
-320.0
 21
0.0
 31
0.0
  0
LINE
  5
822
  8
NOTE
  6
CONTINUOUS
 62
     4
 10
-255.0
 20
-220.0
 30
0.0
 11
-255.0
 21
-180.0
 31
0.0
  0
LINE
  5
823
  8
NOTE
  6
CONTINUOUS
 62
     4
 10
-235.0
 20
-200.0
 30
0.0
 11
-275.0
 21
-200.0
 31
0.0
  0
CIRCLE
  5
824
  8
FIX
  6
CONTINUOUS
 62
    11
 10
-255.0
 20
-200.0
 30
0.0
 40
12.5
  0
LINE
  5
825
  8
OUTLINE
  6
CONTINOUS
 62
     3
 10
-450.0
 20
-185.0
 30
0.0
 11
-450.0
 21
0.0
 31
0.0
  0
LINE
  5
826
  8
OUTLINE
  6
CONTINOUS
 62
     3
 10
-480.0
 20
-185.0
 30
0.0
 11
-480.0
 21
0.0
 31
0.0
  0
LINE
  5
827
  8
OUTLINE
  6
CONTINOUS
 62
     3
 10
-480.0
 20
-185.0
 30
0.0
 11
-440.0
 21
-185.0
 31
0.0
  0
LINE
  5
828
  8
OUTLINE
  6
CONTINUOUS
 62
     3
 10
-440.0
 20
-185.0
 30
0.0
 11
-440.0
 21
-200.0
 31
0.0
  0
LINE
  5
829
  8
OUTLINE
  6
CONTINOUS
 62
     3
 10
-320.0
 20
-200.0
 30
0.0
 11
-320.0
 21
0.0
 31
0.0
  0
LINE
  5
82A
  8
SIZE
  6
CONTINUOUS
 62
    30
 10
20.0
 20
-600.0
 30
0.0
 11
629.97719400000017
 21
-600.0
 31
0.0
  0
LINE
  5
82B
  8
SIZE
  6
CONTINUOUS
 62
    30
 10
40.0
 20
-260.0
 30
0.0
 11
629.97719400000017
 21
-260.0
 31
0.0
  0
LINE
  5
82C
  8
SIZE
  6
CONTINUOUS
 62
    30
 10
609.97719400000005
 20
-588.0
 30
0.0
 11
609.97719400000005
 21
-272.0
 31
0.0
  0
TEXT
  5
82D
  8
SIZE
  6
CONTINUOUS
 62
    30
 10
584.97719400000005
 20
-504.05714285714282
 30
0.0
 40
64.0
  1
340
 50
90.0
 41
0.9
 72
     1
 11
584.97719400000005
 21
-430.0
 31
0.0
  0
CIRCLE
  5
82E
  8
SIZE
  6
CONTINUOUS
 62
    30
 10
609.97719400000005
 20
-600.0
 30
0.0
 40
6.0
  0
LINE
  5
82F
  8
SIZE
  6
CONTINUOUS
 62
    30
 10
609.97719400000005
 20
-600.0
 30
0.0
 11
609.97719400000005
 21
-588.0
 31
0.0
  0
CIRCLE
  5
830
  8
SIZE
  6
CONTINUOUS
 62
    30
 10
609.97719400000005
 20
-260.0
 30
0.0
 40
6.0
  0
LINE
  5
831
  8
SIZE
  6
CONTINUOUS
 62
    30
 10
609.97719400000005
 20
-260.0
 30
0.0
 11
609.97719400000005
 21
-272.0
 31
0.0
  0
LINE
  5
832
  8
SIZE
  6
CONTINUOUS
 62
    30
 10
20.0
 20
-600.0
 30
0.0
 11
503.371128
 21
-600.0
 31
0.0
  0
LINE
  5
833
  8
SIZE
  6
CONTINUOUS
 62
    30
 10
40.0
 20
-495.0
 30
0.0
 11
503.371128
 21
-495.0
 31
0.0
  0
LINE
  5
834
  8
SIZE
  6
CONTINUOUS
 62
    30
 10
483.371128
 20
-588.0
 30
0.0
 11
483.371128
 21
-507.0
 31
0.0
  0
LINE
  5
835
  8
SIZE
  6
CONTINUOUS
 62
    30
 10
483.371128
 20
-814.62909100000013
 30
0.0
 11
483.371128
 21
-600.0
 31
0.0
  0
TEXT
  5
836
  8
SIZE
  6
CONTINUOUS
 62
    30
 10
458.371128
 20
-789.62909057142861
 30
0.0
 40
64.0
  1
105
 50
90.0
 41
0.9
 72
     1
 11
458.371128
 21
-721.05766200000005
 31
0.0
  0
CIRCLE
  5
837
  8
SIZE
  6
CONTINUOUS
 62
    30
 10
483.371128
 20
-600.0
 30
0.0
 40
6.0
  0
LINE
  5
838
  8
SIZE
  6
CONTINUOUS
 62
    30
 10
483.371128
 20
-600.0
 30
0.0
 11
483.371128
 21
-588.0
 31
0.0
  0
CIRCLE
  5
839
  8
SIZE
  6
CONTINUOUS
 62
    30
 10
483.371128
 20
-495.0
 30
0.0
 40
6.0
  0
LINE
  5
83A
  8
SIZE
  6
CONTINUOUS
 62
    30
 10
483.371128
 20
-495.0
 30
0.0
 11
483.371128
 21
-507.0
 31
0.0
  0
LINE
  5
83B
  8
SIZE
  6
CONTINUOUS
 62
    30
 10
-145.0
 20
100.9848499999997
 30
0.0
 11
-145.0
 21
426.78142299999979
 31
0.0
  0
LINE
  5
83C
  8
SIZE
  6
CONTINUOUS
 62
    30
 10
-365.0
 20
80.98484999999998
 30
0.0
 11
-365.0
 21
426.78142299999979
 31
0.0
  0
LINE
  5
83D
  8
SIZE
  6
CONTINUOUS
 62
    30
 10
-157.0
 20
406.78142300000002
 30
0.0
 11
-353.0
 21
406.78142300000002
 31
0.0
  0
LINE
  5
83E
  8
SIZE
  6
CONTINUOUS
 62
    30
 10
-693.99340099999995
 20
406.78142300000002
 30
0.0
 11
-365.0
 21
406.78142300000002
 31
0.0
  0
TEXT
  5
83F
  8
SIZE
  6
CONTINUOUS
 62
    30
 10
-668.99340185714266
 20
431.78142300000002
 30
0.0
 40
64.0
  1
220
 41
0.9
 72
     1
 11
-594.93625899999995
 21
431.78142300000002
 31
0.0
  0
CIRCLE
  5
840
  8
SIZE
  6
CONTINUOUS
 62
    30
 10
-145.0
 20
406.78142300000002
 30
0.0
 40
6.0
  0
LINE
  5
841
  8
SIZE
  6
CONTINUOUS
 62
    30
 10
-145.0
 20
406.78142300000002
 30
0.0
 11
-157.0
 21
406.78142300000002
 31
0.0
  0
CIRCLE
  5
842
  8
SIZE
  6
CONTINUOUS
 62
    30
 10
-365.0
 20
406.78142300000002
 30
0.0
 40
6.0
  0
LINE
  5
843
  8
SIZE
  6
CONTINUOUS
 62
    30
 10
-365.0
 20
406.78142300000002
 30
0.0
 11
-353.0
 21
406.78142300000002
 31
0.0
  0
LINE
  5
844
  8
SIZE
  6
CONTINUOUS
 62
    30
 10
0.0
 20
-180.0
 30
0.0
 11
0.0
 21
555.81119199999989
 31
0.0
  0
LINE
  5
845
  8
SIZE
  6
CONTINUOUS
 62
    30
 10
-270.0
 20
10.0
 30
0.0
 11
-270.0
 21
555.81119199999989
 31
0.0
  0
LINE
  5
846
  8
SIZE
  6
CONTINUOUS
 62
    30
 10
-12.0
 20
535.81119199999978
 30
0.0
 11
-258.0
 21
535.81119199999978
 31
0.0
  0
TEXT
  5
847
  8
SIZE
  6
CONTINUOUS
 62
    30
 10
-209.05714285714291
 20
562.90095699999995
 30
0.0
 40
64.0
  1
270
 41
0.9
 72
     1
 11
-135.0
 21
562.90095699999995
 31
0.0
  0
CIRCLE
  5
848
  8
SIZE
  6
CONTINUOUS
 62
    30
 10
0.0
 20
535.81119199999978
 30
0.0
 40
6.0
  0
LINE
  5
849
  8
SIZE
  6
CONTINUOUS
 62
    30
 10
0.0
 20
535.81119199999978
 30
0.0
 11
-12.0
 21
535.81119199999978
 31
0.0
  0
CIRCLE
  5
84A
  8
SIZE
  6
CONTINUOUS
 62
    30
 10
-270.0
 20
535.81119199999978
 30
0.0
 40
6.0
  0
LINE
  5
84B
  8
SIZE
  6
CONTINUOUS
 62
    30
 10
-270.0
 20
535.81119199999978
 30
0.0
 11
-258.0
 21
535.81119199999978
 31
0.0
  0
LINE
  5
84C
  8
SIZE
  6
CONTINUOUS
 62
    30
 10
-480.0
 20
20.0
 30
0.0
 11
-480.0
 21
555.81119199999989
 31
0.0
  0
LINE
  5
84D
  8
SIZE
  6
CONTINUOUS
 62
    30
 10
-320.0
 20
20.0
 30
0.0
 11
-320.0
 21
555.81119199999989
 31
0.0
  0
LINE
  5
84E
  8
SIZE
  6
CONTINUOUS
 62
    30
 10
-468.0
 20
535.81119199999978
 30
0.0
 11
-332.0
 21
535.81119199999978
 31
0.0
  0
TEXT
  5
84F
  8
SIZE
  6
CONTINUOUS
 62
    30
 10
-468.5714285714285
 20
562.90095699999995
 30
0.0
 40
64.0
  1
160
 41
0.9
 72
     1
 11
-400.0
 21
562.90095699999995
 31
0.0
  0
CIRCLE
  5
850
  8
SIZE
  6
CONTINUOUS
 62
    30
 10
-480.0
 20
535.81119199999978
 30
0.0
 40
6.0
  0
LINE
  5
851
  8
SIZE
  6
CONTINUOUS
 62
    30
 10
-480.0
 20
535.81119199999978
 30
0.0
 11
-468.0
 21
535.81119199999978
 31
0.0
  0
CIRCLE
  5
852
  8
SIZE
  6
CONTINUOUS
 62
    30
 10
-320.0
 20
535.81119199999978
 30
0.0
 40
6.0
  0
LINE
  5
853
  8
SIZE
  6
CONTINUOUS
 62
    30
 10
-320.0
 20
535.81119199999978
 30
0.0
 11
-332.0
 21
535.81119199999978
 31
0.0
  0
LINE
  5
854
  8
SIZE
  6
CONTINUOUS
 62
    30
 10
0.0
 20
-180.0
 30
0.0
 11
0.0
 21
677.76014900000018
 31
0.0
  0
LINE
  5
855
  8
SIZE
  6
CONTINUOUS
 62
    30
 10
-480.0
 20
20.0
 30
0.0
 11
-480.0
 21
677.76014900000018
 31
0.0
  0
LINE
  5
856
  8
SIZE
  6
CONTINUOUS
 62
    30
 10
-12.0
 20
657.76014900000007
 30
0.0
 11
-468.0
 21
657.76014900000007
 31
0.0
  0
TEXT
  5
857
  8
SIZE
  6
CONTINUOUS
 62
    30
 10
-314.05714285714282
 20
684.51312800000017
 30
0.0
 40
64.0
  1
480
 41
0.9
 72
     1
 11
-240.0
 21
684.51312800000017
 31
0.0
  0
CIRCLE
  5
858
  8
SIZE
  6
CONTINUOUS
 62
    30
 10
0.0
 20
657.76014900000007
 30
0.0
 40
6.0
  0
LINE
  5
859
  8
SIZE
  6
CONTINUOUS
 62
    30
 10
0.0
 20
657.76014900000007
 30
0.0
 11
-12.0
 21
657.76014900000007
 31
0.0
  0
CIRCLE
  5
85A
  8
SIZE
  6
CONTINUOUS
 62
    30
 10
-480.0
 20
657.76014900000007
 30
0.0
 40
6.0
  0
LINE
  5
85B
  8
SIZE
  6
CONTINUOUS
 62
    30
 10
-480.0
 20
657.76014900000007
 30
0.0
 11
-468.0
 21
657.76014900000007
 31
0.0
  0
LINE
  5
85C
  8
SIZE
  6
CONTINUOUS
 62
    30
 10
-2.0
 20
406.78142300000002
 30
0.0
 11
208.555767
 21
406.78142300000002
 31
0.0
  0
LINE
  5
85D
  8
NOTE
  6
CONTINUOUS
 62
     4
 10
0.0
 20
-495.0
 30
0.0
 11
56.525725000000001
 21
-729.25006599999983
 31
0.0
  0
LINE
  5
85E
  8
NOTE
  6
CONTINUOUS
 62
     4
 10
20.324082000000001
 20
-529.45187499999986
 30
0.0
 11
0.0
 21
-495.0
 31
0.0
  0
LINE
  5
85F
  8
NOTE
  6
CONTINUOUS
 62
     4
 10
0.0
 20
-495.0
 30
0.0
 11
0.375234
 21
-534.99824000000001
 31
0.0
  0
LINE
  5
860
  8
NOTE
  6
CONTINUOUS
 62
     4
 10
-255.0
 20
-200.0
 30
0.0
 11
-611.65360999999984
 21
-358.656093
 31
0.0
  0
LINE
  5
861
  8
NOTE
  6
CONTINUOUS
 62
     4
 10
-286.5005779999999
 20
-224.651848
 30
0.0
 11
-255.0
 21
-200.0
 31
0.0
  0
LINE
  5
862
  8
NOTE
  6
CONTINUOUS
 62
     4
 10
-255.0
 20
-200.0
 30
0.0
 11
-294.60622499999999
 21
-205.598837
 31
0.0
  0
TEXT
  5
863
  8
NOTE
  6
CONTINUOUS
 62
     4
 10
-1049.9870339999991
 20
-330.71655099999992
 30
0.0
 40
64.0
  1
AH 2-φ25
 41
0.9
  0
LINE
  5
864
  8
NOTE
  6
CONTINUOUS
 62
     4
 10
-611.65360999999984
 20
-358.656093
 30
0.0
 11
-1061.9276199999999
 21
-358.656093
 31
0.0
  0
LINE
  5
865
  8
SIZE
  6
CONTINUOUS
 62
    30
 10
-484.35512499999987
 20
-200.0
 30
0.0
 11
-1307.555284
 21
-200.0
 31
0.0
  0
LINE
  5
866
  8
SIZE
  6
CONTINUOUS
 62
    30
 10
-500.0
 20
-185.0
 30
0.0
 11
-1307.555284
 21
-185.0
 31
0.0
  0
LINE
  5
867
  8
SIZE
  6
CONTINUOUS
 62
    30
 10
-1287.555284
 20
-212.0
 30
0.0
 11
-1287.555284
 21
-224.0
 31
0.0
  0
LINE
  5
868
  8
SIZE
  6
CONTINUOUS
 62
    30
 10
-1287.555284
 20
-173.0
 30
0.0
 11
-1287.555284
 21
-161.0
 31
0.0
  0
LINE
  5
869
  8
SIZE
  6
CONTINUOUS
 62
    30
 10
-1287.555284
 20
-378.68744800000002
 30
0.0
 11
-1287.555284
 21
-200.0
 31
0.0
  0
TEXT
  5
86A
  8
SIZE
  6
CONTINUOUS
 62
    30
 10
-1312.555284
 20
-353.68744714285691
 30
0.0
 40
64.0
  1
15
 50
90.0
 41
0.9
 72
     1
 11
-1312.555284
 21
-312.5445899999998
 31
0.0
  0
LINE
  5
86B
  8
SIZE
  6
CONTINUOUS
 62
    30
 10
-1287.555284
 20
-200.0
 30
0.0
 11
-1287.555284
 21
-185.0
 31
0.0
  0
LINE
  5
86C
  8
SIZE
  6
CONTINUOUS
 62
    30
 10
-1287.555284
 20
-200.0
 30
0.0
 11
-1287.555284
 21
-185.0
 31
0.0
  0
CIRCLE
  5
86D
  8
SIZE
  6
CONTINUOUS
 62
    30
 10
-1287.555284
 20
-200.0
 30
0.0
 40
6.0
  0
LINE
  5
86E
  8
SIZE
  6
CONTINUOUS
 62
    30
 10
-1287.555284
 20
-200.0
 30
0.0
 11
-1287.555284
 21
-212.0
 31
0.0
  0
CIRCLE
  5
86F
  8
SIZE
  6
CONTINUOUS
 62
    30
 10
-1287.555284
 20
-185.0
 30
0.0
 40
6.0
  0
LINE
  5
870
  8
SIZE
  6
CONTINUOUS
 62
    30
 10
-1287.555284
 20
-185.0
 30
0.0
 11
-1287.555284
 21
-173.0
 31
0.0
  0
LINE
  5
871
  8
SIZE
  6
CONTINUOUS
 62
    30
 10
-500.0
 20
-185.0
 30
0.0
 11
-1307.555284
 21
-185.0
 31
0.0
  0
LINE
  5
872
  8
SIZE
  6
CONTINUOUS
 62
    30
 10
-500.0
 20
0.0
 30
0.0
 11
-1307.555284
 21
0.0
 31
0.0
  0
LINE
  5
873
  8
SIZE
  6
CONTINUOUS
 62
    30
 10
-1287.555284
 20
-173.0
 30
0.0
 11
-1287.555284
 21
-12.0
 31
0.0
  0
TEXT
  5
874
  8
SIZE
  6
CONTINUOUS
 62
    30
 10
-1312.239601
 20
-161.0714285714285
 30
0.0
 40
64.0
  1
185
 50
90.0
 41
0.9
 72
     1
 11
-1312.239601
 21
-92.5
 31
0.0
  0
CIRCLE
  5
875
  8
SIZE
  6
CONTINUOUS
 62
    30
 10
-1287.555284
 20
-185.0
 30
0.0
 40
6.0
  0
LINE
  5
876
  8
SIZE
  6
CONTINUOUS
 62
    30
 10
-1287.555284
 20
-185.0
 30
0.0
 11
-1287.555284
 21
-173.0
 31
0.0
  0
CIRCLE
  5
877
  8
SIZE
  6
CONTINUOUS
 62
    30
 10
-1287.555284
 20
0.0
 30
0.0
 40
6.0
  0
LINE
  5
878
  8
SIZE
  6
CONTINUOUS
 62
    30
 10
-1287.555284
 20
0.0
 30
0.0
 11
-1287.555284
 21
-12.0
 31
0.0
  0
LINE
  5
879
  8
SIZE
  6
CONTINUOUS
 62
    30
 10
-484.35512499999987
 20
-200.0
 30
0.0
 11
-1168.6687910000001
 21
-200.0
 31
0.0
  0
LINE
  5
87A
  8
SIZE
  6
CONTINUOUS
 62
    30
 10
-1148.6687910000001
 20
-188.0
 30
0.0
 11
-1148.6687910000001
 21
-22.0
 31
0.0
  0
TEXT
  5
87B
  8
SIZE
  6
CONTINUOUS
 62
    30
 10
-1175.4450340000001
 20
-173.5714285714285
 30
0.0
 40
64.0
  1
190
 50
90.0
 41
0.9
 72
     1
 11
-1175.4450340000001
 21
-105.0
 31
0.0
  0
CIRCLE
  5
87C
  8
SIZE
  6
CONTINUOUS
 62
    30
 10
-1148.6687910000001
 20
-200.0
 30
0.0
 40
6.0
  0
LINE
  5
87D
  8
SIZE
  6
CONTINUOUS
 62
    30
 10
-1148.6687910000001
 20
-200.0
 30
0.0
 11
-1148.6687910000001
 21
-188.0
 31
0.0
  0
CIRCLE
  5
87E
  8
SIZE
  6
CONTINUOUS
 62
    30
 10
-1148.6687910000001
 20
-10.0
 30
0.0
 40
6.0
  0
LINE
  5
87F
  8
SIZE
  6
CONTINUOUS
 62
    30
 10
-1148.6687910000001
 20
-10.0
 30
0.0
 11
-1148.6687910000001
 21
-22.0
 31
0.0
  0
LINE
  5
880
  8
SIZE
  6
CONTINUOUS
 62
    30
 10
-459.0
 20
45.0
 30
0.0
 11
-1168.6687910000001
 21
45.0
 31
0.0
  0
LINE
  5
881
  8
SIZE
  6
CONTINUOUS
 62
    30
 10
-1148.6687910000001
 20
-22.0
 30
0.0
 11
-1148.6687910000001
 21
-34.0
 31
0.0
  0
LINE
  5
882
  8
SIZE
  6
CONTINUOUS
 62
    30
 10
-1148.6687910000001
 20
57.0
 30
0.0
 11
-1148.6687910000001
 21
69.0
 31
0.0
  0
LINE
  5
883
  8
SIZE
  6
CONTINUOUS
 62
    30
 10
-1148.6687910000001
 20
220.41145800000001
 30
0.0
 11
-1148.6687910000001
 21
45.0
 31
0.0
  0
TEXT
  5
884
  8
SIZE
  6
CONTINUOUS
 62
    30
 10
-1173.6687910000001
 20
102.1543145714286
 30
0.0
 40
64.0
  1
55
 50
90.0
 41
0.9
 72
     1
 11
-1173.6687910000001
 21
148.78288599999999
 31
0.0
  0
LINE
  5
885
  8
SIZE
  6
CONTINUOUS
 62
    30
 10
-1148.6687910000001
 20
-10.0
 30
0.0
 11
-1148.6687910000001
 21
45.0
 31
0.0
  0
LINE
  5
886
  8
SIZE
  6
CONTINUOUS
 62
    30
 10
-1148.6687910000001
 20
-10.0
 30
0.0
 11
-1148.6687910000001
 21
45.0
 31
0.0
  0
CIRCLE
  5
887
  8
SIZE
  6
CONTINUOUS
 62
    30
 10
-1148.6687910000001
 20
-10.0
 30
0.0
 40
6.0
  0
LINE
  5
888
  8
SIZE
  6
CONTINUOUS
 62
    30
 10
-1148.6687910000001
 20
-10.0
 30
0.0
 11
-1148.6687910000001
 21
-22.0
 31
0.0
  0
CIRCLE
  5
889
  8
SIZE
  6
CONTINUOUS
 62
    30
 10
-1148.6687910000001
 20
45.0
 30
0.0
 40
6.0
  0
LINE
  5
88A
  8
SIZE
  6
CONTINUOUS
 62
    30
 10
-1148.6687910000001
 20
45.0
 30
0.0
 11
-1148.6687910000001
 21
57.0
 31
0.0
  0
POINT
  5
88B
  8
ARRANGE
  6
CONTINUOUS
 62
     1
 10
0.0
 20
0.0
 30
0.0
  0
CIRCLE
  5
88C
  8
ARRANGE
  6
CONTINUOUS
 62
     1
 10
0.0
 20
0.0
 30
0.0
 40
40.0
  0
LINE
  5
88D
  8
DETAIL
  6
CONTINUOUS
 62
     5
 10
-270.0
 20
-185.0
 30
0.0
 11
-291.0
 21
-200.0
 31
0.0
  0
TEXT
  5
88E
  8
NOTE
  6
CONTINUOUS
 62
     4
 10
-416.04554000000002
 20
69.260340999999997
 30
0.0
 40
64.0
  1
OA
 41
0.9
  0
TEXT
  5
88F
  8
NOTE
  6
CONTINUOUS
 62
     4
 10
-188.982314
 20
-129.525327
 30
0.0
 40
64.0
  1
EA
 41
0.9
  0
LINE
  5
890
  8
BASIS
  6
DASHDOT
 62
     6
 10
-246.44969499999999
 20
-100.0
 30
0.0
 11
-506.09789499999988
 21
-100.0
 31
0.0
  0
CIRCLE
  5
891
  8
DETAIL
  6
PHANTOM
 62
     5
 10
-365.0
 20
-100.0
 30
0.0
 40
80.0
  0
LINE
  5
892
  8
SIZE
  6
CONTINUOUS
 62
    30
 10
-392.95429100000001
 20
-600.0
 30
0.0
 11
-1102.426981999999
 21
-600.0
 31
0.0
  0
LINE
  5
893
  8
SIZE
  6
CONTINUOUS
 62
    30
 10
-526.09789499999999
 20
-100.0
 30
0.0
 11
-1102.426981999999
 21
-100.0
 31
0.0
  0
LINE
  5
894
  8
SIZE
  6
CONTINUOUS
 62
    30
 10
-1082.426982
 20
-588.0
 30
0.0
 11
-1082.426982
 21
-112.0
 31
0.0
  0
TEXT
  5
895
  8
SIZE
  6
CONTINUOUS
 62
    30
 10
-1108.182992
 20
-422.05474485714268
 30
0.0
 40
64.0
  1
500
 50
90.0
 41
0.9
 72
     1
 11
-1108.182992
 21
-347.99760199999992
 31
0.0
  0
CIRCLE
  5
896
  8
SIZE
  6
CONTINUOUS
 62
    30
 10
-1082.426982
 20
-600.0
 30
0.0
 40
6.0
  0
LINE
  5
897
  8
SIZE
  6
CONTINUOUS
 62
    30
 10
-1082.426982
 20
-600.0
 30
0.0
 11
-1082.426982
 21
-588.0
 31
0.0
  0
CIRCLE
  5
898
  8
SIZE
  6
CONTINUOUS
 62
    30
 10
-1082.426982
 20
-100.0
 30
0.0
 40
6.0
  0
LINE
  5
899
  8
SIZE
  6
CONTINUOUS
 62
    30
 10
-1082.426982
 20
-100.0
 30
0.0
 11
-1082.426982
 21
-112.0
 31
0.0
  0
TEXT
  5
89A
  8
NOTE
  6
CONTINUOUS
 62
     4
 10
-1048.687748999999
 20
292.18686099999991
 30
0.0
 40
64.0
  1
上部給気接続口
 41
0.9
  0
LINE
  5
89B
  8
NOTE
  6
CONTINUOUS
 62
     4
 10
-569.69939099999965
 20
264.30970200000002
 30
0.0
 11
-1059.562165
 21
264.30970200000002
 31
0.0
  0
LINE
  5
89C
  8
SIZE
  6
CONTINUOUS
 62
    30
 10
0.0
 20
-180.0
 30
0.0
 11
0.0
 21
426.78142299999979
 31
0.0
  0
LINE
  5
89D
  8
SIZE
  6
CONTINUOUS
 62
    30
 10
-145.0
 20
-81.086920999999975
 30
0.0
 11
-145.0
 21
426.78142299999979
 31
0.0
  0
LINE
  5
89E
  8
SIZE
  6
CONTINUOUS
 62
    30
 10
-12.0
 20
406.78142300000002
 30
0.0
 11
-133.0
 21
406.78142300000002
 31
0.0
  0
LINE
  5
89F
  8
SIZE
  6
CONTINUOUS
 62
    30
 10
208.95542499999991
 20
406.78142300000002
 30
0.0
 11
0.0
 21
406.78142300000002
 31
0.0
  0
TEXT
  5
8A0
  8
SIZE
  6
CONTINUOUS
 62
    30
 10
46.812567428571342
 20
431.78142300000002
 30
0.0
 40
64.0
  1
145
 41
0.9
 72
     1
 11
115.3839959999999
 21
431.78142300000002
 31
0.0
  0
CIRCLE
  5
8A1
  8
SIZE
  6
CONTINUOUS
 62
    30
 10
0.0
 20
406.78142300000002
 30
0.0
 40
6.0
  0
LINE
  5
8A2
  8
SIZE
  6
CONTINUOUS
 62
    30
 10
0.0
 20
406.78142300000002
 30
0.0
 11
-12.0
 21
406.78142300000002
 31
0.0
  0
CIRCLE
  5
8A3
  8
SIZE
  6
CONTINUOUS
 62
    30
 10
-145.0
 20
406.78142300000002
 30
0.0
 40
6.0
  0
LINE
  5
8A4
  8
SIZE
  6
CONTINUOUS
 62
    30
 10
-145.0
 20
406.78142300000002
 30
0.0
 11
-133.0
 21
406.78142300000002
 31
0.0
  0
LINE
  5
8A5
  8
NOTE
  6
CONTINUOUS
 62
     4
 10
-416.85737799999998
 20
45.0
 30
0.0
 11
-569.69939099999965
 21
264.30970200000002
 31
0.0
  0
LINE
  5
8A6
  8
NOTE
  6
CONTINUOUS
 62
     4
 10
-447.55715199999992
 20
70.642229
 30
0.0
 11
-416.85737799999998
 21
45.0
 31
0.0
  0
LINE
  5
8A7
  8
NOTE
  6
CONTINUOUS
 62
     4
 10
-416.85737799999998
 20
45.0
 30
0.0
 11
-430.62304699999999
 21
82.556708
 31
0.0
  0
LINE
  5
8A8
  8
DETAIL
  6
PHANTOM
 62
     5
 10
-281.0
 20
-10.0
 30
0.0
 11
-291.0
 21
0.0
 31
0.0
  0
LINE
  5
8A9
  8
SIZE
  6
CONTINUOUS
 62
    30
 10
0.0
 20
-620.0
 30
0.0
 11
0.0
 21
-787.66686100000004
 31
0.0
  0
ARC
  5
8AA
  8
DETAIL
  6
CONTINUOUS
 62
     5
 10
-627.10889500000008
 20
-496.55891600000001
 30
0.0
 40
25.0
 50
167.351935
 51
181.83616599999991
  0
ARC
  5
8AB
  8
DETAIL
  6
CONTINUOUS
 62
     5
 10
-650.52649699999995
 20
-491.30383099999989
 30
0.0
 40
1.0
 50
105.0001479999999
 51
167.351935
  0
LINE
  5
8AC
  8
DETAIL
  6
CONTINUOUS
 62
     5
 10
-650.78531799999985
 20
-490.3379059999998
 30
0.0
 11
-649.91277300000002
 21
-490.10410599999989
 31
0.0
  0
LINE
  5
8AD
  8
DETAIL
  6
CONTINUOUS
 62
     5
 10
-647.823578
 20
-513.35567000000003
 30
0.0
 11
-651.88072899999975
 21
-514.44279200000005
 31
0.0
  0
LINE
  5
8AE
  8
DETAIL
  6
CONTINUOUS
 62
     5
 10
-643.94125499999996
 20
-527.84454800000003
 30
0.0
 11
-647.99840599999982
 21
-528.93166900000006
 31
0.0
  0
LINE
  5
8AF
  8
DETAIL
  6
CONTINUOUS
 62
     5
 10
-637.35992799999985
 20
-536.95147599999984
 30
0.0
 11
-638.23247400000002
 21
-537.18527599999993
 31
0.0
  0
LINE
  5
8B0
  8
DETAIL
  6
CONTINUOUS
 62
     5
 10
-642.92082400000004
 20
-531.65280700000005
 30
0.0
 11
-652.07927800000004
 21
-497.47334699999999
 31
0.0
  0
ARC
  5
8B1
  8
DETAIL
  6
CONTINUOUS
 62
     5
 10
-642.43786199999965
 20
-531.52339600000005
 30
0.0
 40
0.5
 50
195.000148
 51
208.1641299999996
  0
ARC
  5
8B2
  8
DETAIL
  6
CONTINUOUS
 62
     5
 10
-638.49129500000004
 20
-536.21935099999985
 30
0.0
 40
1.0
 50
222.64836099999991
 51
285.00014800000002
  0
ARC
  5
8B3
  8
DETAIL
  6
CONTINUOUS
 62
     5
 10
-620.83868300000017
 20
-519.95942200000002
 30
0.0
 40
25.0
 50
208.1641299999996
 51
222.64836099999991
  0
ARC
  5
8B4
  8
DETAIL
  6
CONTINUOUS
 62
     5
 10
-632.359464
 20
-516.97660800000006
 30
0.0
 40
20.0
 50
173.96292700000001
 51
216.03737000000001
  0
ARC
  5
8B5
  8
DETAIL
  6
CONTINUOUS
 62
     5
 10
-651.75131799999986
 20
-514.92575499999975
 30
0.0
 40
0.5
 50
105.0001479999999
 51
173.96292700000001
  0
ARC
  5
8B6
  8
DETAIL
  6
CONTINUOUS
 62
     5
 10
-648.12781600000017
 20
-528.4487069999999
 30
0.0
 40
0.5
 50
216.03737000000001
 51
285.00014800000002
  0
ARC
  5
8B7
  8
DETAIL
  6
CONTINUOUS
 62
     5
 10
-651.596315
 20
-497.34393599999993
 30
0.0
 40
0.5
 50
181.83616599999991
 51
195.000148
  0
ARC
  5
8B8
  8
DETAIL
  6
CONTINUOUS
 62
     5
 10
-69.599591000000004
 20
-186.64705900000001
 30
0.0
 40
1.6000000000000001
 50
0.0
 51
82.847331000000025
  0
ARC
  5
8B9
  8
DETAIL
  6
CONTINUOUS
 62
     5
 10
-220.3995909999999
 20
-186.64705900000001
 30
0.0
 40
1.6000000000000001
 50
97.152669000000003
 51
180.0
  0
LINE
  5
8BA
  8
DETAIL
  6
CONTINUOUS
 62
     5
 10
-56.499591000000002
 20
-195.0
 30
0.0
 11
-205.0
 21
-195.0
 31
0.0
  0
LINE
  5
8BB
  8
DETAIL
  6
CONTINUOUS
 62
     5
 10
-223.714665
 20
-195.0
 30
0.0
 11
-232.99959100000001
 21
-195.0
 31
0.0
  0
LINE
  5
8BC
  8
DETAIL
  6
CONTINUOUS
 62
     5
 10
-233.99959100000001
 20
-200.0
 30
0.0
 11
-233.99959100000001
 21
-196.0
 31
0.0
  0
ARC
  5
8BD
  8
DETAIL
  6
CONTINUOUS
 62
     5
 10
-232.99959100000001
 20
-196.0
 30
0.0
 40
1.0
 50
90.0
 51
180.0
  0
ARC
  5
8BE
  8
DETAIL
  6
CONTINUOUS
 62
     5
 10
-231.99959100000001
 20
-189.40000000000001
 30
0.0
 40
10.0
 50
325.94420200000002
 51
0.0
  0
LINE
  5
8BF
  8
DETAIL
  6
CONTINUOUS
 62
     5
 10
-221.99959100000001
 20
-189.40000000000001
 30
0.0
 11
-221.99959100000001
 21
-186.64705900000001
 31
0.0
  0
LINE
  5
8C0
  8
DETAIL
  6
CONTINUOUS
 62
     5
 10
-205.0
 20
-195.0
 30
0.0
 11
-223.714665
 21
-195.0
 31
0.0
  0
LINE
  5
8C1
  8
DETAIL
  6
CONTINUOUS
 62
     5
 10
-55.499591000000002
 20
-197.0
 30
0.0
 11
-55.499591000000002
 21
-200.0
 31
0.0
  0
LINE
  5
8C2
  8
DETAIL
  6
CONTINUOUS
 62
     5
 10
-55.499591000000002
 20
-197.0
 30
0.0
 11
-55.499591000000002
 21
-196.0
 31
0.0
  0
ARC
  5
8C3
  8
DETAIL
  6
CONTINUOUS
 62
     5
 10
-56.499591000000002
 20
-196.0
 30
0.0
 40
1.0
 50
0.0
 51
90.0
  0
LINE
  5
8C4
  8
DETAIL
  6
CONTINUOUS
 62
     5
 10
-67.999591000000009
 20
-189.40000000000001
 30
0.0
 11
-67.999591000000009
 21
-186.64705900000001
 31
0.0
  0
ARC
  5
8C5
  8
DETAIL
  6
CONTINUOUS
 62
     5
 10
-57.999591000000002
 20
-189.40000000000001
 30
0.0
 40
10.0
 50
180.0
 51
214.05579800000001
  0
LINE
  5
8C6
  8
DETAIL
  6
CONTINUOUS
 62
     5
 10
-205.0
 20
-185.0
 30
0.0
 11
-70.0
 21
-185.0
 31
0.0
  0
LINE
  5
8C7
  8
DETAIL
  6
CONTINUOUS
 62
     5
 10
-219.00040899999991
 20
-145.0
 30
0.0
 11
-70.999591000000024
 21
-145.0
 31
0.0
  0
LINE
  5
8C8
  8
DETAIL
  6
CONTINUOUS
 62
     5
 10
-219.00040899999991
 20
-183.97647000000001
 30
0.0
 11
-219.00040899999991
 21
-145.0
 31
0.0
  0
ARC
  5
8C9
  8
DETAIL
  6
CONTINUOUS
 62
     5
 10
-219.99959100000001
 20
-183.97647000000001
 30
0.0
 40
1.0
 50
277.15266899999989
 51
0.0
  0
LINE
  5
8CA
  8
DETAIL
  6
CONTINUOUS
 62
     5
 10
-219.87507799999969
 20
-184.9686879999999
 30
0.0
 11
-220.59881299999969
 21
-185.0595099999999
 31
0.0
  0
LINE
  5
8CB
  8
DETAIL
  6
CONTINUOUS
 62
     5
 10
-220.0
 20
-185.0
 30
0.0
 11
-205.0
 21
-185.0
 31
0.0
  0
LINE
  5
8CC
  8
DETAIL
  6
CONTINUOUS
 62
     5
 10
-70.999591000000024
 20
-183.97647000000001
 30
0.0
 11
-70.999591000000024
 21
-145.0
 31
0.0
  0
ARC
  5
8CD
  8
DETAIL
  6
CONTINUOUS
 62
     5
 10
-69.999591000000009
 20
-183.97647000000001
 30
0.0
 40
1.0
 50
180.0
 51
262.84733099999988
  0
LINE
  5
8CE
  8
DETAIL
  6
CONTINUOUS
 62
     5
 10
-70.124105
 20
-184.9686879999999
 30
0.0
 11
-69.400369999999995
 21
-185.0595099999999
 31
0.0
  0
LINE
  5
8CF
  8
BASIS
  6
DASHDOT
 62
     6
 10
-138.0
 20
-213.65235699999999
 30
0.0
 11
-138.0
 21
-109.12141799999991
 31
0.0
  0
LINE
  5
8D0
  8
BASIS
  6
DASHDOT
 62
     6
 10
-152.0
 20
-213.65235699999999
 30
0.0
 11
-152.0
 21
-109.12141799999991
 31
0.0
  0
LINE
  5
8D1
  8
BASIS
  6
DASHDOT
 62
     6
 10
-145.0
 20
-220.65042799999981
 30
0.0
 11
-145.0
 21
-101.08692099999971
 31
0.0
  0
TEXT
  5
8D2
  8
NOTE
  6
CONTINUOUS
 62
     4
 10
-130.151579
 20
53.181252000000001
 30
0.0
 40
64.0
  1
ダクト接続口可動寸法
 41
0.9
  0
LINE
  5
8D3
  8
SIZE
  6
CONTINUOUS
 62
    30
 10
-138.0
 20
-89.121418000000006
 30
0.0
 11
-138.0
 21
176.9524829999998
 31
0.0
  0
LINE
  5
8D4
  8
SIZE
  6
CONTINUOUS
 62
    30
 10
-152.0
 20
-89.121418000000006
 30
0.0
 11
-152.0
 21
176.9524829999998
 31
0.0
  0
LINE
  5
8D5
  8
SIZE
  6
CONTINUOUS
 62
    30
 10
-126.0
 20
156.9524829999996
 30
0.0
 11
-114.0
 21
156.9524829999996
 31
0.0
  0
LINE
  5
8D6
  8
SIZE
  6
CONTINUOUS
 62
    30
 10
-164.0
 20
156.9524829999996
 30
0.0
 11
-176.0
 21
156.9524829999996
 31
0.0
  0
LINE
  5
8D7
  8
SIZE
  6
CONTINUOUS
 62
    30
 10
264.64683799999989
 20
156.9524829999996
 30
0.0
 11
-138.0
 21
156.9524829999996
 31
0.0
  0
TEXT
  5
8D8
  8
SIZE
  6
CONTINUOUS
 62
    30
 10
154.6182662857143
 20
181.9524829999994
 30
0.0
 40
64.0
  1
14
 41
0.9
 72
     1
 11
197.132552
 21
181.9524829999994
 31
0.0
  0
LINE
  5
8D9
  8
SIZE
  6
CONTINUOUS
 62
    30
 10
-138.0
 20
156.9524829999996
 30
0.0
 11
-152.0
 21
156.9524829999996
 31
0.0
  0
LINE
  5
8DA
  8
SIZE
  6
CONTINUOUS
 62
    30
 10
-138.0
 20
156.9524829999996
 30
0.0
 11
-152.0
 21
156.9524829999996
 31
0.0
  0
CIRCLE
  5
8DB
  8
SIZE
  6
CONTINUOUS
 62
    30
 10
-138.0
 20
156.9524829999996
 30
0.0
 40
6.0
  0
LINE
  5
8DC
  8
SIZE
  6
CONTINUOUS
 62
    30
 10
-138.0
 20
156.9524829999996
 30
0.0
 11
-126.0
 21
156.9524829999996
 31
0.0
  0
CIRCLE
  5
8DD
  8
SIZE
  6
CONTINUOUS
 62
    30
 10
-152.0
 20
156.9524829999996
 30
0.0
 40
6.0
  0
LINE
  5
8DE
  8
SIZE
  6
CONTINUOUS
 62
    30
 10
-152.0
 20
156.9524829999996
 30
0.0
 11
-164.0
 21
156.9524829999996
 31
0.0
  0
LINE
  5
8DF
  8
SIZE
  6
CONTINUOUS
 62
    30
 39
50.0
 10
264.64683799999989
 20
156.9524829999996
 30
0.0
 11
563.33010100000001
 21
156.9524829999996
 31
0.0
  0
LINE
  5
8E0
  8
SIZE
  6
CONTINUOUS
 62
    30
 10
-70.999591000000024
 20
-125.0
 30
0.0
 11
-70.999591000000024
 21
296.9040589999999
 31
0.0
  0
LINE
  5
8E1
  8
SIZE
  6
CONTINUOUS
 62
    30
 10
-218.9995909999999
 20
-125.0
 30
0.0
 11
-218.9995909999999
 21
296.9040589999999
 31
0.0
  0
LINE
  5
8E2
  8
SIZE
  6
CONTINUOUS
 62
    30
 10
-82.999590999999981
 20
276.9040589999999
 30
0.0
 11
-206.9995909999999
 21
276.9040589999999
 31
0.0
  0
LINE
  5
8E3
  8
SIZE
  6
CONTINUOUS
 62
    30
 10
242.1039959999998
 20
276.9040589999999
 30
0.0
 11
-70.999591000000024
 21
276.9040589999999
 31
0.0
  0
TEXT
  5
8E4
  8
SIZE
  6
CONTINUOUS
 62
    30
 10
13.58399542857134
 20
301.9040589999999
 30
0.0
 40
64.0
  1
φ148
 41
0.9
 72
     1
 11
122.4754239999999
 21
301.9040589999999
 31
0.0
  0
CIRCLE
  5
8E5
  8
SIZE
  6
CONTINUOUS
 62
    30
 10
-70.999591000000024
 20
276.9040589999999
 30
0.0
 40
6.0
  0
LINE
  5
8E6
  8
SIZE
  6
CONTINUOUS
 62
    30
 10
-70.999591000000024
 20
276.9040589999999
 30
0.0
 11
-82.999590999999981
 21
276.9040589999999
 31
0.0
  0
CIRCLE
  5
8E7
  8
SIZE
  6
CONTINUOUS
 62
    30
 10
-218.9995909999999
 20
276.9040589999999
 30
0.0
 40
6.0
  0
LINE
  5
8E8
  8
SIZE
  6
CONTINUOUS
 62
    30
 10
-218.9995909999999
 20
276.9040589999999
 30
0.0
 11
-206.9995909999999
 21
276.9040589999999
 31
0.0
  0
LINE
  5
8E9
  8
SIZE
  6
CONTINUOUS
 62
    30
 10
-50.0
 20
-185.0
 30
0.0
 11
635.26120199999957
 21
-185.0
 31
0.0
  0
LINE
  5
8EA
  8
SIZE
  6
CONTINUOUS
 62
    30
 10
20.0
 20
-200.0
 30
0.0
 11
635.26120199999957
 21
-200.0
 31
0.0
  0
LINE
  5
8EB
  8
SIZE
  6
CONTINUOUS
 62
    30
 10
615.2612019999998
 20
-173.0
 30
0.0
 11
615.2612019999998
 21
-161.0
 31
0.0
  0
LINE
  5
8EC
  8
SIZE
  6
CONTINUOUS
 62
    30
 10
615.2612019999998
 20
-212.0
 30
0.0
 11
615.2612019999998
 21
-224.0
 31
0.0
  0
LINE
  5
8ED
  8
SIZE
  6
CONTINUOUS
 62
    30
 10
615.2612019999998
 20
1.279509999999999
 30
0.0
 11
615.2612019999998
 21
-185.0
 31
0.0
  0
TEXT
  5
8EE
  8
SIZE
  6
CONTINUOUS
 62
    30
 10
590.2612019999998
 20
-106.0062041428571
 30
0.0
 40
64.0
  1
15
 50
90.0
 41
0.9
 72
     1
 11
590.2612019999998
 21
-64.86334699999999
 31
0.0
  0
LINE
  5
8EF
  8
SIZE
  6
CONTINUOUS
 62
    30
 10
615.2612019999998
 20
-185.0
 30
0.0
 11
615.2612019999998
 21
-200.0
 31
0.0
  0
LINE
  5
8F0
  8
SIZE
  6
CONTINUOUS
 62
    30
 10
615.2612019999998
 20
-185.0
 30
0.0
 11
615.2612019999998
 21
-200.0
 31
0.0
  0
CIRCLE
  5
8F1
  8
SIZE
  6
CONTINUOUS
 62
    30
 10
615.2612019999998
 20
-185.0
 30
0.0
 40
6.0
  0
LINE
  5
8F2
  8
SIZE
  6
CONTINUOUS
 62
    30
 10
615.2612019999998
 20
-185.0
 30
0.0
 11
615.2612019999998
 21
-173.0
 31
0.0
  0
CIRCLE
  5
8F3
  8
SIZE
  6
CONTINUOUS
 62
    30
 10
615.2612019999998
 20
-200.0
 30
0.0
 40
6.0
  0
LINE
  5
8F4
  8
SIZE
  6
CONTINUOUS
 62
    30
 10
615.2612019999998
 20
-200.0
 30
0.0
 11
615.2612019999998
 21
-212.0
 31
0.0
  0
LINE
  5
8F5
  8
SIZE
  6
CONTINUOUS
 62
    30
 10
20.0
 20
-200.0
 30
0.0
 11
752.35662699999989
 21
-200.0
 31
0.0
  0
LINE
  5
8F6
  8
SIZE
  6
CONTINUOUS
 62
    30
 10
-50.999590999999988
 20
-145.0
 30
0.0
 11
752.35662699999989
 21
-145.0
 31
0.0
  0
LINE
  5
8F7
  8
SIZE
  6
CONTINUOUS
 62
    30
 10
732.356627
 20
-212.0
 30
0.0
 11
732.356627
 21
-224.0
 31
0.0
  0
LINE
  5
8F8
  8
SIZE
  6
CONTINUOUS
 62
    30
 10
732.356627
 20
-133.0
 30
0.0
 11
732.356627
 21
-121.0
 31
0.0
  0
LINE
  5
8F9
  8
SIZE
  6
CONTINUOUS
 62
    30
 10
732.356627
 20
28.452217999999998
 30
0.0
 11
732.356627
 21
-145.0
 31
0.0
  0
TEXT
  5
8FA
  8
SIZE
  6
CONTINUOUS
 62
    30
 10
707.356627
 20
-89.804924428571411
 30
0.0
 40
64.0
  1
55
 50
90.0
 41
0.9
 72
     1
 11
707.356627
 21
-43.176352999999999
 31
0.0
  0
LINE
  5
8FB
  8
SIZE
  6
CONTINUOUS
 62
    30
 10
732.356627
 20
-200.0
 30
0.0
 11
732.356627
 21
-145.0
 31
0.0
  0
LINE
  5
8FC
  8
SIZE
  6
CONTINUOUS
 62
    30
 10
732.356627
 20
-200.0
 30
0.0
 11
732.356627
 21
-145.0
 31
0.0
  0
CIRCLE
  5
8FD
  8
SIZE
  6
CONTINUOUS
 62
    30
 10
732.356627
 20
-200.0
 30
0.0
 40
6.0
  0
LINE
  5
8FE
  8
SIZE
  6
CONTINUOUS
 62
    30
 10
732.356627
 20
-200.0
 30
0.0
 11
732.356627
 21
-212.0
 31
0.0
  0
CIRCLE
  5
8FF
  8
SIZE
  6
CONTINUOUS
 62
    30
 10
732.356627
 20
-145.0
 30
0.0
 40
6.0
  0
LINE
  5
900
  8
SIZE
  6
CONTINUOUS
 62
    30
 10
732.356627
 20
-145.0
 30
0.0
 11
732.356627
 21
-133.0
 31
0.0
  0
LINE
  5
901
  8
SIZE
  6
CONTINUOUS
 62
    30
 10
-392.95429100000001
 20
-600.0
 30
0.0
 11
-1416.2072820000001
 21
-600.0
 31
0.0
  0
LINE
  5
902
  8
SIZE
  6
CONTINUOUS
 62
    30
 10
-500.0
 20
0.0
 30
0.0
 11
-1416.2072820000001
 21
0.0
 31
0.0
  0
LINE
  5
903
  8
SIZE
  6
CONTINUOUS
 62
    30
 10
-1396.2072820000001
 20
-588.0
 30
0.0
 11
-1396.2072820000001
 21
-12.0
 31
0.0
  0
CIRCLE
  5
904
  8
SIZE
  6
CONTINUOUS
 62
    30
 10
-1396.2072820000001
 20
-600.0
 30
0.0
 40
6.0
  0
LINE
  5
905
  8
SIZE
  6
CONTINUOUS
 62
    30
 10
-1396.2072820000001
 20
-600.0
 30
0.0
 11
-1396.2072820000001
 21
-588.0
 31
0.0
  0
CIRCLE
  5
906
  8
SIZE
  6
CONTINUOUS
 62
    30
 10
-1396.2072820000001
 20
0.0
 30
0.0
 40
6.0
  0
LINE
  5
907
  8
SIZE
  6
CONTINUOUS
 62
    30
 10
-1396.2072820000001
 20
0.0
 30
0.0
 11
-1396.2072820000001
 21
-12.0
 31
0.0
  0
TEXT
  5
908
  8
SIZE
  6
CONTINUOUS
 62
    30
 10
-1421.2072820000001
 20
-374.05714285714282
 30
0.0
 40
64.0
  1
600
 50
90.0
 41
0.9
 72
     1
 11
-1421.2072820000001
 21
-300.0
 31
0.0
  0
TEXT
  5
909
  8
ETC
  6
CONTINUOUS
 62
    61
 10
612.8042076367168
 20
713.92650739920725
 30
0.0
 40
64.0
  1
V-604KQ7-BL_4
 41
0.9
  0
TEXT
  5
90A
  8
ETC
  6
CONTINUOUS
 62
    61
 10
608.58223963671685
 20
617.43568039920751
 30
0.0
 40
64.0
  1
換気扇
 41
0.9
  0
TEXT
  5
90B
  8
ETC
  6
CONTINUOUS
 62
    61
 10
754.78500590899296
 20
530.37593784135936
 30
0.0
 40
50.0
  1
V-604KQ6-BL
 41
0.9
  0
LINE
  5
90C
  8
NOTE
  6
CONTINUOUS
 62
     4
 10
-208.0
 20
-220.0
 30
0.0
 11
-208.0
 21
-180.0
 31
0.0
  0
CIRCLE
  5
90D
  8
SIZE
  6
CONTINUOUS
 62
    30
 39
50.0
 10
-208.0
 20
-780.41605512823855
 30
0.0
 40
6.0
  0
CIRCLE
  5
90E
  8
SIZE
  6
CONTINUOUS
 62
    30
 39
50.0
 10
0.0
 20
-787.66686100000004
 30
0.0
 40
6.0
  0
LINE
  5
90F
  8
SIZE
  6
CONTINUOUS
 10
-208.0
 20
-240.0
 30
0.0
 11
-208.0
 21
-800.41605512823855
 31
0.0
  0
LINE
  5
910
  8
SIZE
  6
CONTINUOUS
 10
-0.0000000000000012
 20
-620.0
 30
0.0
 11
-0.0000000000000123
 21
-800.41605512823855
 31
0.0
  0
LINE
  5
911
  8
SIZE
  6
CONTINUOUS
 10
-208.0
 20
-780.41605512823855
 30
0.0
 11
-0.000000000000011
 21
-780.41605512823855
 31
0.0
  0
TEXT
  5
912
  8
SIZE
  6
CONTINUOUS
 10
-178.05714285714279
 20
-755.41605512823855
 30
0.0
 40
64.0
  1
208
 41
0.9
  0
LINE
  5
913
  8
DETAIL
  6
PHANTOM
 62
     5
 39
50.0
 10
-320.0
 20
0.0
 30
0.0
 11
-291.0
 21
0.0
 31
0.0
  0
LINE
  5
914
  8
OUTLINE
  6
CONTINUOUS
 62
     3
 39
50.0
 10
-480.0
 20
0.0
 30
0.0
 11
-320.0
 21
0.0
 31
0.0
  0
LINE
  5
915
  8
DETAIL
  6
DASHED
 62
     5
 39
50.0
 10
-320.0
 20
-10.0
 30
0.0
 11
-450.0
 21
-10.0
 31
0.0
  0
LINE
  5
916
  8
DETAIL
  6
PHANTOM
 62
     5
 39
50.0
 10
-450.0
 20
-10.0
 30
0.0
 11
-439.0
 21
0.0
 31
0.0
  0
LINE
  5
919
  8
SIZE
  6
CONTINUOUS
 62
    30
 39
50.0
 10
-332.30050122926878
 20
-10.0
 30
0.0
 11
-1169.329341198207
 21
-10.0
 31
0.0
  0
TEXT
  5
9F7
  8
ETC
  6
CONTINUOUS
 62
    61
 10
754.78500590899296
 20
440.64162016872939
 30
0.0
 40
50.0
  1
V-604KQ7-BL
 41
0.9
  0
ENDSEC
  0
EOF
