  0
SECTION
  2
HEADER
  9
$ACADVER
  1
AC1009
  9
$INSBASE
 10
0.0
 20
0.0
 30
0.0
  9
$EXTMIN
 10
-1587.383802653851
 20
-1081.5042289999981
 30
0.0
  9
$EXTMAX
 10
1699.120898698945
 20
1145.661772944487
 30
50.0
  9
$LIMMIN
 10
-2970.0
 20
-2100.0
  9
$LIMMAX
 10
2970.0
 20
2100.0
  9
$ORTHOMODE
 70
     1
  9
$REGENMODE
 70
     0
  9
$FILLMODE
 70
     1
  9
$QTEXTMODE
 70
     0
  9
$MIRRTEXT
 70
     0
  9
$DRAGMODE
 70
     2
  9
$LTSCALE
 40
20.0
  9
$OSMODE
 70
    32
  9
$ATTMODE
 70
     1
  9
$TEXTSIZE
 40
64.0
  9
$TRACEWID
 40
0.05
  9
$TEXTSTYLE
  7
STANDARD
  9
$CLAYER
  8
ETC
  9
$CELTYPE
  6
CONTINUOUS
  9
$CECOLOR
 62
     5
  9
$DIMSCALE
 40
1.0
  9
$DIMASZ
 40
12.0
  9
$DIMEXO
 40
20.0
  9
$DIMDLI
 40
200.0
  9
$DIMRND
 40
0.0
  9
$DIMDLE
 40
0.0
  9
$DIMEXE
 40
20.0
  9
$DIMTP
 40
0.0
  9
$DIMTM
 40
0.0
  9
$DIMTXT
 40
64.0
  9
$DIMCEN
 40
0.09
  9
$DIMTSZ
 40
0.0
  9
$DIMTOL
 70
     0
  9
$DIMLIM
 70
     0
  9
$DIMTIH
 70
     0
  9
$DIMTOH
 70
     0
  9
$DIMSE1
 70
     0
  9
$DIMSE2
 70
     0
  9
$DIMTAD
 70
     1
  9
$DIMZIN
 70
     8
  9
$DIMBLK
  1
NONE
  9
$DIMASO
 70
     1
  9
$DIMSHO
 70
     0
  9
$DIMPOST
  1

  9
$DIMAPOST
  1

  9
$DIMALT
 70
     0
  9
$DIMALTD
 70
     2
  9
$DIMALTF
 40
25.399999999999999
  9
$DIMLFAC
 40
1.0
  9
$DIMTOFL
 70
     1
  9
$DIMTVP
 40
0.0
  9
$DIMTIX
 70
     1
  9
$DIMSOXD
 70
     0
  9
$DIMSAH
 70
     0
  9
$DIMBLK1
  1
NONE
  9
$DIMBLK2
  1
BOXFILLED
  9
$DIMSTYLE
  2
STANDARD
  9
$DIMCLRD
 70
   256
  9
$DIMCLRE
 70
   256
  9
$DIMCLRT
 70
   256
  9
$DIMTFAC
 40
1.0
  9
$DIMGAP
 40
25.0
  9
$LUNITS
 70
     2
  9
$LUPREC
 70
     4
  9
$SKETCHINC
 40
0.1
  9
$FILLETRAD
 40
4.0
  9
$AUNITS
 70
     1
  9
$AUPREC
 70
     3
  9
$MENU
  1
ACAD
  9
$ELEVATION
 40
0.0
  9
$PELEVATION
 40
0.0
  9
$THICKNESS
 40
50.0
  9
$LIMCHECK
 70
     0
  9
$BLIPMODE
 70
     0
  9
$CHAMFERA
 40
0.0
  9
$CHAMFERB
 40
0.0
  9
$SKPOLY
 70
     0
  9
$TDCREATE
 40
2453095.5548665631
  9
$TDUPDATE
 40
2454743.6407387848
  9
$TDINDWG
 40
0.1647677662
  9
$TDUSRTIMER
 40
0.1647672454
  9
$USRTIMER
 70
     1
  9
$ANGBASE
 50
0.0
  9
$ANGDIR
 70
     0
  9
$PDMODE
 70
     3
  9
$PDSIZE
 40
-2.0
  9
$PLINEWID
 40
0.0
  9
$COORDS
 70
     1
  9
$SPLFRAME
 70
     0
  9
$SPLINETYPE
 70
     6
  9
$SPLINESEGS
 70
     8
  9
$ATTDIA
 70
     0
  9
$ATTREQ
 70
     1
  9
$HANDLING
 70
     1
  9
$HANDSEED
  5
AD9
  9
$SURFTAB1
 70
     6
  9
$SURFTAB2
 70
     6
  9
$SURFTYPE
 70
     6
  9
$SURFU
 70
     6
  9
$SURFV
 70
     6
  9
$UCSNAME
  2

  9
$UCSORG
 10
0.0
 20
0.0
 30
0.0
  9
$UCSXDIR
 10
1.0
 20
0.0
 30
0.0
  9
$UCSYDIR
 10
0.0
 20
1.0
 30
0.0
  9
$PUCSNAME
  2

  9
$PUCSORG
 10
0.0
 20
0.0
 30
0.0
  9
$PUCSXDIR
 10
1.0
 20
0.0
 30
0.0
  9
$PUCSYDIR
 10
0.0
 20
1.0
 30
0.0
  9
$USERI1
 70
     0
  9
$USERI2
 70
     0
  9
$USERI3
 70
     0
  9
$USERI4
 70
     0
  9
$USERI5
 70
     0
  9
$USERR1
 40
20.0
  9
$USERR2
 40
0.0
  9
$USERR3
 40
0.0
  9
$USERR4
 40
0.0
  9
$USERR5
 40
0.0
  9
$WORLDVIEW
 70
     1
  9
$SHADEDGE
 70
     3
  9
$SHADEDIF
 70
    70
  9
$TILEMODE
 70
     1
  9
$MAXACTVP
 70
    48
  9
$PLIMCHECK
 70
     0
  9
$PEXTMIN
 10
-1.0000000000000000E+020
 20
-1.0000000000000000E+020
 30
-1.0000000000000000E+020
  9
$PEXTMAX
 10
1.0000000000000000E+020
 20
1.0000000000000000E+020
 30
1.0000000000000000E+020
  9
$PLIMMIN
 10
0.0
 20
0.0
  9
$PLIMMAX
 10
12.0
 20
9.0
  9
$UNITMODE
 70
     0
  9
$VISRETAIN
 70
     0
  9
$PLINEGEN
 70
     0
  9
$PSLTSCALE
 70
     0
  0
ENDSEC
  0
SECTION
  2
TABLES
  0
TABLE
  2
VPORT
 70
     1
  0
VPORT
  2
*ACTIVE
 70
     0
 10
0.0
 20
0.0
 11
1.0
 21
1.0
 12
785.44263815327213
 22
422.29856312407998
 13
0.0
 23
0.0
 14
1.0
 24
1.0
 15
0.0
 25
0.0
 16
0.0
 26
0.0
 36
1.0
 17
0.0
 27
0.0
 37
0.0
 40
1496.8272611849329
 41
1.8033946251768029
 42
50.0
 43
0.0
 44
0.0
 50
0.0
 51
0.0
 71
     0
 72
  1000
 73
     1
 74
     0
 75
     0
 76
     0
 77
     0
 78
     0
  0
ENDTAB
  0
TABLE
  2
LTYPE
 70
     6
  0
LTYPE
  2
CONTINUOUS
 70
     0
  3
実線
 72
    65
 73
     0
 40
0.0
  0
LTYPE
  2
DASHDOT
 70
     0
  3
____ _ ____ _ ____ _ ____ _ ____ _ ____ _ ____
 72
    65
 73
     4
 40
5.5
 49
4.0
 49
-0.6
 49
0.3
 49
-0.6
  0
LTYPE
  2
DASHED
 70
     0
  3
-- -- -- -- -- -- -- -- -- -- -- -- -- -- --
 72
    65
 73
     2
 40
0.75
 49
0.5
 49
-0.25
  0
LTYPE
  2
CONTINOUS
 70
     0
  3
Solid line
 72
    65
 73
     0
 40
0.0
  0
LTYPE
  2
PHANTOM
 70
     0
  3
Phantom ______  __  __  ______  __  __  ______
 72
    65
 73
     6
 40
2.5
 49
1.25
 49
-0.25
 49
0.25
 49
-0.25
 49
0.25
 49
-0.25
  0
ENDTAB
  0
TABLE
  2
LAYER
 70
    12
  0
LAYER
  2
0
 70
     0
 62
     7
  6
CONTINUOUS
  0
LAYER
  2
DETAIL
 70
     0
 62
     5
  6
CONTINUOUS
  0
LAYER
  2
OUTLINE
 70
     0
 62
     3
  6
CONTINUOUS
  0
LAYER
  2
NOTE
 70
     0
 62
     4
  6
CONTINUOUS
  0
LAYER
  2
SIZE
 70
     0
 62
    30
  6
CONTINUOUS
  0
LAYER
  2
BASIS
 70
     0
 62
     6
  6
DASHDOT
  0
LAYER
  2
ARRANGE
 70
     0
 62
     1
  6
CONTINUOUS
  0
LAYER
  2
DEFPOINTS
 70
     0
 62
     7
  6
CONTINUOUS
  0
LAYER
  2
ETC
 70
     0
 62
    61
  6
CONTINUOUS
  0
LAYER
  2
FIX
 70
     0
 62
    11
  6
CONTINUOUS
  0
LAYER
  2
SERVICESPACE
 70
     0
 62
     2
  6
DASHDOT
  0
LAYER
  2
SYMBOLLINE
 70
     0
 62
    15
  6
CONTINUOUS
  0
ENDTAB
  0
TABLE
  2
STYLE
 70
     3
  0
STYLE
  2
STANDARD
 70
     0
 40
64.0
 41
0.9
 50
0.0
 71
     0
 42
64.0
  3
SIMPLEX.shx
  4
BIGFONT.shx
  0
STYLE
  2
ANNOTATIVE
 70
     0
 40
0.0
 41
1.0
 50
0.0
 71
     0
 42
0.2
  3
txt
  4

  0
STYLE
  2

 70
     1
 40
0.0
 41
1.0
 50
0.0
 71
     0
 42
64.0
  3
ltypeshp.shx
  4

  0
ENDTAB
  0
TABLE
  2
VIEW
 70
     1
  0
VIEW
  2
ALL
 70
     0
 40
4282.6198079999967
 10
0.0
 20
41.309903999999989
 41
5940.0
 11
0.0
 21
0.0
 31
1.0
 12
0.0
 22
0.0
 32
0.0
 42
50.0
 43
0.0
 44
0.0
 50
0.0
 71
     0
  0
ENDTAB
  0
TABLE
  2
UCS
 70
     0
  0
ENDTAB
  0
TABLE
  2
APPID
 70
     5
  0
APPID
  2
ACAD
 70
     0
  0
APPID
  2
ACADANNOTATIVE
 70
     0
  0
APPID
  2
ACAD_MLEADERVER
 70
     0
  0
APPID
  2
AUTOCAD_POSTSCRIPT_FIGURE
 70
     0
  0
APPID
  2
ACAD_EXEMPT_FROM_CAD_STANDARDS
 70
     0
  0
ENDTAB
  0
TABLE
  2
DIMSTYLE
 70
     2
  0
DIMSTYLE
  2
STANDARD
 70
     0
  3

  4

  5

  6

  7

 40
1.0
 41
0.18
 42
0.0625
 43
0.38
 44
0.18
 45
0.0
 46
0.0
 47
0.0
 48
0.0
140
0.18
141
0.09
142
0.0
143
25.399999999999999
144
1.0
145
0.0
146
1.0
147
0.09
 71
     0
 72
     0
 73
     1
 74
     1
 75
     0
 76
     0
 77
     0
 78
     0
170
     0
171
     2
172
     0
173
     0
174
     0
175
     0
176
     7
177
     7
178
     7
  0
DIMSTYLE
  2
ANNOTATIVE
 70
     0
  3

  4

  5

  6

  7

 40
1.0
 41
0.18
 42
0.0625
 43
0.38
 44
0.18
 45
0.0
 46
0.0
 47
0.0
 48
0.0
140
0.18
141
0.09
142
0.0
143
25.399999999999999
144
1.0
145
0.0
146
1.0
147
0.09
 71
     0
 72
     0
 73
     1
 74
     1
 75
     0
 76
     0
 77
     0
 78
     0
170
     0
171
     2
172
     0
173
     0
174
     0
175
     0
176
     0
177
     0
178
     0
  0
ENDTAB
  0
ENDSEC
  0
SECTION
  2
BLOCKS
  0
BLOCK
  8
0
  2
$MODEL_SPACE
 70
     0
 10
0.0
 20
0.0
 30
0.0
  3
$MODEL_SPACE
  1

  0
ENDBLK
  5
A77
  8
0
  0
BLOCK
 67
     1
  8
0
  2
$PAPER_SPACE
 70
     0
 10
0.0
 20
0.0
 30
0.0
  3
$PAPER_SPACE
  1

  0
ENDBLK
  5
A73
 67
     1
  8
0
  0
BLOCK
  8
0
  2
DOT1
 70
     0
 10
0.0
 20
0.0
 30
0.0
  3
DOT1
  1

  0
CIRCLE
  5
86F
  8
SIZE
  6
CONTINUOUS
 62
     7
 10
0.0
 20
0.0
 30
0.0
 40
3.0
  0
ENDBLK
  5
870
  8
0
  0
BLOCK
  8
0
  2
_ORIGIN
 70
     0
 10
0.0
 20
0.0
 30
0.0
  3
_ORIGIN
  1

  0
CIRCLE
  5
873
  8
0
  6
CONTINUOUS
 62
     7
 10
0.0
 20
0.0
 30
0.0
 40
0.5
  0
LINE
  5
874
  8
0
  6
CONTINUOUS
 62
     7
 10
0.0
 20
0.0
 30
0.0
 11
-1.0
 21
0.0
 31
0.0
  0
ENDBLK
  5
875
  8
0
  0
BLOCK
  8
0
 62
    30
  2
_NONE
 70
     0
 10
0.0
 20
0.0
 30
0.0
  3
_NONE
  1

  0
ENDBLK
  5
878
  8
0
 62
    30
  0
BLOCK
  8
0
 62
    30
  2
_OPEN30
 70
     0
 10
0.0
 20
0.0
 30
0.0
  3
_OPEN30
  1

  0
LINE
  5
87B
  8
0
  6
BYBLOCK
 62
     0
 10
-1.0
 20
0.26794919
 30
0.0
 11
0.0
 21
0.0
 31
0.0
  0
LINE
  5
87C
  8
0
  6
BYBLOCK
 62
     0
 10
0.0
 20
0.0
 30
0.0
 11
-1.0
 21
-0.26794919
 31
0.0
  0
LINE
  5
87D
  8
0
  6
BYBLOCK
 62
     0
 10
0.0
 20
0.0
 30
0.0
 11
-1.0
 21
0.0
 31
0.0
  0
ENDBLK
  5
87E
  8
0
 62
    30
  0
BLOCK
  8
0
 62
    30
  2
_BOXFILLED
 70
     0
 10
0.0
 20
0.0
 30
0.0
  3
_BOXFILLED
  1

  0
SOLID
  5
881
  8
0
  6
BYBLOCK
 62
     0
 10
-0.5
 20
0.5
 30
0.0
 11
0.5
 21
0.5
 31
0.0
 12
-0.5
 22
-0.5
 32
0.0
 13
0.5
 23
-0.5
 33
0.0
  0
LINE
  5
882
  8
0
  6
BYBLOCK
 62
     0
 10
-0.5
 20
0.0
 30
0.0
 11
-1.0
 21
0.0
 31
0.0
  0
ENDBLK
  5
883
  8
0
 62
    30
  0
ENDSEC
  0
SECTION
  2
ENTITIES
  0
LINE
  5
884
  8
DETAIL
  6
CONTINUOUS
 62
     5
 10
300.0
 20
-200.0
 30
0.0
 11
300.0
 21
0.0
 31
0.0
  0
LINE
  5
885
  8
DETAIL
  6
CONTINUOUS
 62
     5
 10
-300.0
 20
0.0
 30
0.0
 11
300.0
 21
0.0
 31
0.0
  0
LINE
  5
886
  8
BASIS
  6
DASHDOT
 62
     6
 10
0.0
 20
-671.94006799999966
 30
0.0
 11
0.0
 21
91.970927000000003
 31
0.0
  0
LINE
  5
887
  8
DETAIL
  6
CONTINOUS
 62
     5
 10
300.0
 20
-600.0
 30
0.0
 11
300.0
 21
-200.0
 31
0.0
  0
LINE
  5
888
  8
DETAIL
  6
CONTINOUS
 62
     5
 10
300.0
 20
-200.0
 30
0.0
 11
-300.0
 21
-200.0
 31
0.0
  0
LINE
  5
889
  8
DETAIL
  6
CONTINOUS
 62
     5
 10
-300.0
 20
-600.0
 30
0.0
 11
-300.0
 21
0.0
 31
0.0
  0
LINE
  5
88A
  8
DETAIL
  6
CONTINOUS
 62
     5
 10
300.0
 20
-600.0
 30
0.0
 11
-300.0
 21
-600.0
 31
0.0
  0
LINE
  5
88B
  8
DETAIL
  6
CONTINOUS
 62
     5
 10
280.0
 20
-600.0
 30
0.0
 11
280.0
 21
-200.0
 31
0.0
  0
LINE
  5
88C
  8
DETAIL
  6
CONTINOUS
 62
     5
 10
-280.0
 20
-600.0
 30
0.0
 11
-280.0
 21
-200.0
 31
0.0
  0
TEXT
  5
88D
  8
NOTE
  6
CONTINUOUS
 62
     4
 10
27.64819000000001
 20
59.512960999999997
 30
0.0
 40
64.0
  1
OA
 41
0.9
  0
LINE
  5
88E
  8
SIZE
  6
CONTINUOUS
 62
    30
 10
-300.0
 20
-620.0
 30
0.0
 11
-300.0
 21
-1081.5042289999981
 31
0.0
  0
LINE
  5
88F
  8
SIZE
  6
CONTINUOUS
 62
    30
 10
300.0
 20
-620.0
 30
0.0
 11
300.0
 21
-1081.5042289999981
 31
0.0
  0
LINE
  5
890
  8
SIZE
  6
CONTINUOUS
 62
    30
 10
-288.0
 20
-1061.5042289999999
 30
0.0
 11
288.0
 21
-1061.5042289999999
 31
0.0
  0
TEXT
  5
891
  8
SIZE
  6
CONTINUOUS
 62
    30
 10
-70.996839857142845
 20
-1036.504228999999
 30
0.0
 40
64.0
  1
600
 41
0.9
 72
     1
 11
3.0603029999999962
 21
-1036.504228999999
 31
0.0
  0
CIRCLE
  5
892
  8
SIZE
  6
CONTINUOUS
 62
    30
 10
-300.0
 20
-1061.5042289999999
 30
0.0
 40
6.0
  0
LINE
  5
893
  8
SIZE
  6
CONTINUOUS
 62
    30
 10
-300.0
 20
-1061.5042289999999
 30
0.0
 11
-288.0
 21
-1061.5042289999999
 31
0.0
  0
CIRCLE
  5
894
  8
SIZE
  6
CONTINUOUS
 62
    30
 10
300.0
 20
-1061.5042289999999
 30
0.0
 40
6.0
  0
LINE
  5
895
  8
SIZE
  6
CONTINUOUS
 62
    30
 10
300.0
 20
-1061.5042289999999
 30
0.0
 11
288.0
 21
-1061.5042289999999
 31
0.0
  0
CIRCLE
  5
896
  8
ARRANGE
  6
CONTINUOUS
 62
     1
 10
0.0
 20
0.0
 30
0.0
 40
40.0
  0
TEXT
  5
897
  8
NOTE
  6
CONTINUOUS
 62
     4
 10
-48.433064000000002
 20
-273.64899799999989
 30
0.0
 40
64.0
  1
EA
 41
0.9
  0
LINE
  5
898
  8
NOTE
  6
CONTINUOUS
 62
     4
 10
-240.0
 20
-220.0
 30
0.0
 11
-240.0
 21
-180.0
 31
0.0
  0
LINE
  5
899
  8
NOTE
  6
CONTINUOUS
 62
     4
 10
-260.0
 20
-200.0
 30
0.0
 11
-220.0
 21
-200.0
 31
0.0
  0
CIRCLE
  5
89A
  8
FIX
  6
CONTINUOUS
 62
    11
 10
-240.0
 20
-200.0
 30
0.0
 40
12.5
  0
CIRCLE
  5
89B
  8
FIX
  6
CONTINUOUS
 62
    11
 10
240.0
 20
-200.0
 30
0.0
 40
12.5
  0
LINE
  5
89C
  8
NOTE
  6
CONTINUOUS
 62
     4
 10
240.0
 20
-220.0
 30
0.0
 11
240.0
 21
-180.0
 31
0.0
  0
LINE
  5
89D
  8
NOTE
  6
CONTINUOUS
 62
     4
 10
260.0
 20
-200.0
 30
0.0
 11
220.0
 21
-200.0
 31
0.0
  0
LINE
  5
89E
  8
NOTE
  6
CONTINUOUS
 62
     4
 10
-210.0
 20
-200.0
 30
0.0
 11
-176.1628430017353
 21
-200.0
 31
0.0
  0
LINE
  5
89F
  8
NOTE
  6
CONTINUOUS
 62
     4
 10
-425.87021699999991
 20
-423.06198999999981
 30
0.0
 11
-548.381393
 21
-423.06198999999981
 31
0.0
  0
TEXT
  5
8A0
  8
NOTE
  6
CONTINUOUS
 62
     4
 10
-525.76739699999985
 20
-398.15304700000002
 30
0.0
 40
64.0
  1
EL
 41
0.9
  0
CIRCLE
  5
8A1
  8
DETAIL
  6
CONTINUOUS
 62
     5
 10
-240.0
 20
-260.0
 30
0.0
 40
4.0
  0
LINE
  5
8A2
  8
NOTE
  6
CONTINUOUS
 62
     4
 10
-240.0
 20
-280.0
 30
0.0
 11
-240.0
 21
-240.0
 31
0.0
  0
LINE
  5
8A3
  8
NOTE
  6
CONTINUOUS
 62
     4
 10
-260.0
 20
-260.0
 30
0.0
 11
-220.0
 21
-260.0
 31
0.0
  0
CIRCLE
  5
8A4
  8
FIX
  6
CONTINUOUS
 62
    11
 10
-240.0
 20
-260.0
 30
0.0
 40
4.0
  0
CIRCLE
  5
8A5
  8
FIX
  6
CONTINUOUS
 62
    11
 10
-240.0
 20
-495.0
 30
0.0
 40
4.0
  0
LINE
  5
8A6
  8
NOTE
  6
CONTINUOUS
 62
     4
 10
-240.0
 20
-515.0
 30
0.0
 11
-240.0
 21
-475.0
 31
0.0
  0
LINE
  5
8A7
  8
NOTE
  6
CONTINUOUS
 62
     4
 10
-260.0
 20
-495.0
 30
0.0
 11
-220.0
 21
-495.0
 31
0.0
  0
CIRCLE
  5
8A8
  8
DETAIL
  6
CONTINUOUS
 62
     5
 10
-240.0
 20
-495.0
 30
0.0
 40
4.0
  0
CIRCLE
  5
8A9
  8
DETAIL
  6
CONTINUOUS
 62
     5
 10
240.0
 20
-495.0
 30
0.0
 40
4.0
  0
LINE
  5
8AA
  8
NOTE
  6
CONTINUOUS
 62
     4
 10
240.0
 20
-515.0
 30
0.0
 11
240.0
 21
-475.0
 31
0.0
  0
LINE
  5
8AB
  8
NOTE
  6
CONTINUOUS
 62
     4
 10
260.0
 20
-495.0
 30
0.0
 11
220.0
 21
-495.0
 31
0.0
  0
CIRCLE
  5
8AC
  8
FIX
  6
CONTINUOUS
 62
    11
 10
240.0
 20
-495.0
 30
0.0
 40
4.0
  0
CIRCLE
  5
8AD
  8
FIX
  6
CONTINUOUS
 62
    11
 10
240.0
 20
-260.0
 30
0.0
 40
4.0
  0
LINE
  5
8AE
  8
NOTE
  6
CONTINUOUS
 62
     4
 10
240.0
 20
-280.0
 30
0.0
 11
240.0
 21
-240.0
 31
0.0
  0
LINE
  5
8AF
  8
NOTE
  6
CONTINUOUS
 62
     4
 10
260.0
 20
-260.0
 30
0.0
 11
220.0
 21
-260.0
 31
0.0
  0
CIRCLE
  5
8B0
  8
DETAIL
  6
CONTINUOUS
 62
     5
 10
240.0
 20
-260.0
 30
0.0
 40
4.0
  0
LINE
  5
8B1
  8
SIZE
  6
CONTINUOUS
 62
    30
 10
320.0
 20
-600.0
 30
0.0
 11
689.31805099999985
 21
-600.0
 31
0.0
  0
LINE
  5
8B2
  8
SIZE
  6
CONTINUOUS
 62
    30
 10
320.0
 20
-200.0
 30
0.0
 11
689.31805099999985
 21
-200.0
 31
0.0
  0
LINE
  5
8B3
  8
SIZE
  6
CONTINUOUS
 62
    30
 10
669.31805099999985
 20
-588.0
 30
0.0
 11
669.31805099999985
 21
-212.0
 31
0.0
  0
TEXT
  5
8B4
  8
SIZE
  6
CONTINUOUS
 62
    30
 10
644.31805099999985
 20
-474.05714285714282
 30
0.0
 40
64.0
  1
400
 50
90.0
 41
0.9
 72
     1
 11
644.31805099999985
 21
-400.0
 31
0.0
  0
CIRCLE
  5
8B5
  8
SIZE
  6
CONTINUOUS
 62
    30
 10
669.31805099999985
 20
-600.0
 30
0.0
 40
6.0
  0
LINE
  5
8B6
  8
SIZE
  6
CONTINUOUS
 62
    30
 10
669.31805099999985
 20
-600.0
 30
0.0
 11
669.31805099999985
 21
-588.0
 31
0.0
  0
CIRCLE
  5
8B7
  8
SIZE
  6
CONTINUOUS
 62
    30
 10
669.31805099999985
 20
-200.0
 30
0.0
 40
6.0
  0
LINE
  5
8B8
  8
SIZE
  6
CONTINUOUS
 62
    30
 10
669.31805099999985
 20
-200.0
 30
0.0
 11
669.31805099999985
 21
-212.0
 31
0.0
  0
LINE
  5
8B9
  8
SIZE
  6
CONTINUOUS
 62
    30
 10
320.0
 20
-600.0
 30
0.0
 11
933.96615299999985
 21
-600.0
 31
0.0
  0
LINE
  5
8BA
  8
SIZE
  6
CONTINUOUS
 62
    30
 10
320.0
 20
0.0
 30
0.0
 11
933.96615299999985
 21
0.0
 31
0.0
  0
LINE
  5
8BB
  8
SIZE
  6
CONTINUOUS
 62
    30
 10
913.96615299999974
 20
-588.0
 30
0.0
 11
913.96615299999974
 21
-12.0
 31
0.0
  0
TEXT
  5
8BC
  8
SIZE
  6
CONTINUOUS
 62
    30
 10
890.70850099999996
 20
-374.05714285714282
 30
0.0
 40
64.0
  1
600
 50
90.0
 41
0.9
 72
     1
 11
890.70850099999996
 21
-300.0
 31
0.0
  0
CIRCLE
  5
8BD
  8
SIZE
  6
CONTINUOUS
 62
    30
 10
913.96615299999974
 20
-600.0
 30
0.0
 40
6.0
  0
LINE
  5
8BE
  8
SIZE
  6
CONTINUOUS
 62
    30
 10
913.96615299999974
 20
-600.0
 30
0.0
 11
913.96615299999974
 21
-588.0
 31
0.0
  0
CIRCLE
  5
8BF
  8
SIZE
  6
CONTINUOUS
 62
    30
 10
913.96615299999974
 20
0.0
 30
0.0
 40
6.0
  0
LINE
  5
8C0
  8
SIZE
  6
CONTINUOUS
 62
    30
 10
913.96615299999974
 20
0.0
 30
0.0
 11
913.96615299999974
 21
-12.0
 31
0.0
  0
LINE
  5
8C1
  8
SIZE
  6
CONTINUOUS
 62
    30
 10
240.0
 20
-535.0
 30
0.0
 11
240.0
 21
-962.58806700000002
 31
0.0
  0
LINE
  5
8C2
  8
SIZE
  6
CONTINUOUS
 62
    30
 10
-240.0
 20
-535.0
 30
0.0
 11
-240.0
 21
-962.58806700000002
 31
0.0
  0
LINE
  5
8C3
  8
SIZE
  6
CONTINUOUS
 62
    30
 10
228.0
 20
-942.58806699999991
 30
0.0
 11
-228.0
 21
-942.58806699999991
 31
0.0
  0
TEXT
  5
8C4
  8
SIZE
  6
CONTINUOUS
 62
    30
 10
-70.996839857142845
 20
-915.98512599999992
 30
0.0
 40
64.0
  1
480
 41
0.9
 72
     1
 11
3.0603029999999962
 21
-915.98512599999992
 31
0.0
  0
CIRCLE
  5
8C5
  8
SIZE
  6
CONTINUOUS
 62
    30
 10
240.0
 20
-942.58806699999991
 30
0.0
 40
6.0
  0
LINE
  5
8C6
  8
SIZE
  6
CONTINUOUS
 62
    30
 10
240.0
 20
-942.58806699999991
 30
0.0
 11
228.0
 21
-942.58806699999991
 31
0.0
  0
CIRCLE
  5
8C7
  8
SIZE
  6
CONTINUOUS
 62
    30
 10
-240.0
 20
-942.58806699999991
 30
0.0
 40
6.0
  0
LINE
  5
8C8
  8
SIZE
  6
CONTINUOUS
 62
    30
 10
-240.0
 20
-942.58806699999991
 30
0.0
 11
-228.0
 21
-942.58806699999991
 31
0.0
  0
LINE
  5
8C9
  8
SIZE
  6
CONTINUOUS
 62
    30
 10
240.0
 20
-160.0
 30
0.0
 11
240.0
 21
1071.0472879999991
 31
0.0
  0
LINE
  5
8CA
  8
SIZE
  6
CONTINUOUS
 62
    30
 10
-240.0
 20
-160.0
 30
0.0
 11
-240.0
 21
1071.0472879999991
 31
0.0
  0
LINE
  5
8CB
  8
SIZE
  6
CONTINUOUS
 62
    30
 10
228.0
 20
1051.047288
 30
0.0
 11
-228.0
 21
1051.047288
 31
0.0
  0
TEXT
  5
8CC
  8
SIZE
  6
CONTINUOUS
 62
    30
 10
-74.057142857142836
 20
1072.9068339999999
 30
0.0
 40
64.0
  1
480
 41
0.9
 72
     1
 11
0.0
 21
1072.9068339999999
 31
0.0
  0
CIRCLE
  5
8CD
  8
SIZE
  6
CONTINUOUS
 62
    30
 10
240.0
 20
1051.047288
 30
0.0
 40
6.0
  0
LINE
  5
8CE
  8
SIZE
  6
CONTINUOUS
 62
    30
 10
240.0
 20
1051.047288
 30
0.0
 11
228.0
 21
1051.047288
 31
0.0
  0
CIRCLE
  5
8CF
  8
SIZE
  6
CONTINUOUS
 62
    30
 10
-240.0
 20
1051.047288
 30
0.0
 40
6.0
  0
LINE
  5
8D0
  8
SIZE
  6
CONTINUOUS
 62
    30
 10
-240.0
 20
1051.047288
 30
0.0
 11
-228.0
 21
1051.047288
 31
0.0
  0
LINE
  5
8D1
  8
SIZE
  6
CONTINUOUS
 62
    30
 10
-320.0
 20
-600.0
 30
0.0
 11
-602.69604200000003
 21
-600.0
 31
0.0
  0
LINE
  5
8D2
  8
SIZE
  6
CONTINUOUS
 62
    30
 10
-280.0
 20
-495.0
 30
0.0
 11
-602.69604200000003
 21
-495.0
 31
0.0
  0
LINE
  5
8D3
  8
SIZE
  6
CONTINUOUS
 62
    30
 10
-582.69604200000003
 20
-588.0
 30
0.0
 11
-582.69604200000003
 21
-507.0
 31
0.0
  0
LINE
  5
8D4
  8
SIZE
  6
CONTINUOUS
 62
    30
 10
-582.69604200000003
 20
-815.21607400000005
 30
0.0
 11
-582.69604200000003
 21
-600.0
 31
0.0
  0
TEXT
  5
8D5
  8
SIZE
  6
CONTINUOUS
 62
    30
 10
-607.69604200000003
 20
-790.21607357142841
 30
0.0
 40
64.0
  1
105
 50
90.0
 41
0.9
 72
     1
 11
-607.69604200000003
 21
-721.64464499999985
 31
0.0
  0
CIRCLE
  5
8D6
  8
SIZE
  6
CONTINUOUS
 62
    30
 10
-582.69604200000003
 20
-600.0
 30
0.0
 40
6.0
  0
LINE
  5
8D7
  8
SIZE
  6
CONTINUOUS
 62
    30
 10
-582.69604200000003
 20
-600.0
 30
0.0
 11
-582.69604200000003
 21
-588.0
 31
0.0
  0
CIRCLE
  5
8D8
  8
SIZE
  6
CONTINUOUS
 62
    30
 10
-582.69604200000003
 20
-495.0
 30
0.0
 40
6.0
  0
LINE
  5
8D9
  8
SIZE
  6
CONTINUOUS
 62
    30
 10
-582.69604200000003
 20
-495.0
 30
0.0
 11
-582.69604200000003
 21
-507.0
 31
0.0
  0
LINE
  5
8DA
  8
SIZE
  6
CONTINUOUS
 62
    30
 10
-320.0
 20
-600.0
 30
0.0
 11
-662.39891900000021
 21
-600.0
 31
0.0
  0
LINE
  5
8DB
  8
SIZE
  6
CONTINUOUS
 62
    30
 10
-280.0
 20
-260.0
 30
0.0
 11
-662.39891900000021
 21
-260.0
 31
0.0
  0
LINE
  5
8DC
  8
SIZE
  6
CONTINUOUS
 62
    30
 10
-642.39891900000021
 20
-588.0
 30
0.0
 11
-642.39891900000021
 21
-272.0
 31
0.0
  0
CIRCLE
  5
8DD
  8
SIZE
  6
CONTINUOUS
 62
    30
 10
-642.39891900000021
 20
-600.0
 30
0.0
 40
6.0
  0
LINE
  5
8DE
  8
SIZE
  6
CONTINUOUS
 62
    30
 10
-642.39891900000021
 20
-600.0
 30
0.0
 11
-642.39891900000021
 21
-588.0
 31
0.0
  0
CIRCLE
  5
8DF
  8
SIZE
  6
CONTINUOUS
 62
    30
 10
-642.39891900000021
 20
-260.0
 30
0.0
 40
6.0
  0
LINE
  5
8E0
  8
SIZE
  6
CONTINUOUS
 62
    30
 10
-642.39891900000021
 20
-260.0
 30
0.0
 11
-642.39891900000021
 21
-272.0
 31
0.0
  0
TEXT
  5
8E1
  8
SIZE
  6
CONTINUOUS
 62
    30
 10
-667.39891900000021
 20
-504.05714285714282
 30
0.0
 40
64.0
  1
340
 50
90.0
 41
0.9
 72
     1
 11
-667.39891900000021
 21
-430.0
 31
0.0
  0
LINE
  5
8E2
  8
DETAIL
  6
DASHED
 62
     5
 10
-280.0
 20
-10.0
 30
0.0
 11
-109.0
 21
-10.0
 31
0.0
  0
TEXT
  5
8E3
  8
NOTE
  6
CONTINUOUS
 62
     4
 10
122.1108649999999
 20
584.51269999999965
 30
0.0
 40
64.0
  1
上部給気接続口移動寸法
 41
0.9
  0
TEXT
  5
8E4
  8
NOTE
  6
CONTINUOUS
 62
     4
 10
494.37732199999988
 20
-756.89069800000004
 30
0.0
 40
64.0
  1
4-φ8
 41
0.9
  0
LINE
  5
8E5
  8
NOTE
  6
CONTINUOUS
 62
     4
 10
758.49890599999981
 20
-781.79964099999984
 30
0.0
 11
477.20857099999989
 21
-781.79964099999984
 31
0.0
  0
LINE
  5
8E6
  8
NOTE
  6
CONTINUOUS
 62
     4
 10
240.0
 20
-495.0
 30
0.0
 11
477.20857099999989
 21
-781.79964099999984
 31
0.0
  0
LINE
  5
8E7
  8
NOTE
  6
CONTINUOUS
 62
     4
 10
273.01901099999992
 20
-517.57753200000002
 30
0.0
 11
240.0
 21
-495.0
 31
0.0
  0
LINE
  5
8E8
  8
NOTE
  6
CONTINUOUS
 62
     4
 10
240.0
 20
-495.0
 30
0.0
 11
257.30653599999999
 21
-531.06222199999991
 31
0.0
  0
LINE
  5
8E9
  8
NOTE
  6
CONTINUOUS
 62
     4
 10
-204.3116670586468
 20
-233.3678059295996
 30
0.0
 11
-192.0
 21
-200.0
 31
0.0
  0
LINE
  5
8EA
  8
NOTE
  6
CONTINUOUS
 62
     4
 10
-192.0
 20
-200.0
 30
0.0
 11
-228.43922175300651
 21
-217.28907033556689
 31
0.0
  0
TEXT
  5
8EB
  8
NOTE
  6
CONTINUOUS
 62
     4
 10
515.809575
 20
253.16843299999999
 30
0.0
 40
64.0
  1
後部左側給気接続口
 41
0.9
  0
LINE
  5
8EC
  8
NOTE
  6
CONTINUOUS
 62
     4
 10
243.16497799999991
 20
-39.893554999999999
 30
0.0
 11
503.07658399999991
 21
232.76886099999999
 31
0.0
  0
LINE
  5
8ED
  8
NOTE
  6
CONTINUOUS
 62
     4
 10
276.99842499999983
 20
-18.555845000000001
 30
0.0
 11
243.16497799999991
 21
-39.893554999999999
 31
0.0
  0
LINE
  5
8EE
  8
NOTE
  6
CONTINUOUS
 62
     4
 10
243.16497799999991
 20
-39.893554999999999
 30
0.0
 11
261.79674699999998
 21
-4.4978319999999981
 31
0.0
  0
LINE
  5
8EF
  8
SIZE
  6
CONTINUOUS
 62
    30
 10
278.0
 20
934.62615399999981
 30
0.0
 11
508.14640999999989
 21
934.62615399999981
 31
0.0
  0
TEXT
  5
8F0
  8
NOTE
  6
CONTINUOUS
 62
     4
 10
320.78023300000001
 20
830.51852199999985
 30
0.0
 40
64.0
  1
チャンバー移動寸法
 41
0.9
  0
TEXT
  5
8F1
  8
NOTE
  6
CONTINUOUS
 62
     4
 10
20.021764000000001
 20
341.09803099999982
 30
0.0
 40
64.0
  1
ダクト接続口可動寸法
 41
0.9
  0
LINE
  5
8F2
  8
BASIS
  6
DASHDOT
 62
     6
 10
-80.0
 20
9.2055530000000001
 30
0.0
 11
-80.0
 21
73.850234999999984
 31
0.0
  0
LINE
  5
8F3
  8
BASIS
  6
DASHDOT
 62
     6
 10
80.0
 20
9.2055530000000001
 30
0.0
 11
80.0
 21
73.850234999999984
 31
0.0
  0
LINE
  5
8F4
  8
DETAIL
  6
DASHED
 62
     5
 10
-280.0
 20
-200.0
 30
0.0
 11
-280.0
 21
-10.0
 31
0.0
  0
LINE
  5
8F5
  8
DETAIL
  6
PHANTOM
 62
     5
 10
280.0
 20
-10.0
 30
0.0
 11
120.0
 21
-10.0
 31
0.0
  0
LINE
  5
8F6
  8
SIZE
  6
CONTINUOUS
 62
    30
 10
320.0
 20
-600.0
 30
0.0
 11
814.99520399999983
 21
-600.0
 31
0.0
  0
LINE
  5
8F7
  8
SIZE
  6
CONTINUOUS
 62
    30
 10
304.95735000000002
 20
-100.0
 30
0.0
 11
814.99520399999983
 21
-100.0
 31
0.0
  0
LINE
  5
8F8
  8
SIZE
  6
CONTINUOUS
 62
    30
 10
794.99520399999983
 20
-588.0
 30
0.0
 11
794.99520399999983
 21
-112.0
 31
0.0
  0
CIRCLE
  5
8F9
  8
SIZE
  6
CONTINUOUS
 62
    30
 10
794.99520399999983
 20
-600.0
 30
0.0
 40
6.0
  0
LINE
  5
8FA
  8
SIZE
  6
CONTINUOUS
 62
    30
 10
794.99520399999983
 20
-600.0
 30
0.0
 11
794.99520399999983
 21
-588.0
 31
0.0
  0
CIRCLE
  5
8FB
  8
SIZE
  6
CONTINUOUS
 62
    30
 10
794.99520399999983
 20
-100.0
 30
0.0
 40
6.0
  0
LINE
  5
8FC
  8
SIZE
  6
CONTINUOUS
 62
    30
 10
794.99520399999983
 20
-100.0
 30
0.0
 11
794.99520399999983
 21
-112.0
 31
0.0
  0
TEXT
  5
8FD
  8
SIZE
  6
CONTINUOUS
 62
    30
 10
769.99520399999983
 20
-424.05714285714282
 30
0.0
 40
64.0
  1
500
 50
90.0
 41
0.9
 72
     1
 11
769.99520399999983
 21
-350.0
 31
0.0
  0
LINE
  5
8FE
  8
SIZE
  6
CONTINUOUS
 62
    30
 10
300.0
 20
-10.0
 30
0.0
 11
689.31805099999985
 21
-10.0
 31
0.0
  0
LINE
  5
8FF
  8
SIZE
  6
CONTINUOUS
 62
    30
 10
174.0
 20
45.0
 30
0.0
 11
689.31805099999985
 21
45.0
 31
0.0
  0
LINE
  5
900
  8
SIZE
  6
CONTINUOUS
 62
    30
 10
669.31805099999985
 20
-22.0
 30
0.0
 11
669.31805099999985
 21
-34.0
 31
0.0
  0
LINE
  5
901
  8
SIZE
  6
CONTINUOUS
 62
    30
 10
669.31805099999985
 20
57.0
 30
0.0
 11
669.31805099999985
 21
69.0
 31
0.0
  0
LINE
  5
902
  8
SIZE
  6
CONTINUOUS
 62
    30
 10
669.31805099999985
 20
214.49688999999981
 30
0.0
 11
669.31805099999985
 21
45.0
 31
0.0
  0
TEXT
  5
903
  8
SIZE
  6
CONTINUOUS
 62
    30
 10
644.31805099999985
 20
96.239746571428483
 30
0.0
 40
64.0
  1
55
 50
90.0
 41
0.9
 72
     1
 11
644.31805099999985
 21
142.8683179999999
 31
0.0
  0
LINE
  5
904
  8
SIZE
  6
CONTINUOUS
 62
    30
 10
669.31805099999985
 20
-10.0
 30
0.0
 11
669.31805099999985
 21
45.0
 31
0.0
  0
LINE
  5
905
  8
SIZE
  6
CONTINUOUS
 62
    30
 10
669.31805099999985
 20
-10.0
 30
0.0
 11
669.31805099999985
 21
45.0
 31
0.0
  0
CIRCLE
  5
906
  8
SIZE
  6
CONTINUOUS
 62
    30
 10
669.31805099999985
 20
-10.0
 30
0.0
 40
6.0
  0
LINE
  5
907
  8
SIZE
  6
CONTINUOUS
 62
    30
 10
669.31805099999985
 20
-10.0
 30
0.0
 11
669.31805099999985
 21
-22.0
 31
0.0
  0
CIRCLE
  5
908
  8
SIZE
  6
CONTINUOUS
 62
    30
 10
669.31805099999985
 20
45.0
 30
0.0
 40
6.0
  0
LINE
  5
909
  8
SIZE
  6
CONTINUOUS
 62
    30
 10
669.31805099999985
 20
45.0
 30
0.0
 11
669.31805099999985
 21
57.0
 31
0.0
  0
TEXT
  5
90A
  8
NOTE
  6
CONTINUOUS
 62
     4
 10
-926.43517999999995
 20
122.8229849999999
 30
0.0
 40
64.0
  1
AH 2-φ25
 41
0.9
  0
LINE
  5
90B
  8
NOTE
  6
CONTINUOUS
 62
     4
 10
-240.0
 20
-200.0
 30
0.0
 11
-451.86243499999989
 21
84.508191999999966
 31
0.0
  0
LINE
  5
90C
  8
NOTE
  6
CONTINUOUS
 62
     4
 10
-451.86243499999989
 20
84.508191999999966
 30
0.0
 11
-955.856359
 21
84.508191999999966
 31
0.0
  0
LINE
  5
90D
  8
NOTE
  6
CONTINUOUS
 62
     4
 10
-270.73765400000002
 20
-174.40319099999991
 30
0.0
 11
-240.0
 21
-200.0
 31
0.0
  0
LINE
  5
90E
  8
NOTE
  6
CONTINUOUS
 62
     4
 10
-240.0
 20
-200.0
 30
0.0
 11
-253.82118500000001
 21
-162.463686
 31
0.0
  0
LINE
  5
90F
  8
SIZE
  6
CONTINUOUS
 62
    30
 10
-320.0
 20
-200.0
 30
0.0
 11
-662.51648799999975
 21
-200.0
 31
0.0
  0
LINE
  5
910
  8
SIZE
  6
CONTINUOUS
 62
    30
 10
-300.0
 20
-10.0
 30
0.0
 11
-662.51648799999975
 21
-10.0
 31
0.0
  0
LINE
  5
911
  8
SIZE
  6
CONTINUOUS
 62
    30
 10
-642.51648799999975
 20
-188.0
 30
0.0
 11
-642.51648799999975
 21
-22.0
 31
0.0
  0
CIRCLE
  5
912
  8
SIZE
  6
CONTINUOUS
 62
    30
 10
-642.51648799999975
 20
-200.0
 30
0.0
 40
6.0
  0
LINE
  5
913
  8
SIZE
  6
CONTINUOUS
 62
    30
 10
-642.51648799999975
 20
-200.0
 30
0.0
 11
-642.51648799999975
 21
-188.0
 31
0.0
  0
CIRCLE
  5
914
  8
SIZE
  6
CONTINUOUS
 62
    30
 10
-642.51648799999975
 20
-10.0
 30
0.0
 40
6.0
  0
LINE
  5
915
  8
SIZE
  6
CONTINUOUS
 62
    30
 10
-642.51648799999975
 20
-10.0
 30
0.0
 11
-642.51648799999975
 21
-22.0
 31
0.0
  0
TEXT
  5
916
  8
SIZE
  6
CONTINUOUS
 62
    30
 10
-667.51648799999975
 20
-173.5714285714285
 30
0.0
 40
64.0
  1
190
 50
90.0
 41
0.9
 72
     1
 11
-667.51648799999975
 21
-105.0
 31
0.0
  0
TEXT
  5
917
  8
NOTE
  6
CONTINUOUS
 62
     4
 10
-824.91459299999985
 20
548.28722600000003
 30
0.0
 40
64.0
  1
上部給気接続口
 41
0.9
  0
LINE
  5
918
  8
NOTE
  6
CONTINUOUS
 62
     4
 10
-339.85077699999999
 20
518.13247399999989
 30
0.0
 11
-828.31400999999983
 21
518.13247399999989
 31
0.0
  0
LINE
  5
919
  8
NOTE
  6
CONTINUOUS
 62
     4
 10
-339.85077699999999
 20
518.13247399999989
 30
0.0
 11
-100.91641
 21
45.0
 31
0.0
  0
LINE
  5
91A
  8
NOTE
  6
CONTINUOUS
 62
     4
 10
-0.07628
 20
68.663013000000007
 30
0.0
 11
32.173709000000009
 21
45.0
 31
0.0
  0
LINE
  5
91B
  8
NOTE
  6
CONTINUOUS
 62
     4
 10
32.173709000000009
 20
45.0
 30
0.0
 11
16.075905999999989
 21
81.617765000000006
 31
0.0
  0
LINE
  5
91C
  8
NOTE
  6
CONTINUOUS
 62
     4
 10
-126.98487799999999
 20
75.338670999999977
 30
0.0
 11
-100.91641
 21
45.0
 31
0.0
  0
LINE
  5
91D
  8
NOTE
  6
CONTINUOUS
 62
     4
 10
-100.91641
 20
45.0
 30
0.0
 11
-108.32302900000001
 21
84.308293999999975
 31
0.0
  0
LINE
  5
91E
  8
NOTE
  6
CONTINUOUS
 62
     4
 10
503.07658399999991
 20
232.76886099999999
 30
0.0
 11
1139.9206119999981
 21
232.76886099999999
 31
0.0
  0
LINE
  5
91F
  8
NOTE
  6
CONTINUOUS
 62
     4
 10
-477.41706499999998
 20
394.35695499999991
 30
0.0
 11
-977.61066200000005
 21
394.35695499999991
 31
0.0
  0
TEXT
  5
920
  8
NOTE
  6
CONTINUOUS
 62
     4
 10
-953.68904799999996
 20
414.75652700000001
 30
0.0
 40
64.0
  1
後部排気接続口
 41
0.9
  0
LINE
  5
921
  8
SIZE
  6
CONTINUOUS
 62
    30
 39
50.0
 10
508.14640999999989
 20
934.62615399999981
 30
0.0
 11
940.110634
 21
934.62615399999981
 31
0.0
  0
LINE
  5
922
  8
DETAIL
  6
CONTINUOUS
 62
     5
 10
119.0
 20
-195.0
 30
0.0
 11
-119.715074
 21
-195.0
 31
0.0
  0
ARC
  5
923
  8
DETAIL
  6
CONTINUOUS
 62
     5
 10
-119.0
 20
-196.0
 30
0.0
 40
1.0
 50
90.0
 51
180.0
  0
LINE
  5
924
  8
DETAIL
  6
CONTINUOUS
 62
     5
 10
-120.0
 20
-200.0
 30
0.0
 11
-120.0
 21
-196.0
 31
0.0
  0
LINE
  5
925
  8
DETAIL
  6
CONTINUOUS
 62
     5
 10
-109.715074
 20
-195.0
 30
0.0
 11
-119.0
 21
-195.0
 31
0.0
  0
LINE
  5
926
  8
DETAIL
  6
CONTINUOUS
 62
     5
 10
-73.999591000000024
 20
-183.976471
 30
0.0
 11
-73.999591000000024
 21
-145.0
 31
0.0
  0
LINE
  5
927
  8
DETAIL
  6
CONTINUOUS
 62
     5
 10
74.000408999999976
 20
-183.976471
 30
0.0
 11
74.000408999999976
 21
-145.0
 31
0.0
  0
LINE
  5
928
  8
DETAIL
  6
CONTINUOUS
 62
     5
 10
-73.999591000000024
 20
-185.0
 30
0.0
 11
75.125408999999976
 21
-185.0
 31
0.0
  0
ARC
  5
929
  8
DETAIL
  6
CONTINUOUS
 62
     5
 10
-75.399591000000001
 20
-186.64705900000001
 30
0.0
 40
1.6000000000000001
 50
97.152669000000003
 51
180.0
  0
ARC
  5
92A
  8
DETAIL
  6
CONTINUOUS
 62
     5
 10
-86.999590999999995
 20
-189.40000000000001
 30
0.0
 40
10.0
 50
325.94420200000002
 51
0.0
  0
LINE
  5
92B
  8
DETAIL
  6
CONTINUOUS
 62
     5
 10
-76.999590999999981
 20
-189.40000000000001
 30
0.0
 11
-76.999590999999981
 21
-186.64705900000001
 31
0.0
  0
ARC
  5
92C
  8
DETAIL
  6
CONTINUOUS
 62
     5
 10
-74.999591000000024
 20
-183.976471
 30
0.0
 40
1.0
 50
277.15266899999989
 51
0.0
  0
LINE
  5
92D
  8
DETAIL
  6
CONTINUOUS
 62
     5
 10
-74.875078000000002
 20
-184.9686889999999
 30
0.0
 11
-75.598813000000007
 21
-185.0595099999999
 31
0.0
  0
LINE
  5
92E
  8
DETAIL
  6
CONTINUOUS
 62
     5
 10
120.0
 20
-197.0
 30
0.0
 11
120.0
 21
-200.0
 31
0.0
  0
LINE
  5
92F
  8
DETAIL
  6
CONTINUOUS
 62
     5
 10
120.0
 20
-197.0
 30
0.0
 11
120.0
 21
-196.0
 31
0.0
  0
ARC
  5
930
  8
DETAIL
  6
CONTINUOUS
 62
     5
 10
119.0
 20
-196.0
 30
0.0
 40
1.0
 50
0.0
 51
90.0
  0
ARC
  5
931
  8
DETAIL
  6
CONTINUOUS
 62
     5
 10
87.000408999999948
 20
-189.40000000000001
 30
0.0
 40
10.0
 50
180.0
 51
214.05579800000001
  0
LINE
  5
932
  8
DETAIL
  6
CONTINUOUS
 62
     5
 10
74.875895
 20
-184.9686889999999
 30
0.0
 11
75.599630000000005
 21
-185.0595099999999
 31
0.0
  0
ARC
  5
933
  8
DETAIL
  6
CONTINUOUS
 62
     5
 10
75.400408999999982
 20
-186.64705900000001
 30
0.0
 40
1.6000000000000001
 50
0.0
 51
82.847331000000025
  0
ARC
  5
934
  8
DETAIL
  6
CONTINUOUS
 62
     5
 10
75.000408999999976
 20
-183.976471
 30
0.0
 40
1.0
 50
180.0
 51
262.84733099999988
  0
LINE
  5
935
  8
DETAIL
  6
CONTINUOUS
 62
     5
 10
77.000408999999976
 20
-189.40000000000001
 30
0.0
 11
77.000408999999976
 21
-186.64705900000001
 31
0.0
  0
LINE
  5
936
  8
DETAIL
  6
CONTINUOUS
 62
     5
 10
-73.999591000000024
 20
-145.0
 30
0.0
 11
74.000408999999976
 21
-145.0
 31
0.0
  0
CIRCLE
  5
937
  8
DETAIL
  6
PHANTOM
 62
     5
 10
200.0
 20
-100.0
 30
0.0
 40
74.0
  0
LINE
  5
938
  8
DETAIL
  6
PHANTOM
 62
     5
 10
-6.0
 20
5.0
 30
0.0
 11
-6.0
 21
45.0
 31
0.0
  0
LINE
  5
939
  8
DETAIL
  6
PHANTOM
 62
     5
 10
-154.0
 20
5.0
 30
0.0
 11
-154.0
 21
45.0
 31
0.0
  0
LINE
  5
93A
  8
DETAIL
  6
DASHED
 62
     5
 10
-6.0
 20
0.0
 30
0.0
 11
-154.0
 21
0.0
 31
0.0
  0
LINE
  5
93B
  8
DETAIL
  6
DASHED
 62
     5
 10
-171.0
 20
-10.0
 30
0.0
 11
11.0
 21
-10.0
 31
0.0
  0
LINE
  5
93C
  8
DETAIL
  6
PHANTOM
 62
     5
 10
-6.0
 20
45.0
 30
0.0
 11
-154.0
 21
45.0
 31
0.0
  0
LINE
  5
93D
  8
DETAIL
  6
PHANTOM
 62
     5
 10
11.0
 20
-200.0
 30
0.0
 11
11.0
 21
-10.0
 31
0.0
  0
LINE
  5
93E
  8
DETAIL
  6
PHANTOM
 62
     5
 10
-171.0
 20
-200.0
 30
0.0
 11
-171.0
 21
-10.0
 31
0.0
  0
CIRCLE
  5
93F
  8
DETAIL
  6
PHANTOM
 62
     5
 10
-200.0
 20
-100.0
 30
0.0
 40
74.0
  0
LINE
  5
940
  8
DETAIL
  6
PHANTOM
 62
     5
 10
154.0
 20
5.0
 30
0.0
 11
154.0
 21
45.0
 31
0.0
  0
LINE
  5
941
  8
DETAIL
  6
PHANTOM
 62
     5
 10
6.0
 20
5.0
 30
0.0
 11
6.0
 21
45.0
 31
0.0
  0
LINE
  5
942
  8
DETAIL
  6
DASHED
 62
     5
 10
6.0
 20
0.0
 30
0.0
 11
154.0
 21
0.0
 31
0.0
  0
LINE
  5
943
  8
DETAIL
  6
PHANTOM
 62
     5
 10
6.0
 20
45.0
 30
0.0
 11
154.0
 21
45.0
 31
0.0
  0
LINE
  5
944
  8
DETAIL
  6
PHANTOM
 62
     5
 10
171.0
 20
-200.0
 30
0.0
 11
171.0
 21
-10.0
 31
0.0
  0
LINE
  5
945
  8
DETAIL
  6
DASHED
 62
     5
 10
171.0
 20
-10.0
 30
0.0
 11
-11.0
 21
-10.0
 31
0.0
  0
LINE
  5
946
  8
DETAIL
  6
PHANTOM
 62
     5
 10
-11.0
 20
-200.0
 30
0.0
 11
-11.0
 21
-10.0
 31
0.0
  0
LINE
  5
947
  8
SIZE
  6
CONTINUOUS
 62
    30
 10
74.000408999999976
 20
-203.976471
 30
0.0
 11
74.000408999999976
 21
-410.38039500000002
 31
0.0
  0
LINE
  5
948
  8
SIZE
  6
CONTINUOUS
 62
    30
 10
-73.999591000000024
 20
-203.976471
 30
0.0
 11
-73.999591000000024
 21
-410.38039500000002
 31
0.0
  0
LINE
  5
949
  8
SIZE
  6
CONTINUOUS
 62
    30
 10
74.000408999999976
 20
-390.38039500000002
 30
0.0
 11
-73.999591000000024
 21
-390.38039500000002
 31
0.0
  0
CIRCLE
  5
94A
  8
SIZE
  6
CONTINUOUS
 62
    30
 10
74.000408999999976
 20
-390.38039500000002
 30
0.0
 40
6.0
  0
CIRCLE
  5
94B
  8
SIZE
  6
CONTINUOUS
 62
    30
 10
-73.999591000000024
 20
-390.38039500000002
 30
0.0
 40
6.0
  0
TEXT
  5
94C
  8
SIZE
  6
CONTINUOUS
 62
    30
 10
-108.8910195714285
 20
-365.38039500000002
 30
0.0
 40
64.0
  1
φ148
 41
0.9
 72
     1
 11
0.000409
 21
-365.38039500000002
 31
0.0
  0
LINE
  5
94D
  8
SIZE
  6
CONTINUOUS
 62
    30
 10
10.0
 20
-86.66336699999998
 30
0.0
 11
10.0
 21
462.50226799999979
 31
0.0
  0
LINE
  5
94E
  8
SIZE
  6
CONTINUOUS
 62
    30
 10
-10.0
 20
-86.66336699999998
 30
0.0
 11
-10.0
 21
462.50226799999979
 31
0.0
  0
LINE
  5
94F
  8
SIZE
  6
CONTINUOUS
 62
    30
 10
22.0
 20
442.50226799999962
 30
0.0
 11
34.0
 21
442.50226799999962
 31
0.0
  0
LINE
  5
950
  8
SIZE
  6
CONTINUOUS
 62
    30
 10
-22.0
 20
442.50226799999962
 30
0.0
 11
-34.0
 21
442.50226799999962
 31
0.0
  0
LINE
  5
951
  8
SIZE
  6
CONTINUOUS
 62
    30
 10
461.8330219999998
 20
442.50226799999962
 30
0.0
 11
10.0
 21
442.50226799999962
 31
0.0
  0
TEXT
  5
952
  8
SIZE
  6
CONTINUOUS
 62
    30
 10
343.57587957142852
 20
467.50226799999962
 30
0.0
 40
64.0
  1
20
 41
0.9
 72
     1
 11
390.20445099999989
 21
467.50226799999962
 31
0.0
  0
LINE
  5
953
  8
SIZE
  6
CONTINUOUS
 62
    30
 10
10.0
 20
442.50226799999962
 30
0.0
 11
-10.0
 21
442.50226799999962
 31
0.0
  0
LINE
  5
954
  8
SIZE
  6
CONTINUOUS
 62
    30
 10
10.0
 20
442.50226799999962
 30
0.0
 11
-10.0
 21
442.50226799999962
 31
0.0
  0
CIRCLE
  5
955
  8
SIZE
  6
CONTINUOUS
 62
    30
 10
10.0
 20
442.50226799999962
 30
0.0
 40
6.0
  0
LINE
  5
956
  8
SIZE
  6
CONTINUOUS
 62
    30
 10
10.0
 20
442.50226799999962
 30
0.0
 11
22.0
 21
442.50226799999962
 31
0.0
  0
CIRCLE
  5
957
  8
SIZE
  6
CONTINUOUS
 62
    30
 10
-10.0
 20
442.50226799999962
 30
0.0
 40
6.0
  0
LINE
  5
958
  8
SIZE
  6
CONTINUOUS
 62
    30
 10
-10.0
 20
442.50226799999962
 30
0.0
 11
-22.0
 21
442.50226799999962
 31
0.0
  0
LINE
  5
959
  8
SIZE
  6
CONTINUOUS
 62
    30
 10
-80.0
 20
93.850234999999998
 30
0.0
 11
-80.0
 21
682.325917
 31
0.0
  0
LINE
  5
95A
  8
SIZE
  6
CONTINUOUS
 62
    30
 10
80.0
 20
93.850234999999998
 30
0.0
 11
80.0
 21
682.325917
 31
0.0
  0
LINE
  5
95B
  8
SIZE
  6
CONTINUOUS
 62
    30
 10
-68.0
 20
662.32591699999978
 30
0.0
 11
68.0
 21
662.32591699999978
 31
0.0
  0
LINE
  5
95C
  8
SIZE
  6
CONTINUOUS
 62
    30
 10
697.82883099999981
 20
662.32591699999978
 30
0.0
 11
80.0
 21
662.32591699999978
 31
0.0
  0
TEXT
  5
95D
  8
SIZE
  6
CONTINUOUS
 62
    30
 10
535.68597442857128
 20
687.32591699999966
 30
0.0
 40
64.0
  1
160
 41
0.9
 72
     1
 11
604.25740299999995
 21
687.32591699999966
 31
0.0
  0
CIRCLE
  5
95E
  8
SIZE
  6
CONTINUOUS
 62
    30
 10
-80.0
 20
662.32591699999978
 30
0.0
 40
6.0
  0
LINE
  5
95F
  8
SIZE
  6
CONTINUOUS
 62
    30
 10
-80.0
 20
662.32591699999978
 30
0.0
 11
-68.0
 21
662.32591699999978
 31
0.0
  0
CIRCLE
  5
960
  8
SIZE
  6
CONTINUOUS
 62
    30
 10
80.0
 20
662.32591699999978
 30
0.0
 40
6.0
  0
LINE
  5
961
  8
SIZE
  6
CONTINUOUS
 62
    30
 10
80.0
 20
662.32591699999978
 30
0.0
 11
68.0
 21
662.32591699999978
 31
0.0
  0
LINE
  5
962
  8
SIZE
  6
CONTINUOUS
 62
    30
 10
-280.0
 20
10.0
 30
0.0
 11
-280.0
 21
954.62615400000016
 31
0.0
  0
LINE
  5
963
  8
SIZE
  6
CONTINUOUS
 62
    30
 10
120.0
 20
10.0
 30
0.0
 11
120.0
 21
954.62615400000016
 31
0.0
  0
LINE
  5
964
  8
SIZE
  6
CONTINUOUS
 62
    30
 10
-268.0
 20
934.62615399999981
 30
0.0
 11
108.0
 21
934.62615399999981
 31
0.0
  0
CIRCLE
  5
965
  8
SIZE
  6
CONTINUOUS
 62
    30
 10
-280.0
 20
934.62615399999981
 30
0.0
 40
6.0
  0
LINE
  5
966
  8
SIZE
  6
CONTINUOUS
 62
    30
 10
-280.0
 20
934.62615399999981
 30
0.0
 11
-268.0
 21
934.62615399999981
 31
0.0
  0
CIRCLE
  5
967
  8
SIZE
  6
CONTINUOUS
 62
    30
 10
120.0
 20
934.62615399999981
 30
0.0
 40
6.0
  0
LINE
  5
968
  8
SIZE
  6
CONTINUOUS
 62
    30
 10
120.0
 20
934.62615399999981
 30
0.0
 11
108.0
 21
934.62615399999981
 31
0.0
  0
TEXT
  5
969
  8
SIZE
  6
CONTINUOUS
 62
    30
 10
-154.05714285714279
 20
959.62615399999981
 30
0.0
 40
64.0
  1
400
 41
0.9
 72
     1
 11
-80.0
 21
959.62615399999981
 31
0.0
  0
LINE
  5
96A
  8
DETAIL
  6
DASHED
 62
     5
 10
120.0
 20
-200.0
 30
0.0
 11
120.0
 21
-10.0
 31
0.0
  0
LINE
  5
96B
  8
DETAIL
  6
PHANTOM
 62
     5
 10
-120.0
 20
-200.0
 30
0.0
 11
-120.0
 21
-10.0
 31
0.0
  0
LINE
  5
96C
  8
DETAIL
  6
PHANTOM
 62
     5
 10
280.0
 20
-200.0
 30
0.0
 11
280.0
 21
-10.0
 31
0.0
  0
LINE
  5
96D
  8
SIZE
  6
CONTINUOUS
 62
    30
 10
120.0
 20
10.0
 30
0.0
 11
120.0
 21
954.62615400000016
 31
0.0
  0
LINE
  5
96E
  8
SIZE
  6
CONTINUOUS
 62
    30
 10
280.0
 20
10.0
 30
0.0
 11
280.0
 21
954.62615400000016
 31
0.0
  0
LINE
  5
96F
  8
SIZE
  6
CONTINUOUS
 62
    30
 10
132.0
 20
934.62615399999981
 30
0.0
 11
268.0
 21
934.62615399999981
 31
0.0
  0
LINE
  5
970
  8
SIZE
  6
CONTINUOUS
 62
    30
 10
688.20847000000003
 20
934.62615399999981
 30
0.0
 11
280.0
 21
934.62615399999981
 31
0.0
  0
TEXT
  5
971
  8
SIZE
  6
CONTINUOUS
 62
    30
 10
526.0656134285714
 20
959.62615399999981
 30
0.0
 40
64.0
  1
160
 41
0.9
 72
     1
 11
594.63704199999995
 21
959.62615399999981
 31
0.0
  0
CIRCLE
  5
972
  8
SIZE
  6
CONTINUOUS
 62
    30
 10
120.0
 20
934.62615399999981
 30
0.0
 40
6.0
  0
LINE
  5
973
  8
SIZE
  6
CONTINUOUS
 62
    30
 10
120.0
 20
934.62615399999981
 30
0.0
 11
132.0
 21
934.62615399999981
 31
0.0
  0
CIRCLE
  5
974
  8
SIZE
  6
CONTINUOUS
 62
    30
 10
280.0
 20
934.62615399999981
 30
0.0
 40
6.0
  0
LINE
  5
975
  8
SIZE
  6
CONTINUOUS
 62
    30
 10
280.0
 20
934.62615399999981
 30
0.0
 11
268.0
 21
934.62615399999981
 31
0.0
  0
LINE
  5
976
  8
SIZE
  6
CONTINUOUS
 62
    30
 39
50.0
 10
697.82883099999981
 20
662.32591699999978
 30
0.0
 11
888.05794200000003
 21
662.32591699999978
 31
0.0
  0
LINE
  5
977
  8
SIZE
  6
CONTINUOUS
 62
    30
 39
50.0
 10
461.8330219999998
 20
442.50226799999962
 30
0.0
 11
705.27115100000003
 21
442.50226799999962
 31
0.0
  0
LINE
  5
978
  8
SIZE
  6
CONTINUOUS
 62
    30
 10
200.0
 20
5.414755999999997
 30
0.0
 11
200.0
 21
800.12654699999985
 31
0.0
  0
LINE
  5
979
  8
SIZE
  6
CONTINUOUS
 62
    30
 10
-200.0
 20
10.0
 30
0.0
 11
-200.0
 21
800.12654699999985
 31
0.0
  0
LINE
  5
97A
  8
SIZE
  6
CONTINUOUS
 62
    30
 10
188.0
 20
780.12654699999985
 30
0.0
 11
-188.0
 21
780.12654699999985
 31
0.0
  0
CIRCLE
  5
97B
  8
SIZE
  6
CONTINUOUS
 62
    30
 10
200.0
 20
780.12654699999985
 30
0.0
 40
6.0
  0
LINE
  5
97C
  8
SIZE
  6
CONTINUOUS
 62
    30
 10
200.0
 20
780.12654699999985
 30
0.0
 11
188.0
 21
780.12654699999985
 31
0.0
  0
CIRCLE
  5
97D
  8
SIZE
  6
CONTINUOUS
 62
    30
 10
-200.0
 20
780.12654699999985
 30
0.0
 40
6.0
  0
LINE
  5
97E
  8
SIZE
  6
CONTINUOUS
 62
    30
 10
-200.0
 20
780.12654699999985
 30
0.0
 11
-188.0
 21
780.12654699999985
 31
0.0
  0
TEXT
  5
97F
  8
SIZE
  6
CONTINUOUS
 62
    30
 10
-74.05714285714285
 20
805.12654699999985
 30
0.0
 40
64.0
  1
400
 41
0.9
 72
     1
 11
0.0
 21
805.12654699999985
 31
0.0
  0
LINE
  5
980
  8
NOTE
  6
CONTINUOUS
 62
     4
 10
-243.16497799999991
 20
-39.893554999999999
 30
0.0
 11
-477.41706499999998
 21
394.35695499999991
 31
0.0
  0
LINE
  5
981
  8
NOTE
  6
CONTINUOUS
 62
     4
 10
-270.3601359999999
 20
-10.56058099999999
 30
0.0
 11
-243.16497799999991
 21
-39.893554999999999
 31
0.0
  0
LINE
  5
982
  8
NOTE
  6
CONTINUOUS
 62
     4
 10
-243.16497799999991
 20
-39.893554999999999
 30
0.0
 11
-252.0501889999999
 21
-0.8928749999999999
 31
0.0
  0
LINE
  5
983
  8
NOTE
  6
CONTINUOUS
 62
     4
 10
-339.85077699999999
 20
518.13247399999989
 30
0.0
 11
32.173709000000009
 21
45.0
 31
0.0
  0
LINE
  5
984
  8
DETAIL
  6
PHANTOM
 62
     5
 10
154.0
 20
5.0
 30
0.0
 11
6.0
 21
5.0
 31
0.0
  0
LINE
  5
985
  8
DETAIL
  6
PHANTOM
 62
     5
 10
-6.0
 20
5.0
 30
0.0
 11
-154.0
 21
5.0
 31
0.0
  0
LINE
  5
986
  8
DETAIL
  6
PHANTOM
 62
     5
 10
-154.0
 20
5.0
 30
0.0
 11
-164.0
 21
-10.0
 31
0.0
  0
LINE
  5
987
  8
DETAIL
  6
PHANTOM
 62
     5
 10
-6.0
 20
5.0
 30
0.0
 11
4.0
 21
-10.0
 31
0.0
  0
LINE
  5
988
  8
DETAIL
  6
PHANTOM
 62
     5
 10
6.0
 20
5.0
 30
0.0
 11
-4.0
 21
-10.0
 31
0.0
  0
LINE
  5
989
  8
DETAIL
  6
PHANTOM
 62
     5
 10
154.0
 20
5.0
 30
0.0
 11
164.0
 21
-10.0
 31
0.0
  0
LINE
  5
98A
  8
SIZE
  6
CONTINUOUS
 62
    30
 10
-300.0
 20
-10.0
 30
0.0
 11
-541.41691300000002
 21
-10.0
 31
0.0
  0
LINE
  5
98B
  8
SIZE
  6
CONTINUOUS
 62
    30
 10
-174.0
 20
5.0
 30
0.0
 11
-541.41691300000002
 21
5.0
 31
0.0
  0
LINE
  5
98C
  8
SIZE
  6
CONTINUOUS
 62
    30
 10
-521.41691300000002
 20
-22.0
 30
0.0
 11
-521.41691300000002
 21
-34.0
 31
0.0
  0
LINE
  5
98D
  8
SIZE
  6
CONTINUOUS
 62
    30
 10
-521.41691300000002
 20
17.0
 30
0.0
 11
-521.41691300000002
 21
29.0
 31
0.0
  0
LINE
  5
98E
  8
SIZE
  6
CONTINUOUS
 62
    30
 10
-521.41691300000002
 20
-168.80356399999999
 30
0.0
 11
-521.41691300000002
 21
-10.0
 31
0.0
  0
TEXT
  5
98F
  8
SIZE
  6
CONTINUOUS
 62
    30
 10
-546.41691300000002
 20
-143.80356414285669
 30
0.0
 40
64.0
  1
15
 50
90.0
 41
0.9
 72
     1
 11
-546.41691300000002
 21
-102.6607069999996
 31
0.0
  0
LINE
  5
990
  8
SIZE
  6
CONTINUOUS
 62
    30
 10
-521.41691300000002
 20
-10.0
 30
0.0
 11
-521.41691300000002
 21
5.0
 31
0.0
  0
LINE
  5
991
  8
SIZE
  6
CONTINUOUS
 62
    30
 10
-521.41691300000002
 20
-10.0
 30
0.0
 11
-521.41691300000002
 21
5.0
 31
0.0
  0
CIRCLE
  5
992
  8
SIZE
  6
CONTINUOUS
 62
    30
 10
-521.41691300000002
 20
-10.0
 30
0.0
 40
6.0
  0
LINE
  5
993
  8
SIZE
  6
CONTINUOUS
 62
    30
 10
-521.41691300000002
 20
-10.0
 30
0.0
 11
-521.41691300000002
 21
-22.0
 31
0.0
  0
CIRCLE
  5
994
  8
SIZE
  6
CONTINUOUS
 62
    30
 10
-521.41691300000002
 20
5.0
 30
0.0
 40
6.0
  0
LINE
  5
995
  8
SIZE
  6
CONTINUOUS
 62
    30
 10
-521.41691300000002
 20
5.0
 30
0.0
 11
-521.41691300000002
 21
17.0
 31
0.0
  0
LINE
  5
996
  8
SIZE
  6
CONTINUOUS
 62
    30
 10
-300.0
 20
-620.0
 30
0.0
 11
-300.0
 21
-836.09808199999975
 31
0.0
  0
LINE
  5
997
  8
NOTE
  6
CONTINUOUS
 62
     4
 10
-192.0
 20
-200.0
 30
0.0
 11
-425.87021699999991
 21
-423.06198999999981
 31
0.0
  0
TEXT
  5
998
  8
NOTE
  6
CONTINUOUS
 62
     4
 10
-1560.938844999999
 20
283.34564999999998
 30
0.0
 40
64.0
  1
電動給気シャッター連動出力コード
 41
0.9
  0
LINE
  5
999
  8
NOTE
  6
CONTINUOUS
 62
     4
 10
-1570.3418059999999
 20
245.5886459999999
 30
0.0
 11
-478.692162
 21
245.5886459999999
 31
0.0
  0
LINE
  5
99A
  8
NOTE
  6
CONTINUOUS
 62
     4
 10
-162.0
 20
-200.0
 30
0.0
 11
-478.692162
 21
245.5886459999999
 31
0.0
  0
LINE
  5
99B
  8
NOTE
  6
CONTINUOUS
 62
     4
 10
-193.85639284541679
 20
-174.68043508310981
 30
0.0
 11
-162.0
 21
-200.0
 31
0.0
  0
LINE
  5
99C
  8
NOTE
  6
CONTINUOUS
 62
     4
 10
-162.0
 20
-200.0
 30
0.0
 11
-174.55433986778641
 21
-161.01351434175541
 31
0.0
  0
POINT
  5
99D
  8
ARRANGE
  6
CONTINUOUS
 62
     1
 10
0.0
 20
0.0
 30
0.0
  0
LINE
  5
99E
  8
BASIS
  6
DASHDOT
 62
     6
 10
-282.16642699999989
 20
-100.0
 30
0.0
 11
-116.72102699999991
 21
-100.0
 31
0.0
  0
LINE
  5
99F
  8
OUTLINE
  6
CONTINOUS
 62
     3
 10
300.0
 20
-600.0
 30
0.0
 11
-300.0
 21
-600.0
 31
0.0
  0
LINE
  5
9A0
  8
OUTLINE
  6
CONTINUOUS
 62
     3
 10
-300.0
 20
0.0
 30
0.0
 11
300.0
 21
0.0
 31
0.0
  0
LINE
  5
9A1
  8
OUTLINE
  6
CONTINOUS
 62
     3
 10
-300.0
 20
-600.0
 30
0.0
 11
-300.0
 21
0.0
 31
0.0
  0
LINE
  5
9A2
  8
BASIS
  6
DASHDOT
 62
     6
 10
284.95735000000002
 20
-100.0
 30
0.0
 11
117.0426139999999
 21
-100.0
 31
0.0
  0
LINE
  5
9A3
  8
BASIS
  6
DASHDOT
 62
     6
 10
-200.0
 20
-189.012697
 30
0.0
 11
-200.0
 21
-10.0
 31
0.0
  0
LINE
  5
9A4
  8
BASIS
  6
DASHDOT
 62
     6
 10
10.0
 20
-227.60526899999991
 30
0.0
 11
10.0
 21
-106.6633669999995
 31
0.0
  0
LINE
  5
9A5
  8
BASIS
  6
DASHDOT
 62
     6
 10
-10.0
 20
-227.60526899999991
 30
0.0
 11
-10.0
 21
-106.6633669999995
 31
0.0
  0
LINE
  5
9A6
  8
OUTLINE
  6
CONTINUOUS
 62
     3
 10
300.0
 20
-600.0
 30
0.0
 11
300.0
 21
0.0
 31
0.0
  0
LINE
  5
9A7
  8
BASIS
  6
DASHDOT
 62
     6
 10
200.0
 20
-189.83546100000001
 30
0.0
 11
200.0
 21
-14.585243999999991
 31
0.0
  0
LINE
  5
9A8
  8
SIZE
  6
CONTINUOUS
 10
-300.0
 20
-620.0
 30
0.0
 11
-300.0
 21
-840.5535032315729
 31
0.0
  0
TEXT
  5
9A9
  8
ETC
  6
CONTINUOUS
 62
    61
 10
1273.3302683997931
 20
898.11120338664
 30
0.0
 40
50.0
  1
V-604KQ6
 41
0.9
  0
TEXT
  5
9AA
  8
ETC
  6
CONTINUOUS
 62
    61
 10
1131.349470127517
 20
1081.661772944487
 30
0.0
 40
64.0
  1
V-604KQ7_3
 41
0.9
  0
TEXT
  5
9AB
  8
ETC
  6
CONTINUOUS
 62
    61
 10
1127.127502127516
 20
985.17094594448793
 30
0.0
 40
64.0
  1
換気扇
 41
0.9
  0
LINE
  5
9AC
  8
NOTE
  6
CONTINUOUS
 62
     4
 10
-192.0
 20
-220.0
 30
0.0
 11
-192.0
 21
-180.0
 31
0.0
  0
LINE
  5
9AD
  8
NOTE
  6
CONTINUOUS
 62
     4
 10
-162.0
 20
-220.0
 30
0.0
 11
-162.0
 21
-180.0
 31
0.0
  0
LINE
  5
9AE
  8
NOTE
  6
CONTINUOUS
 62
     4
 39
50.0
 10
-176.1628430017353
 20
-200.0
 30
0.0
 11
-145.60126808645961
 21
-200.0
 31
0.0
  0
CIRCLE
  5
9AF
  8
SIZE
  6
CONTINUOUS
 62
    30
 39
50.0
 10
-300.0
 20
-810.99622855097095
 30
0.0
 40
6.0
  0
CIRCLE
  5
9B0
  8
SIZE
  6
CONTINUOUS
 62
    30
 39
50.0
 10
-192.0
 20
-810.99622855097095
 30
0.0
 40
6.0
  0
LINE
  5
9B1
  8
SIZE
  6
CONTINUOUS
 10
-192.0
 20
-240.0
 30
0.0
 11
-192.0
 21
-830.99622855097084
 31
0.0
  0
LINE
  5
9B2
  8
SIZE
  6
CONTINUOUS
 10
-300.0
 20
-620.0
 30
0.0
 11
-300.0
 21
-830.99622855097084
 31
0.0
  0
LINE
  5
9B3
  8
SIZE
  6
CONTINUOUS
 10
-192.0
 20
-810.99622855097095
 30
0.0
 11
-300.0
 21
-810.99622855097095
 31
0.0
  0
LINE
  5
9B4
  8
SIZE
  6
CONTINUOUS
 10
-300.0
 20
-810.99622855097095
 30
0.0
 11
-499.14285714285711
 21
-810.99622855097095
 31
0.0
  0
TEXT
  5
9B5
  8
SIZE
  6
CONTINUOUS
 10
-474.14285714285711
 20
-785.99622855097095
 30
0.0
 40
64.0
  1
108
 41
0.9
  0
TEXT
  5
9B6
  8
NOTE
  6
CONTINUOUS
 62
     4
 10
-1587.383802653851
 20
163.3039275086638
 30
0.0
 40
64.0
  1
接続用コネクター
 41
0.9
  0
LINE
  5
9B7
  8
DETAIL
  6
CONTINUOUS
 62
     5
 39
50.0
 10
-280.0
 20
-200.0
 30
0.0
 11
-280.0
 21
-10.0
 31
0.0
  0
LINE
  5
9B8
  8
DETAIL
  6
CONTINUOUS
 62
     5
 39
50.0
 10
-280.0
 20
-10.0
 30
0.0
 11
120.0
 21
-10.0
 31
0.0
  0
LINE
  5
9B9
  8
DETAIL
  6
CONTINUOUS
 62
     5
 39
50.0
 10
120.0
 20
-10.0
 30
0.0
 11
120.0
 21
-200.0
 31
0.0
  0
LINE
  5
9BF
  8
DETAIL
  6
CONTINUOUS
 62
     5
 10
285.0
 20
-200.0
 30
0.0
 11
285.0
 21
0.0
 31
0.0
  0
LINE
  5
9C0
  8
DETAIL
  6
CONTINUOUS
 62
     5
 10
-285.0
 20
-200.0
 30
0.0
 11
-285.0
 21
0.0
 31
0.0
  0
TEXT
  5
A9E
  8
ETC
  6
CONTINUOUS
 62
    61
 10
1273.3302683997931
 20
815.65885594126814
 30
0.0
 40
50.0
  1
V-604KQ7
 41
0.9
  0
ENDSEC
  0
EOF
