  0
SECTION
  2
HEADER
  9
$ACADVER
  1
AC1009
  9
$INSBASE
 10
0.0
 20
0.0
 30
0.0
  9
$EXTMIN
 10
-1071.331771068895
 20
-884.39940286846831
 30
-0.0015257624927045
  9
$EXTMAX
 10
1304.2694210706611
 20
733.47473963335494
 30
50.001525995323327
  9
$LIMMIN
 10
-2970.0
 20
-2100.0
  9
$LIMMAX
 10
2970.0
 20
2100.0
  9
$ORTHOMODE
 70
     1
  9
$REGENMODE
 70
     0
  9
$FILLMODE
 70
     1
  9
$QTEXTMODE
 70
     0
  9
$MIRRTEXT
 70
     0
  9
$DRAGMODE
 70
     2
  9
$LTSCALE
 40
20.0
  9
$OSMODE
 70
    32
  9
$ATTMODE
 70
     1
  9
$TEXTSIZE
 40
64.0
  9
$TRACEWID
 40
0.05
  9
$TEXTSTYLE
  7
STANDARD
  9
$CLAYER
  8
ETC
  9
$CELTYPE
  6
CONTINUOUS
  9
$CECOLOR
 62
     3
  9
$DIMSCALE
 40
1.0
  9
$DIMASZ
 40
12.0
  9
$DIMEXO
 40
20.0
  9
$DIMDLI
 40
200.0
  9
$DIMRND
 40
0.0
  9
$DIMDLE
 40
0.0
  9
$DIMEXE
 40
20.0
  9
$DIMTP
 40
0.0
  9
$DIMTM
 40
0.0
  9
$DIMTXT
 40
64.0
  9
$DIMCEN
 40
0.09
  9
$DIMTSZ
 40
0.0
  9
$DIMTOL
 70
     0
  9
$DIMLIM
 70
     0
  9
$DIMTIH
 70
     0
  9
$DIMTOH
 70
     0
  9
$DIMSE1
 70
     0
  9
$DIMSE2
 70
     0
  9
$DIMTAD
 70
     1
  9
$DIMZIN
 70
     8
  9
$DIMBLK
  1
DOT1
  9
$DIMASO
 70
     1
  9
$DIMSHO
 70
     0
  9
$DIMPOST
  1

  9
$DIMAPOST
  1

  9
$DIMALT
 70
     0
  9
$DIMALTD
 70
     2
  9
$DIMALTF
 40
25.399999999999999
  9
$DIMLFAC
 40
1.0
  9
$DIMTOFL
 70
     1
  9
$DIMTVP
 40
0.0
  9
$DIMTIX
 70
     1
  9
$DIMSOXD
 70
     0
  9
$DIMSAH
 70
     1
  9
$DIMBLK1
  1
ORIGIN
  9
$DIMBLK2
  1
ORIGIN
  9
$DIMSTYLE
  2
STANDARD
  9
$DIMCLRD
 70
     7
  9
$DIMCLRE
 70
     7
  9
$DIMCLRT
 70
     7
  9
$DIMTFAC
 40
1.0
  9
$DIMGAP
 40
25.0
  9
$LUNITS
 70
     2
  9
$LUPREC
 70
     4
  9
$SKETCHINC
 40
0.1
  9
$FILLETRAD
 40
4.0
  9
$AUNITS
 70
     1
  9
$AUPREC
 70
     3
  9
$MENU
  1
ACAD
  9
$ELEVATION
 40
0.0
  9
$PELEVATION
 40
0.0
  9
$THICKNESS
 40
50.0
  9
$LIMCHECK
 70
     0
  9
$BLIPMODE
 70
     0
  9
$CHAMFERA
 40
0.0
  9
$CHAMFERB
 40
0.0
  9
$SKPOLY
 70
     0
  9
$TDCREATE
 40
2453095.550511342
  9
$TDUPDATE
 40
2454743.6644811812
  9
$TDINDWG
 40
0.0246008333
  9
$TDUSRTIMER
 40
0.0245995833
  9
$USRTIMER
 70
     1
  9
$ANGBASE
 50
0.0
  9
$ANGDIR
 70
     0
  9
$PDMODE
 70
     3
  9
$PDSIZE
 40
-2.0
  9
$PLINEWID
 40
0.0
  9
$COORDS
 70
     1
  9
$SPLFRAME
 70
     0
  9
$SPLINETYPE
 70
     6
  9
$SPLINESEGS
 70
     8
  9
$ATTDIA
 70
     0
  9
$ATTREQ
 70
     1
  9
$HANDLING
 70
     1
  9
$HANDSEED
  5
BB3
  9
$SURFTAB1
 70
     6
  9
$SURFTAB2
 70
     6
  9
$SURFTYPE
 70
     6
  9
$SURFU
 70
     6
  9
$SURFV
 70
     6
  9
$UCSNAME
  2

  9
$UCSORG
 10
0.0
 20
0.0
 30
0.0
  9
$UCSXDIR
 10
1.0
 20
0.0
 30
0.0
  9
$UCSYDIR
 10
0.0
 20
1.0
 30
0.0
  9
$PUCSNAME
  2

  9
$PUCSORG
 10
0.0
 20
0.0
 30
0.0
  9
$PUCSXDIR
 10
1.0
 20
0.0
 30
0.0
  9
$PUCSYDIR
 10
0.0
 20
1.0
 30
0.0
  9
$USERI1
 70
     0
  9
$USERI2
 70
     0
  9
$USERI3
 70
     0
  9
$USERI4
 70
     0
  9
$USERI5
 70
     0
  9
$USERR1
 40
20.0
  9
$USERR2
 40
0.0
  9
$USERR3
 40
0.0
  9
$USERR4
 40
0.0
  9
$USERR5
 40
0.0
  9
$WORLDVIEW
 70
     1
  9
$SHADEDGE
 70
     3
  9
$SHADEDIF
 70
    70
  9
$TILEMODE
 70
     1
  9
$MAXACTVP
 70
    48
  9
$PLIMCHECK
 70
     0
  9
$PEXTMIN
 10
-1.0000000000000000E+020
 20
-1.0000000000000000E+020
 30
-1.0000000000000000E+020
  9
$PEXTMAX
 10
1.0000000000000000E+020
 20
1.0000000000000000E+020
 30
1.0000000000000000E+020
  9
$PLIMMIN
 10
0.0
 20
0.0
  9
$PLIMMAX
 10
12.0
 20
9.0
  9
$UNITMODE
 70
     0
  9
$VISRETAIN
 70
     0
  9
$PLINEGEN
 70
     0
  9
$PSLTSCALE
 70
     0
  0
ENDSEC
  0
SECTION
  2
TABLES
  0
TABLE
  2
VPORT
 70
     1
  0
VPORT
  2
*ACTIVE
 70
     0
 10
0.0
 20
0.0
 11
1.0
 21
1.0
 12
285.60090819106881
 22
-65.153880121512884
 13
0.0
 23
0.0
 14
1.0
 24
1.0
 15
0.0
 25
0.0
 16
0.0
 26
0.0
 36
1.0
 17
0.0
 27
0.0
 37
0.0
 40
1831.3870542772181
 41
1.812051649928264
 42
50.0
 43
0.0
 44
0.0
 50
0.0
 51
0.0
 71
     0
 72
  1000
 73
     1
 74
     0
 75
     0
 76
     0
 77
     0
 78
     0
  0
ENDTAB
  0
TABLE
  2
LTYPE
 70
     6
  0
LTYPE
  2
CONTINUOUS
 70
     0
  3
実線
 72
    65
 73
     0
 40
0.0
  0
LTYPE
  2
DASHDOT
 70
     0
  3
____ _ ____ _ ____ _ ____ _ ____ _ ____ _ ____
 72
    65
 73
     4
 40
5.5
 49
4.0
 49
-0.6
 49
0.3
 49
-0.6
  0
LTYPE
  2
DASHED
 70
     0
  3
-- -- -- -- -- -- -- -- -- -- -- -- -- -- --
 72
    65
 73
     2
 40
0.75
 49
0.5
 49
-0.25
  0
LTYPE
  2
CONTINOUS
 70
     0
  3
Solid line
 72
    65
 73
     0
 40
0.0
  0
LTYPE
  2
PHANTOM
 70
     0
  3
Phantom ______  __  __  ______  __  __  ______
 72
    65
 73
     6
 40
2.5
 49
1.25
 49
-0.25
 49
0.25
 49
-0.25
 49
0.25
 49
-0.25
  0
ENDTAB
  0
TABLE
  2
LAYER
 70
    12
  0
LAYER
  2
0
 70
     0
 62
     7
  6
CONTINUOUS
  0
LAYER
  2
OUTLINE
 70
     0
 62
     3
  6
CONTINUOUS
  0
LAYER
  2
SIZE
 70
     0
 62
    30
  6
CONTINUOUS
  0
LAYER
  2
BASIS
 70
     0
 62
     6
  6
DASHDOT
  0
LAYER
  2
DETAIL
 70
     0
 62
     5
  6
CONTINUOUS
  0
LAYER
  2
ARRANGE
 70
     0
 62
     1
  6
CONTINUOUS
  0
LAYER
  2
DEFPOINTS
 70
     0
 62
     7
  6
CONTINUOUS
  0
LAYER
  2
ETC
 70
     0
 62
    61
  6
CONTINUOUS
  0
LAYER
  2
NOTE
 70
     0
 62
     4
  6
CONTINUOUS
  0
LAYER
  2
FIX
 70
     0
 62
    11
  6
CONTINUOUS
  0
LAYER
  2
SERVICESPACE
 70
     0
 62
     2
  6
DASHDOT
  0
LAYER
  2
SYMBOLLINE
 70
     0
 62
    15
  6
CONTINUOUS
  0
ENDTAB
  0
TABLE
  2
STYLE
 70
     3
  0
STYLE
  2
STANDARD
 70
     0
 40
64.0
 41
0.9
 50
0.0
 71
     0
 42
64.0
  3
SIMPLEX.shx
  4
BIGFONT.shx
  0
STYLE
  2
ANNOTATIVE
 70
     0
 40
0.0
 41
1.0
 50
0.0
 71
     0
 42
0.2
  3
txt
  4

  0
STYLE
  2

 70
     1
 40
0.0
 41
1.0
 50
0.0
 71
     0
 42
64.0
  3
ltypeshp.shx
  4

  0
ENDTAB
  0
TABLE
  2
VIEW
 70
     1
  0
VIEW
  2
ALL
 70
     0
 40
4282.6198079999967
 10
0.0
 20
41.309903999999989
 41
5940.0
 11
0.0
 21
0.0
 31
1.0
 12
0.0
 22
0.0
 32
0.0
 42
50.0
 43
0.0
 44
0.0
 50
0.0
 71
     0
  0
ENDTAB
  0
TABLE
  2
UCS
 70
     0
  0
ENDTAB
  0
TABLE
  2
APPID
 70
     5
  0
APPID
  2
ACAD
 70
     0
  0
APPID
  2
ACADANNOTATIVE
 70
     0
  0
APPID
  2
ACAD_MLEADERVER
 70
     0
  0
APPID
  2
AUTOCAD_POSTSCRIPT_FIGURE
 70
     0
  0
APPID
  2
ACAD_EXEMPT_FROM_CAD_STANDARDS
 70
     0
  0
ENDTAB
  0
TABLE
  2
DIMSTYLE
 70
     2
  0
DIMSTYLE
  2
STANDARD
 70
     0
  3

  4

  5

  6

  7

 40
1.0
 41
0.18
 42
0.0625
 43
0.38
 44
0.18
 45
0.0
 46
0.0
 47
0.0
 48
0.0
140
0.18
141
0.09
142
0.0
143
25.399999999999999
144
1.0
145
0.0
146
1.0
147
0.09
 71
     0
 72
     0
 73
     1
 74
     1
 75
     0
 76
     0
 77
     0
 78
     0
170
     0
171
     2
172
     0
173
     0
174
     0
175
     0
176
     7
177
     7
178
     7
  0
DIMSTYLE
  2
ANNOTATIVE
 70
     0
  3

  4

  5

  6

  7

 40
1.0
 41
0.18
 42
0.0625
 43
0.38
 44
0.18
 45
0.0
 46
0.0
 47
0.0
 48
0.0
140
0.18
141
0.09
142
0.0
143
25.399999999999999
144
1.0
145
0.0
146
1.0
147
0.09
 71
     0
 72
     0
 73
     1
 74
     1
 75
     0
 76
     0
 77
     0
 78
     0
170
     0
171
     2
172
     0
173
     0
174
     0
175
     0
176
     0
177
     0
178
     0
  0
ENDTAB
  0
ENDSEC
  0
SECTION
  2
BLOCKS
  0
BLOCK
  8
0
  2
$MODEL_SPACE
 70
     0
 10
0.0
 20
0.0
 30
0.0
  3
$MODEL_SPACE
  1

  0
ENDBLK
  5
B53
  8
0
  0
BLOCK
 67
     1
  8
0
  2
$PAPER_SPACE
 70
     0
 10
0.0
 20
0.0
 30
0.0
  3
$PAPER_SPACE
  1

  0
ENDBLK
  5
B4F
 67
     1
  8
0
  0
BLOCK
  8
0
  2
DOT1
 70
     0
 10
0.0
 20
0.0
 30
0.0
  3
DOT1
  1

  0
CIRCLE
  5
914
  8
SIZE
  6
CONTINUOUS
 62
     7
 10
0.0
 20
0.0
 30
0.0
 40
3.0
  0
ENDBLK
  5
915
  8
0
  0
BLOCK
  8
0
  2
_ORIGIN
 70
     0
 10
0.0
 20
0.0
 30
0.0
  3
_ORIGIN
  1

  0
CIRCLE
  5
918
  8
0
  6
CONTINUOUS
 62
     7
 10
0.0
 20
0.0
 30
0.0
 40
0.5
  0
LINE
  5
919
  8
0
  6
CONTINUOUS
 62
     7
 10
0.0
 20
0.0
 30
0.0
 11
-1.0
 21
0.0
 31
0.0
  0
ENDBLK
  5
91A
  8
0
  0
BLOCK
  8
0
 62
    30
  2
_NONE
 70
     0
 10
0.0
 20
0.0
 30
0.0
  3
_NONE
  1

  0
ENDBLK
  5
91D
  8
0
 62
    30
  0
BLOCK
  8
0
 62
    30
  2
_OPEN30
 70
     0
 10
0.0
 20
0.0
 30
0.0
  3
_OPEN30
  1

  0
LINE
  5
920
  8
0
  6
BYBLOCK
 62
     0
 10
-1.0
 20
0.26794919
 30
0.0
 11
0.0
 21
0.0
 31
0.0
  0
LINE
  5
921
  8
0
  6
BYBLOCK
 62
     0
 10
0.0
 20
0.0
 30
0.0
 11
-1.0
 21
-0.26794919
 31
0.0
  0
LINE
  5
922
  8
0
  6
BYBLOCK
 62
     0
 10
0.0
 20
0.0
 30
0.0
 11
-1.0
 21
0.0
 31
0.0
  0
ENDBLK
  5
923
  8
0
 62
    30
  0
ENDSEC
  0
SECTION
  2
ENTITIES
  0
LINE
  5
924
  8
SIZE
  6
CONTINUOUS
 62
    30
 10
320.0
 20
0.0
 30
0.0
 11
679.09560599999998
 21
0.0
 31
0.0
  0
LINE
  5
925
  8
SIZE
  6
CONTINUOUS
 62
    30
 10
320.0
 20
-600.0
 30
0.0
 11
679.09560599999998
 21
-600.0
 31
0.0
  0
LINE
  5
926
  8
SIZE
  6
CONTINUOUS
 62
    30
 10
659.09560599999986
 20
-12.0
 30
0.0
 11
659.09560599999986
 21
-588.0
 31
0.0
  0
TEXT
  5
927
  8
SIZE
  6
CONTINUOUS
 62
    30
 10
634.15786900000001
 20
-374.05714285714282
 30
0.0
 40
64.0
  1
600
 50
90.0
 41
0.9
 72
     1
 11
634.15786900000001
 21
-300.0
 31
0.0
  0
CIRCLE
  5
928
  8
SIZE
  6
CONTINUOUS
 62
    30
 10
659.09560599999986
 20
0.0
 30
0.0
 40
6.0
  0
LINE
  5
929
  8
SIZE
  6
CONTINUOUS
 62
    30
 10
659.09560599999986
 20
0.0
 30
0.0
 11
659.09560599999986
 21
-12.0
 31
0.0
  0
CIRCLE
  5
92A
  8
SIZE
  6
CONTINUOUS
 62
    30
 10
659.09560599999986
 20
-600.0
 30
0.0
 40
6.0
  0
LINE
  5
92B
  8
SIZE
  6
CONTINUOUS
 62
    30
 10
659.09560599999986
 20
-600.0
 30
0.0
 11
659.09560599999986
 21
-588.0
 31
0.0
  0
LINE
  5
92C
  8
DETAIL
  6
CONTINUOUS
 62
     5
 10
-300.0
 20
-200.0
 30
0.0
 11
-300.0
 21
0.0
 31
0.0
  0
LINE
  5
92D
  8
DETAIL
  6
CONTINUOUS
 62
     5
 10
300.0
 20
0.0
 30
0.0
 11
-300.0
 21
0.0
 31
0.0
  0
LINE
  5
92E
  8
DETAIL
  6
CONTINOUS
 62
     5
 10
0.0
 20
-553.0
 30
0.0
 11
-280.0
 21
-553.0
 31
0.0
  0
LINE
  5
92F
  8
DETAIL
  6
CONTINOUS
 62
     5
 10
0.0
 20
-470.0
 30
0.0
 11
-280.0
 21
-470.0
 31
0.0
  0
LINE
  5
930
  8
BASIS
  6
DASHDOT
 62
     6
 10
0.0
 20
-671.94006799999966
 30
0.0
 11
0.0
 21
91.970927000000003
 31
0.0
  0
LINE
  5
931
  8
DETAIL
  6
CONTINOUS
 62
     5
 10
-300.0
 20
-600.0
 30
0.0
 11
-300.0
 21
-200.0
 31
0.0
  0
LINE
  5
932
  8
DETAIL
  6
CONTINOUS
 62
     5
 10
0.0
 20
-553.0
 30
0.0
 11
280.0
 21
-553.0
 31
0.0
  0
LINE
  5
933
  8
DETAIL
  6
CONTINOUS
 62
     5
 10
0.0
 20
-470.0
 30
0.0
 11
280.0
 21
-470.0
 31
0.0
  0
LINE
  5
934
  8
DETAIL
  6
CONTINOUS
 62
     5
 10
-300.0
 20
-200.0
 30
0.0
 11
300.0
 21
-200.0
 31
0.0
  0
LINE
  5
935
  8
DETAIL
  6
CONTINOUS
 62
     5
 10
300.0
 20
-600.0
 30
0.0
 11
300.0
 21
0.0
 31
0.0
  0
LINE
  5
936
  8
DETAIL
  6
CONTINOUS
 62
     5
 10
-300.0
 20
-600.0
 30
0.0
 11
300.0
 21
-600.0
 31
0.0
  0
LINE
  5
937
  8
DETAIL
  6
CONTINOUS
 62
     5
 10
-280.0
 20
-600.0
 30
0.0
 11
-280.0
 21
-200.0
 31
0.0
  0
LINE
  5
938
  8
DETAIL
  6
CONTINOUS
 62
     5
 10
280.0
 20
-600.0
 30
0.0
 11
280.0
 21
-200.0
 31
0.0
  0
LINE
  5
939
  8
DETAIL
  6
CONTINUOUS
 62
     5
 10
74.0
 20
0.0
 30
0.0
 11
74.0
 21
37.0
 31
0.0
  0
LINE
  5
93A
  8
DETAIL
  6
CONTINUOUS
 62
     5
 10
-74.0
 20
0.0
 30
0.0
 11
-74.0
 21
37.0
 31
0.0
  0
LINE
  5
93B
  8
DETAIL
  6
CONTINUOUS
 62
     5
 10
74.0
 20
37.0
 30
0.0
 11
-74.0
 21
37.0
 31
0.0
  0
TEXT
  5
93C
  8
NOTE
  6
CONTINUOUS
 62
     4
 10
144.97840400000001
 20
53.274194000000001
 30
0.0
 40
64.0
  1
OA
 41
0.9
  0
LINE
  5
93D
  8
SIZE
  6
CONTINUOUS
 62
    30
 10
300.0
 20
-620.0
 30
0.0
 11
300.0
 21
-884.13889399999982
 31
0.0
  0
LINE
  5
93E
  8
SIZE
  6
CONTINUOUS
 62
    30
 10
-300.0
 20
-620.0
 30
0.0
 11
-300.0
 21
-884.13889399999982
 31
0.0
  0
LINE
  5
93F
  8
SIZE
  6
CONTINUOUS
 62
    30
 10
288.0
 20
-864.13889399999982
 30
0.0
 11
-288.0
 21
-864.13889399999982
 31
0.0
  0
TEXT
  5
940
  8
SIZE
  6
CONTINUOUS
 62
    30
 10
-74.05714285714285
 20
-843.41845099999989
 30
0.0
 40
64.0
  1
600
 41
0.9
 72
     1
 11
0.0
 21
-843.41845099999989
 31
0.0
  0
CIRCLE
  5
941
  8
SIZE
  6
CONTINUOUS
 62
    30
 10
300.0
 20
-864.13889399999982
 30
0.0
 40
6.0
  0
LINE
  5
942
  8
SIZE
  6
CONTINUOUS
 62
    30
 10
300.0
 20
-864.13889399999982
 30
0.0
 11
288.0
 21
-864.13889399999982
 31
0.0
  0
CIRCLE
  5
943
  8
SIZE
  6
CONTINUOUS
 62
    30
 10
-300.0
 20
-864.13889399999982
 30
0.0
 40
6.0
  0
LINE
  5
944
  8
SIZE
  6
CONTINUOUS
 62
    30
 10
-300.0
 20
-864.13889399999982
 30
0.0
 11
-288.0
 21
-864.13889399999982
 31
0.0
  0
POINT
  5
945
  8
ARRANGE
  6
CONTINUOUS
 62
     1
 10
0.0
 20
0.0
 30
0.0
  0
CIRCLE
  5
946
  8
ARRANGE
  6
CONTINUOUS
 62
     1
 10
0.0
 20
0.0
 30
0.0
 40
40.0
  0
LINE
  5
948
  8
OUTLINE
  6
CONTINOUS
 62
     3
 10
300.0
 20
-600.0
 30
0.0
 11
300.0
 21
0.0
 31
0.0
  0
LINE
  5
949
  8
OUTLINE
  6
CONTINOUS
 62
     3
 10
-300.0
 20
-600.0
 30
0.0
 11
300.0
 21
-600.0
 31
0.0
  0
LINE
  5
94A
  8
OUTLINE
  6
CONTINUOUS
 62
     3
 10
-300.0
 20
-600.0
 30
0.0
 11
-300.0
 21
0.0
 31
0.0
  0
LINE
  5
94B
  8
DETAIL
  6
PHANTOM
 62
     5
 10
-126.0
 20
0.0
 30
0.0
 11
-126.0
 21
45.0
 31
0.0
  0
LINE
  5
94C
  8
DETAIL
  6
PHANTOM
 62
     5
 10
-126.0
 20
45.0
 30
0.0
 11
-274.0
 21
45.0
 31
0.0
  0
LINE
  5
94D
  8
DETAIL
  6
PHANTOM
 62
     5
 10
-274.0
 20
0.0
 30
0.0
 11
-274.0
 21
45.0
 31
0.0
  0
LINE
  5
94E
  8
BASIS
  6
DASHDOT
 62
     6
 10
-200.0
 20
-33.590437000000001
 30
0.0
 11
-200.0
 21
75.513159999999985
 31
0.0
  0
TEXT
  5
94F
  8
NOTE
  6
CONTINUOUS
 62
     4
 10
-389.80576300000001
 20
373.33546799999999
 30
0.0
 40
64.0
  1
上部給気接続口移動寸法
 41
0.9
  0
LINE
  5
950
  8
NOTE
  6
CONTINUOUS
 62
     4
 10
-241.391369
 20
44.398487000000003
 30
0.0
 11
-429.21975999999989
 21
176.066123
 31
0.0
  0
LINE
  5
951
  8
NOTE
  6
CONTINUOUS
 62
     4
 10
-429.21975999999989
 20
176.066123
 30
0.0
 11
-89.500000000000014
 21
45.0
 31
0.0
  0
LINE
  5
952
  8
NOTE
  6
CONTINUOUS
 62
     4
 10
-278.54157700000002
 20
59.226233999999991
 30
0.0
 11
-241.391369
 21
44.398487000000003
 31
0.0
  0
LINE
  5
953
  8
NOTE
  6
CONTINUOUS
 62
     4
 10
-241.391369
 20
44.398487000000003
 30
0.0
 11
-266.15051899999992
 21
75.814796000000001
 31
0.0
  0
LINE
  5
954
  8
NOTE
  6
CONTINUOUS
 62
     4
 10
-128.88807800000001
 20
51.969889000000002
 30
0.0
 11
-89.500000000000014
 21
45.0
 31
0.0
  0
LINE
  5
955
  8
NOTE
  6
CONTINUOUS
 62
     4
 10
-89.500000000000014
 20
45.0
 30
0.0
 11
-120.126131
 21
70.73014000000002
 31
0.0
  0
LINE
  5
956
  8
DETAIL
  6
CONTINOUS
 62
     5
 10
-300.0
 20
-185.0
 30
0.0
 11
300.0
 21
-185.0
 31
0.0
  0
LINE
  5
957
  8
SIZE
  6
CONTINUOUS
 62
    30
 10
-320.0
 20
-200.0
 30
0.0
 11
-442.22278299999988
 21
-200.0
 31
0.0
  0
LINE
  5
958
  8
SIZE
  6
CONTINUOUS
 62
    30
 10
-320.0
 20
-185.0
 30
0.0
 11
-442.22278299999988
 21
-185.0
 31
0.0
  0
LINE
  5
959
  8
SIZE
  6
CONTINUOUS
 62
    30
 10
-422.22278299999988
 20
-212.0
 30
0.0
 11
-422.22278299999988
 21
-224.0
 31
0.0
  0
LINE
  5
95A
  8
SIZE
  6
CONTINUOUS
 62
    30
 10
-422.22278299999988
 20
-173.0
 30
0.0
 11
-422.22278299999988
 21
-161.0
 31
0.0
  0
LINE
  5
95B
  8
SIZE
  6
CONTINUOUS
 62
    30
 10
-422.22278299999988
 20
-363.814347
 30
0.0
 11
-422.22278299999988
 21
-200.0
 31
0.0
  0
TEXT
  5
95C
  8
SIZE
  6
CONTINUOUS
 62
    30
 10
-447.22278299999999
 20
-338.81434614285712
 30
0.0
 40
64.0
  1
15
 50
90.0
 41
0.9
 72
     1
 11
-447.22278299999999
 21
-297.67148900000001
 31
0.0
  0
LINE
  5
95D
  8
SIZE
  6
CONTINUOUS
 62
    30
 10
-422.22278299999988
 20
-200.0
 30
0.0
 11
-422.22278299999988
 21
-185.0
 31
0.0
  0
LINE
  5
95E
  8
SIZE
  6
CONTINUOUS
 62
    30
 10
-422.22278299999988
 20
-200.0
 30
0.0
 11
-422.22278299999988
 21
-185.0
 31
0.0
  0
CIRCLE
  5
95F
  8
SIZE
  6
CONTINUOUS
 62
    30
 10
-422.22278299999988
 20
-200.0
 30
0.0
 40
6.0
  0
LINE
  5
960
  8
SIZE
  6
CONTINUOUS
 62
    30
 10
-422.22278299999988
 20
-200.0
 30
0.0
 11
-422.22278299999988
 21
-212.0
 31
0.0
  0
CIRCLE
  5
961
  8
SIZE
  6
CONTINUOUS
 62
    30
 10
-422.22278299999988
 20
-185.0
 30
0.0
 40
6.0
  0
LINE
  5
962
  8
SIZE
  6
CONTINUOUS
 62
    30
 10
-422.22278299999988
 20
-185.0
 30
0.0
 11
-422.22278299999988
 21
-173.0
 31
0.0
  0
LINE
  5
963
  8
SIZE
  6
CONTINUOUS
 62
    30
 10
-320.0
 20
-185.0
 30
0.0
 11
-442.22278299999988
 21
-185.0
 31
0.0
  0
LINE
  5
964
  8
SIZE
  6
CONTINUOUS
 62
    30
 10
-320.0
 20
0.0
 30
0.0
 11
-442.22278299999988
 21
0.0
 31
0.0
  0
LINE
  5
965
  8
SIZE
  6
CONTINUOUS
 62
    30
 10
-422.22278299999988
 20
-197.0
 30
0.0
 11
-422.22278299999988
 21
-209.0
 31
0.0
  0
LINE
  5
966
  8
SIZE
  6
CONTINUOUS
 62
    30
 10
-422.22278299999988
 20
-185.0
 30
0.0
 11
-422.22278299999988
 21
0.0
 31
0.0
  0
CIRCLE
  5
967
  8
SIZE
  6
CONTINUOUS
 62
    30
 10
-422.22278299999988
 20
-185.0
 30
0.0
 40
6.0
  0
LINE
  5
968
  8
SIZE
  6
CONTINUOUS
 62
    30
 10
-422.22278299999988
 20
-185.0
 30
0.0
 11
-422.22278299999988
 21
-197.0
 31
0.0
  0
CIRCLE
  5
969
  8
SIZE
  6
CONTINUOUS
 62
    30
 10
-422.22278299999988
 20
0.0
 30
0.0
 40
6.0
  0
TEXT
  5
96A
  8
SIZE
  6
CONTINUOUS
 62
    30
 10
-447.22278299999999
 20
-161.0714285714285
 30
0.0
 40
64.0
  1
185
 50
90.0
 41
0.9
 72
     1
 11
-447.22278299999999
 21
-92.5
 31
0.0
  0
LINE
  5
96B
  8
BASIS
  6
DASHDOT
 62
     6
 10
200.0
 20
-33.590437000000001
 30
0.0
 11
200.0
 21
75.513159999999985
 31
0.0
  0
LINE
  5
96C
  8
DETAIL
  6
PHANTOM
 62
     5
 10
274.0
 20
0.0
 30
0.0
 11
274.0
 21
45.0
 31
0.0
  0
LINE
  5
96D
  8
DETAIL
  6
PHANTOM
 62
     5
 10
126.0
 20
0.0
 30
0.0
 11
126.0
 21
45.0
 31
0.0
  0
LINE
  5
96E
  8
DETAIL
  6
PHANTOM
 62
     5
 10
274.0
 20
45.0
 30
0.0
 11
126.0
 21
45.0
 31
0.0
  0
LINE
  5
96F
  8
DETAIL
  6
DASHED
 62
     5
 10
34.0
 20
37.0
 30
0.0
 11
34.0
 21
45.0
 31
0.0
  0
LINE
  5
970
  8
DETAIL
  6
PHANTOM
 62
     5
 10
-89.500000000000014
 20
0.0
 30
0.0
 11
-89.500000000000014
 21
45.0
 31
0.0
  0
LINE
  5
971
  8
DETAIL
  6
PHANTOM
 62
     5
 10
58.5
 20
45.0
 30
0.0
 11
-89.500000000000014
 21
45.0
 31
0.0
  0
LINE
  5
972
  8
BASIS
  6
DASHDOT
 62
     6
 10
-40.0
 20
-33.590437000000001
 30
0.0
 11
-40.0
 21
75.513159999999985
 31
0.0
  0
LINE
  5
973
  8
DETAIL
  6
DASHED
 62
     5
 10
89.500000000000014
 20
45.0
 30
0.0
 11
-58.5
 21
45.0
 31
0.0
  0
LINE
  5
974
  8
DETAIL
  6
PHANTOM
 62
     5
 10
89.500000000000014
 20
0.0
 30
0.0
 11
89.500000000000014
 21
45.0
 31
0.0
  0
LINE
  5
975
  8
BASIS
  6
DASHDOT
 62
     6
 10
40.0
 20
-33.590437000000001
 30
0.0
 11
40.0
 21
75.513159999999985
 31
0.0
  0
LINE
  5
976
  8
SIZE
  6
CONTINUOUS
 62
    30
 10
200.0
 20
95.513159999999985
 30
0.0
 11
200.0
 21
587.65982799999995
 31
0.0
  0
LINE
  5
977
  8
SIZE
  6
CONTINUOUS
 62
    30
 10
-200.0
 20
95.513159999999985
 30
0.0
 11
-200.0
 21
587.65982799999995
 31
0.0
  0
LINE
  5
978
  8
SIZE
  6
CONTINUOUS
 62
    30
 10
188.0
 20
567.65982799999995
 30
0.0
 11
-188.0
 21
567.65982799999995
 31
0.0
  0
CIRCLE
  5
979
  8
SIZE
  6
CONTINUOUS
 62
    30
 10
200.0
 20
567.65982799999995
 30
0.0
 40
6.0
  0
LINE
  5
97A
  8
SIZE
  6
CONTINUOUS
 62
    30
 10
200.0
 20
567.65982799999995
 30
0.0
 11
188.0
 21
567.65982799999995
 31
0.0
  0
CIRCLE
  5
97B
  8
SIZE
  6
CONTINUOUS
 62
    30
 10
-200.0
 20
567.65982799999995
 30
0.0
 40
6.0
  0
LINE
  5
97C
  8
SIZE
  6
CONTINUOUS
 62
    30
 10
-200.0
 20
567.65982799999995
 30
0.0
 11
-188.0
 21
567.65982799999995
 31
0.0
  0
TEXT
  5
97D
  8
SIZE
  6
CONTINUOUS
 62
    30
 10
-74.05714285714285
 20
592.65982799999995
 30
0.0
 40
64.0
  1
400
 41
0.9
 72
     1
 11
0.0
 21
592.65982799999995
 31
0.0
  0
LINE
  5
97E
  8
SIZE
  6
CONTINUOUS
 62
    30
 10
-200.0
 20
95.513159999999985
 30
0.0
 11
-200.0
 21
476.90498500000001
 31
0.0
  0
LINE
  5
97F
  8
SIZE
  6
CONTINUOUS
 62
    30
 10
-40.0
 20
95.513159999999985
 30
0.0
 11
-40.0
 21
476.90498500000001
 31
0.0
  0
LINE
  5
980
  8
SIZE
  6
CONTINUOUS
 62
    30
 10
-200.0
 20
456.90498499999978
 30
0.0
 11
-40.0
 21
456.90498499999978
 31
0.0
  0
CIRCLE
  5
981
  8
SIZE
  6
CONTINUOUS
 62
    30
 10
-200.0
 20
456.90498499999978
 30
0.0
 40
6.0
  0
CIRCLE
  5
982
  8
SIZE
  6
CONTINUOUS
 62
    30
 10
-40.0
 20
456.90498499999978
 30
0.0
 40
6.0
  0
TEXT
  5
983
  8
SIZE
  6
CONTINUOUS
 62
    30
 10
-188.5714285714285
 20
481.90498499999978
 30
0.0
 40
64.0
  1
160
 41
0.9
 72
     1
 11
-120.0
 21
481.90498499999978
 31
0.0
  0
LINE
  5
984
  8
SIZE
  6
CONTINUOUS
 62
    30
 10
40.0
 20
95.513159999999985
 30
0.0
 11
40.0
 21
476.90498500000001
 31
0.0
  0
LINE
  5
985
  8
SIZE
  6
CONTINUOUS
 62
    30
 10
200.0
 20
95.513159999999985
 30
0.0
 11
200.0
 21
476.90498500000001
 31
0.0
  0
LINE
  5
986
  8
SIZE
  6
CONTINUOUS
 62
    30
 10
40.0
 20
456.90498499999978
 30
0.0
 11
200.0
 21
456.90498499999978
 31
0.0
  0
CIRCLE
  5
987
  8
SIZE
  6
CONTINUOUS
 62
    30
 10
40.0
 20
456.90498499999978
 30
0.0
 40
6.0
  0
CIRCLE
  5
988
  8
SIZE
  6
CONTINUOUS
 62
    30
 10
200.0
 20
456.90498499999978
 30
0.0
 40
6.0
  0
TEXT
  5
989
  8
SIZE
  6
CONTINUOUS
 62
    30
 10
51.428571428571452
 20
481.90498499999978
 30
0.0
 40
64.0
  1
160
 41
0.9
 72
     1
 11
120.0
 21
481.90498499999978
 31
0.0
  0
LINE
  5
98A
  8
NOTE
  6
CONTINUOUS
 62
     4
 10
-1071.258597
 20
176.066123
 30
0.0
 11
-429.21975999999989
 21
176.066123
 31
0.0
  0
TEXT
  5
98B
  8
NOTE
  6
CONTINUOUS
 62
     4
 10
-1062.122683999999
 20
201.09354399999989
 30
0.0
 40
64.0
  1
上部左側給気接続口
 41
0.9
  0
LINE
  5
98C
  8
NOTE
  6
CONTINUOUS
 62
     4
 10
1122.1388910000001
 20
173.91923899999989
 30
0.0
 11
472.934169
 21
173.91923899999989
 31
0.0
  0
TEXT
  5
98D
  8
NOTE
  6
CONTINUOUS
 62
     4
 10
476.33358700000002
 20
204.07399099999981
 30
0.0
 40
64.0
  1
上部右側給気接続口
 41
0.9
  0
LINE
  5
98E
  8
BASIS
  6
DASHDOT
 62
     6
 10
-6.0
 20
-19.508880999999999
 30
0.0
 11
-6.0
 21
59.046615000000003
 31
0.0
  0
LINE
  5
98F
  8
BASIS
  6
DASHDOT
 62
     6
 10
6.0
 20
-19.508880999999999
 30
0.0
 11
6.0
 21
59.046615000000003
 31
0.0
  0
LINE
  5
990
  8
SIZE
  6
CONTINUOUS
 62
    30
 10
74.0
 20
-20.0
 30
0.0
 11
74.0
 21
-333.88860499999993
 31
0.0
  0
LINE
  5
991
  8
SIZE
  6
CONTINUOUS
 62
    30
 10
-74.0
 20
-20.0
 30
0.0
 11
-74.0
 21
-333.88860499999993
 31
0.0
  0
LINE
  5
992
  8
SIZE
  6
CONTINUOUS
 62
    30
 10
74.0
 20
-313.88860499999993
 30
0.0
 11
-74.0
 21
-313.88860499999993
 31
0.0
  0
CIRCLE
  5
993
  8
SIZE
  6
CONTINUOUS
 62
    30
 10
74.0
 20
-313.88860499999993
 30
0.0
 40
6.0
  0
CIRCLE
  5
994
  8
SIZE
  6
CONTINUOUS
 62
    30
 10
-74.0
 20
-313.88860499999993
 30
0.0
 40
6.0
  0
TEXT
  5
995
  8
SIZE
  6
CONTINUOUS
 62
    30
 10
-108.89142857142851
 20
-288.88860499999993
 30
0.0
 40
64.0
  1
φ148
 41
0.9
 72
     1
 11
0.0
 21
-288.88860499999993
 31
0.0
  0
LINE
  5
996
  8
SIZE
  6
CONTINUOUS
 62
    30
 10
6.0
 20
79.046615000000003
 30
0.0
 11
6.0
 21
256.54147499999982
 31
0.0
  0
LINE
  5
997
  8
SIZE
  6
CONTINUOUS
 62
    30
 10
-6.0
 20
79.046615000000003
 30
0.0
 11
-6.0
 21
256.54147499999982
 31
0.0
  0
LINE
  5
998
  8
SIZE
  6
CONTINUOUS
 62
    30
 10
18.0
 20
236.54147499999991
 30
0.0
 11
30.0
 21
236.54147499999991
 31
0.0
  0
LINE
  5
999
  8
SIZE
  6
CONTINUOUS
 62
    30
 10
-18.0
 20
236.54147499999991
 30
0.0
 11
-30.0
 21
236.54147499999991
 31
0.0
  0
LINE
  5
99A
  8
SIZE
  6
CONTINUOUS
 62
    30
 10
6.0
 20
236.54147499999991
 30
0.0
 11
-6.0
 21
236.54147499999991
 31
0.0
  0
CIRCLE
  5
99B
  8
SIZE
  6
CONTINUOUS
 62
    30
 10
6.0
 20
236.54147499999991
 30
0.0
 40
6.0
  0
LINE
  5
99C
  8
SIZE
  6
CONTINUOUS
 62
    30
 10
6.0
 20
236.54147499999991
 30
0.0
 11
18.0
 21
236.54147499999991
 31
0.0
  0
CIRCLE
  5
99D
  8
SIZE
  6
CONTINUOUS
 62
    30
 10
-6.0
 20
236.54147499999991
 30
0.0
 40
6.0
  0
LINE
  5
99E
  8
SIZE
  6
CONTINUOUS
 62
    30
 10
-6.0
 20
236.54147499999991
 30
0.0
 11
-18.0
 21
236.54147499999991
 31
0.0
  0
TEXT
  5
99F
  8
SIZE
  6
CONTINUOUS
 62
    30
 10
-41.142857142857132
 20
261.54147499999982
 30
0.0
 40
64.0
  1
12
 41
0.9
 72
     1
 11
0.0
 21
261.54147499999982
 31
0.0
  0
TEXT
  5
9A0
  8
NOTE
  6
CONTINUOUS
 62
     4
 10
-338.32855899999993
 20
156.73882800000001
 30
0.0
 40
64.0
  1
ダクト接続口可動寸法
 41
0.9
  0
TEXT
  5
9A1
  8
NOTE
  6
CONTINUOUS
 62
     4
 10
-44.986184999999999
 20
-47.313388000000003
 30
0.0
 40
64.0
  1
EA
 41
0.9
  0
LINE
  5
9A2
  8
NOTE
  6
CONTINUOUS
 62
     4
 39
50.0
 10
472.934169
 20
173.91923899999989
 30
0.0
 11
249.224672
 21
45.0
 31
0.0
  0
LINE
  5
9A3
  8
NOTE
  6
CONTINUOUS
 62
     4
 39
50.0
 10
472.934169
 20
173.91923899999989
 30
0.0
 11
89.500000000000014
 21
45.0
 31
0.0
  0
LINE
  5
9A4
  8
NOTE
  6
CONTINUOUS
 62
     4
 10
277.772535
 20
73.018199999999979
 30
0.0
 11
249.224672
 21
45.0
 31
0.0
  0
LINE
  5
9A5
  8
NOTE
  6
CONTINUOUS
 62
     4
 10
249.224672
 20
45.0
 30
0.0
 11
287.95694600000002
 21
54.990541
 31
0.0
  0
LINE
  5
9A6
  8
NOTE
  6
CONTINUOUS
 62
     4
 10
121.871409
 20
68.496634999999998
 30
0.0
 11
89.500000000000014
 21
45.0
 31
0.0
  0
LINE
  5
9A7
  8
NOTE
  6
CONTINUOUS
 62
     4
 10
89.500000000000014
 20
45.0
 30
0.0
 11
129.28277999999949
 21
49.162978000000003
 31
0.0
  0
LINE
  5
9A8
  8
SIZE
  6
CONTINUOUS
 62
    30
 10
320.0
 20
-600.0
 30
0.0
 11
550.06108200000006
 21
-600.0
 31
0.0
  0
LINE
  5
9A9
  8
SIZE
  6
CONTINUOUS
 62
    30
 10
320.0
 20
-200.0
 30
0.0
 11
550.06108200000006
 21
-200.0
 31
0.0
  0
LINE
  5
9AA
  8
SIZE
  6
CONTINUOUS
 62
    30
 10
530.06108200000006
 20
-588.0
 30
0.0
 11
530.06108200000006
 21
-212.0
 31
0.0
  0
CIRCLE
  5
9AB
  8
SIZE
  6
CONTINUOUS
 62
    30
 10
530.06108200000006
 20
-600.0
 30
0.0
 40
6.0
  0
LINE
  5
9AC
  8
SIZE
  6
CONTINUOUS
 62
    30
 10
530.06108200000006
 20
-600.0
 30
0.0
 11
530.06108200000006
 21
-588.0
 31
0.0
  0
CIRCLE
  5
9AD
  8
SIZE
  6
CONTINUOUS
 62
    30
 10
530.06108200000006
 20
-200.0
 30
0.0
 40
6.0
  0
LINE
  5
9AE
  8
SIZE
  6
CONTINUOUS
 62
    30
 10
530.06108200000006
 20
-200.0
 30
0.0
 11
530.06108200000006
 21
-212.0
 31
0.0
  0
TEXT
  5
9AF
  8
SIZE
  6
CONTINUOUS
 62
    30
 10
505.06108200000011
 20
-474.05714285714282
 30
0.0
 40
64.0
  1
400
 50
90.0
 41
0.9
 72
     1
 11
505.06108200000011
 21
-400.0
 31
0.0
  0
ARC
  5
9B0
  8
DETAIL
  6
CONTINOUS
 62
     5
 10
37.976752500000011
 20
-515.74780799999985
 30
0.0
 40
70.0
 50
346.07795600000009
 51
0.0
  0
CIRCLE
  5
9B1
  8
DETAIL
  6
CONTINOUS
 62
     5
 10
53.976752500000003
 20
-518.24780799999996
 30
0.0
 40
8.3000000000000007
  0
CIRCLE
  5
9B2
  8
DETAIL
  6
CONTINOUS
 62
     5
 10
53.976752500000003
 20
-518.24780799999996
 30
0.0
 40
6.5
  0
CIRCLE
  5
9B3
  8
DETAIL
  6
CONTINOUS
 62
     5
 10
10.97675249999998
 20
-518.24780799999996
 30
0.0
 40
8.3000000000000007
  0
CIRCLE
  5
9B4
  8
DETAIL
  6
CONTINOUS
 62
     5
 10
10.97675249999998
 20
-518.24780799999996
 30
0.0
 40
6.5
  0
CIRCLE
  5
9B5
  8
DETAIL
  6
CONTINOUS
 62
     5
 10
32.476752500000003
 20
-518.24780799999996
 30
0.0
 40
8.3000000000000007
  0
CIRCLE
  5
9B6
  8
DETAIL
  6
CONTINOUS
 62
     5
 10
32.476752500000003
 20
-518.24780799999996
 30
0.0
 40
6.5
  0
CIRCLE
  5
9B7
  8
DETAIL
  6
CONTINOUS
 62
     5
 10
-53.523247499999997
 20
-518.24780799999996
 30
0.0
 40
8.3000000000000007
  0
CIRCLE
  5
9B8
  8
DETAIL
  6
CONTINOUS
 62
     5
 10
-53.523247499999997
 20
-518.24780799999996
 30
0.0
 40
6.5
  0
CIRCLE
  5
9B9
  8
DETAIL
  6
CONTINOUS
 62
     5
 10
-32.023247499999982
 20
-518.24780799999996
 30
0.0
 40
6.5
  0
ARC
  5
9BA
  8
DETAIL
  6
CONTINOUS
 62
     5
 10
-102.5232474999999
 20
-515.74780799999985
 30
0.0
 40
10.5
 50
90.0
 51
270.0
  0
ARC
  5
9BB
  8
DETAIL
  6
CONTINOUS
 62
     5
 10
-102.5232474999999
 20
-515.74780799999985
 30
0.0
 40
19.5
 50
90.0
 51
270.0
  0
CIRCLE
  5
9BC
  8
DETAIL
  6
CONTINOUS
 62
     5
 10
-32.023247499999982
 20
-518.24780799999996
 30
0.0
 40
8.3000000000000007
  0
LINE
  5
9BD
  8
DETAIL
  6
CONTINOUS
 62
     5
 10
-102.5232474999999
 20
-526.55063700000005
 30
0.0
 11
107.1381504999999
 21
-526.55063700000005
 31
0.0
  0
LINE
  5
9BE
  8
DETAIL
  6
CONTINOUS
 62
     5
 10
-102.5232474999999
 20
-535.24780799999996
 30
0.0
 11
102.5232474999999
 21
-535.24780799999996
 31
0.0
  0
ARC
  5
9BF
  8
DETAIL
  6
CONTINOUS
 62
     5
 10
102.5232474999999
 20
-531.74780799999985
 30
0.0
 40
3.5
 50
270.0
 51
346.07795600000009
  0
LINE
  5
9C0
  8
DETAIL
  6
CONTINOUS
 62
     5
 10
-102.5232474999999
 20
-496.24780800000002
 30
0.0
 11
67.976752499999975
 21
-496.24780800000002
 31
0.0
  0
LINE
  5
9C1
  8
DETAIL
  6
CONTINOUS
 62
     5
 10
-102.5636355
 20
-505.231607
 30
0.0
 11
107.1823124999999
 21
-505.231607
 31
0.0
  0
ARC
  5
9C2
  8
DETAIL
  6
CONTINOUS
 62
     5
 10
102.5232474999999
 20
-499.74780800000002
 30
0.0
 40
3.5
 50
13.922043999999991
 51
90.0
  0
LINE
  5
9C3
  8
DETAIL
  6
CONTINOUS
 62
     5
 10
67.976752499999975
 20
-496.24780800000002
 30
0.0
 11
103.1208235
 21
-496.24780800000002
 31
0.0
  0
ARC
  5
9C4
  8
DETAIL
  6
CONTINOUS
 62
     5
 10
37.976752500000011
 20
-515.74780799999985
 30
0.0
 40
70.0
 50
0.0
 51
13.922043999999991
  0
LINE
  5
9C5
  8
DETAIL
  6
CONTINUOUS
 62
     5
 10
0.0
 20
-67.164063999999996
 30
0.0
 11
-62.0
 21
-67.164063999999996
 31
0.0
  0
LINE
  5
9C6
  8
DETAIL
  6
CONTINUOUS
 62
     5
 10
0.0
 20
-63.231051000000001
 30
0.0
 11
-63.0
 21
-63.231051000000001
 31
0.0
  0
LINE
  5
9C7
  8
DETAIL
  6
CONTINUOUS
 62
     5
 10
0.0
 20
-69.365025000000003
 30
0.0
 11
-61.5
 21
-69.365025000000003
 31
0.0
  0
LINE
  5
9C8
  8
DETAIL
  6
CONTINUOUS
 62
     5
 10
0.0
 20
-56.164064000000003
 30
0.0
 11
-62.0
 21
-56.164064000000003
 31
0.0
  0
LINE
  5
9C9
  8
DETAIL
  6
CONTINUOUS
 62
     5
 10
0.0
 20
-52.231051000000001
 30
0.0
 11
-63.0
 21
-52.231051000000001
 31
0.0
  0
LINE
  5
9CA
  8
DETAIL
  6
CONTINUOUS
 62
     5
 10
0.0
 20
-58.365025000000003
 30
0.0
 11
-61.5
 21
-58.365025000000003
 31
0.0
  0
LINE
  5
9CB
  8
DETAIL
  6
CONTINUOUS
 62
     5
 10
0.0
 20
-78.164063999999982
 30
0.0
 11
-62.0
 21
-78.164063999999982
 31
0.0
  0
LINE
  5
9CC
  8
DETAIL
  6
CONTINUOUS
 62
     5
 10
0.0
 20
-74.231050999999979
 30
0.0
 11
-63.0
 21
-74.231050999999979
 31
0.0
  0
LINE
  5
9CD
  8
DETAIL
  6
CONTINUOUS
 62
     5
 10
0.0
 20
-80.365025000000003
 30
0.0
 11
-61.5
 21
-80.365025000000003
 31
0.0
  0
LINE
  5
9CE
  8
DETAIL
  6
CONTINUOUS
 62
     5
 10
0.0
 20
-89.164063999999968
 30
0.0
 11
-62.0
 21
-89.164063999999968
 31
0.0
  0
LINE
  5
9CF
  8
DETAIL
  6
CONTINUOUS
 62
     5
 10
0.0
 20
-85.231050999999979
 30
0.0
 11
-63.0
 21
-85.231050999999979
 31
0.0
  0
LINE
  5
9D0
  8
DETAIL
  6
CONTINUOUS
 62
     5
 10
0.0
 20
-91.365025000000003
 30
0.0
 11
-61.5
 21
-91.365025000000003
 31
0.0
  0
LINE
  5
9D1
  8
DETAIL
  6
CONTINUOUS
 62
     5
 10
0.0
 20
-96.231050999999994
 30
0.0
 11
-63.0
 21
-96.231050999999994
 31
0.0
  0
LINE
  5
9D2
  8
DETAIL
  6
CONTINUOUS
 62
     5
 10
0.0
 20
-100.1640639999999
 30
0.0
 11
-62.0
 21
-100.1640639999999
 31
0.0
  0
LINE
  5
9D3
  8
DETAIL
  6
CONTINUOUS
 62
     5
 10
0.0
 20
-102.3650249999999
 30
0.0
 11
-61.5
 21
-102.3650249999999
 31
0.0
  0
LINE
  5
9D4
  8
DETAIL
  6
CONTINUOUS
 62
     5
 10
0.0
 20
-111.164064
 30
0.0
 11
-62.0
 21
-111.164064
 31
0.0
  0
LINE
  5
9D5
  8
DETAIL
  6
CONTINUOUS
 62
     5
 10
0.0
 20
-107.2310509999996
 30
0.0
 11
-63.0
 21
-107.2310509999996
 31
0.0
  0
LINE
  5
9D6
  8
DETAIL
  6
CONTINUOUS
 62
     5
 10
0.0
 20
-113.365025
 30
0.0
 11
-61.5
 21
-113.365025
 31
0.0
  0
LINE
  5
9D7
  8
DETAIL
  6
CONTINUOUS
 62
     5
 10
0.0
 20
-118.2310509999996
 30
0.0
 11
-63.0
 21
-118.2310509999996
 31
0.0
  0
LINE
  5
9D8
  8
DETAIL
  6
CONTINUOUS
 62
     5
 10
0.0
 20
-122.1640639999999
 30
0.0
 11
-62.0
 21
-122.1640639999999
 31
0.0
  0
LINE
  5
9D9
  8
DETAIL
  6
CONTINUOUS
 62
     5
 10
0.0
 20
-124.3650249999999
 30
0.0
 11
-61.5
 21
-124.3650249999999
 31
0.0
  0
LINE
  5
9DA
  8
DETAIL
  6
CONTINUOUS
 62
     5
 10
-88.0
 20
-67.164063999999996
 30
0.0
 11
-212.0
 21
-67.164063999999996
 31
0.0
  0
LINE
  5
9DB
  8
DETAIL
  6
CONTINUOUS
 62
     5
 10
-87.0
 20
-63.231051000000001
 30
0.0
 11
-213.0
 21
-63.231051000000001
 31
0.0
  0
LINE
  5
9DC
  8
DETAIL
  6
CONTINUOUS
 62
     5
 10
-88.499999999999986
 20
-69.365025000000003
 30
0.0
 11
-211.5
 21
-69.365025000000003
 31
0.0
  0
LINE
  5
9DD
  8
DETAIL
  6
CONTINUOUS
 62
     5
 10
-88.0
 20
-56.164064000000003
 30
0.0
 11
-212.0
 21
-56.164064000000003
 31
0.0
  0
LINE
  5
9DE
  8
DETAIL
  6
CONTINUOUS
 62
     5
 10
-87.0
 20
-52.231051000000001
 30
0.0
 11
-213.0
 21
-52.231051000000001
 31
0.0
  0
LINE
  5
9DF
  8
DETAIL
  6
CONTINUOUS
 62
     5
 10
-88.499999999999986
 20
-58.365025000000003
 30
0.0
 11
-211.5
 21
-58.365025000000003
 31
0.0
  0
LINE
  5
9E0
  8
DETAIL
  6
CONTINUOUS
 62
     5
 10
-88.0
 20
-78.164063999999982
 30
0.0
 11
-212.0
 21
-78.164063999999982
 31
0.0
  0
LINE
  5
9E1
  8
DETAIL
  6
CONTINUOUS
 62
     5
 10
-87.0
 20
-74.231050999999979
 30
0.0
 11
-213.0
 21
-74.231050999999979
 31
0.0
  0
LINE
  5
9E2
  8
DETAIL
  6
CONTINUOUS
 62
     5
 10
-88.499999999999986
 20
-80.365025000000003
 30
0.0
 11
-211.5
 21
-80.365025000000003
 31
0.0
  0
LINE
  5
9E3
  8
DETAIL
  6
CONTINUOUS
 62
     5
 10
-88.0
 20
-89.164063999999968
 30
0.0
 11
-212.0
 21
-89.164063999999968
 31
0.0
  0
LINE
  5
9E4
  8
DETAIL
  6
CONTINUOUS
 62
     5
 10
-87.0
 20
-85.231050999999979
 30
0.0
 11
-213.0
 21
-85.231050999999979
 31
0.0
  0
LINE
  5
9E5
  8
DETAIL
  6
CONTINUOUS
 62
     5
 10
-88.499999999999986
 20
-91.365025000000003
 30
0.0
 11
-211.5
 21
-91.365025000000003
 31
0.0
  0
LINE
  5
9E6
  8
DETAIL
  6
CONTINUOUS
 62
     5
 10
-87.0
 20
-96.231050999999994
 30
0.0
 11
-213.0
 21
-96.231050999999994
 31
0.0
  0
LINE
  5
9E7
  8
DETAIL
  6
CONTINUOUS
 62
     5
 10
-88.0
 20
-100.1640639999999
 30
0.0
 11
-212.0
 21
-100.1640639999999
 31
0.0
  0
LINE
  5
9E8
  8
DETAIL
  6
CONTINUOUS
 62
     5
 10
-88.499999999999986
 20
-102.3650249999999
 30
0.0
 11
-211.5
 21
-102.3650249999999
 31
0.0
  0
LINE
  5
9E9
  8
DETAIL
  6
CONTINUOUS
 62
     5
 10
-88.0
 20
-111.164064
 30
0.0
 11
-212.0
 21
-111.164064
 31
0.0
  0
LINE
  5
9EA
  8
DETAIL
  6
CONTINUOUS
 62
     5
 10
-87.0
 20
-107.2310509999996
 30
0.0
 11
-213.0
 21
-107.2310509999996
 31
0.0
  0
LINE
  5
9EB
  8
DETAIL
  6
CONTINUOUS
 62
     5
 10
-88.499999999999986
 20
-113.365025
 30
0.0
 11
-211.5
 21
-113.365025
 31
0.0
  0
LINE
  5
9EC
  8
DETAIL
  6
CONTINUOUS
 62
     5
 10
-87.0
 20
-118.2310509999996
 30
0.0
 11
-213.0
 21
-118.2310509999996
 31
0.0
  0
LINE
  5
9ED
  8
DETAIL
  6
CONTINUOUS
 62
     5
 10
-88.0
 20
-122.1640639999999
 30
0.0
 11
-212.0
 21
-122.1640639999999
 31
0.0
  0
LINE
  5
9EE
  8
DETAIL
  6
CONTINUOUS
 62
     5
 10
-88.499999999999986
 20
-124.3650249999999
 30
0.0
 11
-211.5
 21
-124.3650249999999
 31
0.0
  0
ARC
  5
9EF
  8
DETAIL
  6
CONTINUOUS
 62
     5
 10
-212.0
 20
-53.164064000000003
 30
0.0
 40
3.0
 50
180.0
 51
270.0
  0
LINE
  5
9F0
  8
DETAIL
  6
CONTINUOUS
 62
     5
 10
-215.0
 20
-54.865025000000003
 30
0.0
 11
-215.0
 21
-51.365025000000003
 31
0.0
  0
ARC
  5
9F1
  8
DETAIL
  6
CONTINUOUS
 62
     5
 10
-211.5
 20
-54.865025000000003
 30
0.0
 40
3.5
 50
180.0
 51
270.0
  0
ARC
  5
9F2
  8
DETAIL
  6
CONTINUOUS
 62
     5
 10
-212.0
 20
-64.164063999999996
 30
0.0
 40
3.0
 50
180.0
 51
270.0
  0
LINE
  5
9F3
  8
DETAIL
  6
CONTINUOUS
 62
     5
 10
-215.0
 20
-65.865025000000003
 30
0.0
 11
-215.0
 21
-62.365025000000003
 31
0.0
  0
ARC
  5
9F4
  8
DETAIL
  6
CONTINUOUS
 62
     5
 10
-211.5
 20
-65.865025000000003
 30
0.0
 40
3.5
 50
180.0
 51
270.0
  0
ARC
  5
9F5
  8
DETAIL
  6
CONTINUOUS
 62
     5
 10
-212.0
 20
-75.164063999999982
 30
0.0
 40
3.0
 50
180.0
 51
270.0
  0
LINE
  5
9F6
  8
DETAIL
  6
CONTINUOUS
 62
     5
 10
-215.0
 20
-76.865025000000003
 30
0.0
 11
-215.0
 21
-73.365025000000003
 31
0.0
  0
ARC
  5
9F7
  8
DETAIL
  6
CONTINUOUS
 62
     5
 10
-211.5
 20
-76.865025000000003
 30
0.0
 40
3.5
 50
180.0
 51
270.0
  0
ARC
  5
9F8
  8
DETAIL
  6
CONTINUOUS
 62
     5
 10
-212.0
 20
-86.164063999999982
 30
0.0
 40
3.0
 50
180.0
 51
270.0
  0
LINE
  5
9F9
  8
DETAIL
  6
CONTINUOUS
 62
     5
 10
-215.0
 20
-87.865025000000003
 30
0.0
 11
-215.0
 21
-84.365025000000017
 31
0.0
  0
ARC
  5
9FA
  8
DETAIL
  6
CONTINUOUS
 62
     5
 10
-211.5
 20
-87.865025000000003
 30
0.0
 40
3.5
 50
180.0
 51
270.0
  0
ARC
  5
9FB
  8
DETAIL
  6
CONTINUOUS
 62
     5
 10
-212.0
 20
-97.164063999999996
 30
0.0
 40
3.0
 50
180.0
 51
270.0
  0
LINE
  5
9FC
  8
DETAIL
  6
CONTINUOUS
 62
     5
 10
-215.0
 20
-98.865025000000003
 30
0.0
 11
-215.0
 21
-95.365025000000003
 31
0.0
  0
ARC
  5
9FD
  8
DETAIL
  6
CONTINUOUS
 62
     5
 10
-211.5
 20
-98.865025000000003
 30
0.0
 40
3.5
 50
180.0
 51
270.0
  0
ARC
  5
9FE
  8
DETAIL
  6
CONTINUOUS
 62
     5
 10
-211.5
 20
-109.865025
 30
0.0
 40
3.5
 50
180.0
 51
270.0
  0
ARC
  5
9FF
  8
DETAIL
  6
CONTINUOUS
 62
     5
 10
-211.5
 20
-120.865025
 30
0.0
 40
3.5
 50
180.0
 51
270.0
  0
LINE
  5
A00
  8
DETAIL
  6
CONTINUOUS
 62
     5
 10
-215.0
 20
-120.865025
 30
0.0
 11
-215.0
 21
-117.365025
 31
0.0
  0
ARC
  5
A01
  8
DETAIL
  6
CONTINUOUS
 62
     5
 10
-212.0
 20
-119.1640639999999
 30
0.0
 40
3.0
 50
180.0
 51
270.0
  0
ARC
  5
A02
  8
DETAIL
  6
CONTINUOUS
 62
     5
 10
-212.0
 20
-108.164064
 30
0.0
 40
3.0
 50
180.0
 51
270.0
  0
LINE
  5
A03
  8
DETAIL
  6
CONTINUOUS
 62
     5
 10
-215.0
 20
-109.865025
 30
0.0
 11
-215.0
 21
-106.365025
 31
0.0
  0
ARC
  5
A04
  8
DETAIL
  6
CONTINUOUS
 62
     5
 10
-88.0
 20
-64.164063999999996
 30
0.0
 40
3.0
 50
270.0
 51
0.0
  0
ARC
  5
A05
  8
DETAIL
  6
CONTINUOUS
 62
     5
 10
-88.499999999999986
 20
-65.865025000000003
 30
0.0
 40
3.5
 50
270.0
 51
0.0
  0
LINE
  5
A06
  8
DETAIL
  6
CONTINUOUS
 62
     5
 10
-85.0
 20
-65.865025000000003
 30
0.0
 11
-85.0
 21
-62.365025000000003
 31
0.0
  0
ARC
  5
A07
  8
DETAIL
  6
CONTINUOUS
 62
     5
 10
-88.0
 20
-53.164064000000003
 30
0.0
 40
3.0
 50
270.0
 51
0.0
  0
ARC
  5
A08
  8
DETAIL
  6
CONTINUOUS
 62
     5
 10
-88.499999999999986
 20
-54.865025000000003
 30
0.0
 40
3.5
 50
270.0
 51
0.0
  0
LINE
  5
A09
  8
DETAIL
  6
CONTINUOUS
 62
     5
 10
-85.0
 20
-54.865025000000003
 30
0.0
 11
-85.0
 21
-51.365025000000003
 31
0.0
  0
ARC
  5
A0A
  8
DETAIL
  6
CONTINUOUS
 62
     5
 10
-88.0
 20
-75.164063999999982
 30
0.0
 40
3.0
 50
270.0
 51
0.0
  0
ARC
  5
A0B
  8
DETAIL
  6
CONTINUOUS
 62
     5
 10
-88.499999999999986
 20
-76.865025000000003
 30
0.0
 40
3.5
 50
270.0
 51
0.0
  0
LINE
  5
A0C
  8
DETAIL
  6
CONTINUOUS
 62
     5
 10
-85.0
 20
-76.865025000000003
 30
0.0
 11
-85.0
 21
-73.365025000000003
 31
0.0
  0
ARC
  5
A0D
  8
DETAIL
  6
CONTINUOUS
 62
     5
 10
-88.0
 20
-86.164063999999982
 30
0.0
 40
3.0
 50
270.0
 51
0.0
  0
ARC
  5
A0E
  8
DETAIL
  6
CONTINUOUS
 62
     5
 10
-88.499999999999986
 20
-87.865025000000003
 30
0.0
 40
3.5
 50
270.0
 51
0.0
  0
LINE
  5
A0F
  8
DETAIL
  6
CONTINUOUS
 62
     5
 10
-85.0
 20
-87.865025000000003
 30
0.0
 11
-85.0
 21
-84.365025000000017
 31
0.0
  0
ARC
  5
A10
  8
DETAIL
  6
CONTINUOUS
 62
     5
 10
-88.0
 20
-97.164063999999996
 30
0.0
 40
3.0
 50
270.0
 51
0.0
  0
LINE
  5
A11
  8
DETAIL
  6
CONTINUOUS
 62
     5
 10
-85.0
 20
-98.865025000000003
 30
0.0
 11
-85.0
 21
-95.365025000000003
 31
0.0
  0
ARC
  5
A12
  8
DETAIL
  6
CONTINUOUS
 62
     5
 10
-88.499999999999986
 20
-98.865025000000003
 30
0.0
 40
3.5
 50
270.0
 51
0.0
  0
ARC
  5
A13
  8
DETAIL
  6
CONTINUOUS
 62
     5
 10
-88.499999999999986
 20
-109.865025
 30
0.0
 40
3.5
 50
270.0
 51
0.0
  0
LINE
  5
A14
  8
DETAIL
  6
CONTINUOUS
 62
     5
 10
-85.0
 20
-120.865025
 30
0.0
 11
-85.0
 21
-117.365025
 31
0.0
  0
ARC
  5
A15
  8
DETAIL
  6
CONTINUOUS
 62
     5
 10
-88.499999999999986
 20
-120.865025
 30
0.0
 40
3.5
 50
270.0
 51
0.0
  0
ARC
  5
A16
  8
DETAIL
  6
CONTINUOUS
 62
     5
 10
-88.0
 20
-119.1640639999999
 30
0.0
 40
3.0
 50
270.0
 51
0.0
  0
ARC
  5
A17
  8
DETAIL
  6
CONTINUOUS
 62
     5
 10
-88.0
 20
-108.164064
 30
0.0
 40
3.0
 50
270.0
 51
0.0
  0
LINE
  5
A18
  8
DETAIL
  6
CONTINUOUS
 62
     5
 10
-85.0
 20
-109.865025
 30
0.0
 11
-85.0
 21
-106.365025
 31
0.0
  0
ARC
  5
A19
  8
DETAIL
  6
CONTINUOUS
 62
     5
 10
-62.0
 20
-53.164064000000003
 30
0.0
 40
3.0
 50
180.0
 51
270.0
  0
LINE
  5
A1A
  8
DETAIL
  6
CONTINUOUS
 62
     5
 10
-65.0
 20
-54.865025000000003
 30
0.0
 11
-65.0
 21
-51.365025000000003
 31
0.0
  0
ARC
  5
A1B
  8
DETAIL
  6
CONTINUOUS
 62
     5
 10
-61.5
 20
-54.865025000000003
 30
0.0
 40
3.5
 50
180.0
 51
270.0
  0
ARC
  5
A1C
  8
DETAIL
  6
CONTINUOUS
 62
     5
 10
-62.0
 20
-64.164063999999996
 30
0.0
 40
3.0
 50
180.0
 51
270.0
  0
LINE
  5
A1D
  8
DETAIL
  6
CONTINUOUS
 62
     5
 10
-65.0
 20
-65.865025000000003
 30
0.0
 11
-65.0
 21
-62.365025000000003
 31
0.0
  0
ARC
  5
A1E
  8
DETAIL
  6
CONTINUOUS
 62
     5
 10
-61.5
 20
-65.865025000000003
 30
0.0
 40
3.5
 50
180.0
 51
270.0
  0
ARC
  5
A1F
  8
DETAIL
  6
CONTINUOUS
 62
     5
 10
-62.0
 20
-75.164063999999982
 30
0.0
 40
3.0
 50
180.0
 51
270.0
  0
LINE
  5
A20
  8
DETAIL
  6
CONTINUOUS
 62
     5
 10
-65.0
 20
-76.865025000000003
 30
0.0
 11
-65.0
 21
-73.365025000000003
 31
0.0
  0
ARC
  5
A21
  8
DETAIL
  6
CONTINUOUS
 62
     5
 10
-61.5
 20
-76.865025000000003
 30
0.0
 40
3.5
 50
180.0
 51
270.0
  0
ARC
  5
A22
  8
DETAIL
  6
CONTINUOUS
 62
     5
 10
-62.0
 20
-86.164063999999982
 30
0.0
 40
3.0
 50
180.0
 51
270.0
  0
LINE
  5
A23
  8
DETAIL
  6
CONTINUOUS
 62
     5
 10
-65.0
 20
-87.865025000000003
 30
0.0
 11
-65.0
 21
-84.365025000000017
 31
0.0
  0
ARC
  5
A24
  8
DETAIL
  6
CONTINUOUS
 62
     5
 10
-61.5
 20
-87.865025000000003
 30
0.0
 40
3.5
 50
180.0
 51
270.0
  0
ARC
  5
A25
  8
DETAIL
  6
CONTINUOUS
 62
     5
 10
-62.0
 20
-97.164063999999996
 30
0.0
 40
3.0
 50
180.0
 51
270.0
  0
LINE
  5
A26
  8
DETAIL
  6
CONTINUOUS
 62
     5
 10
-65.0
 20
-98.865025000000003
 30
0.0
 11
-65.0
 21
-95.365025000000003
 31
0.0
  0
ARC
  5
A27
  8
DETAIL
  6
CONTINUOUS
 62
     5
 10
-61.5
 20
-98.865025000000003
 30
0.0
 40
3.5
 50
180.0
 51
270.0
  0
ARC
  5
A28
  8
DETAIL
  6
CONTINUOUS
 62
     5
 10
-61.5
 20
-109.865025
 30
0.0
 40
3.5
 50
180.0
 51
270.0
  0
ARC
  5
A29
  8
DETAIL
  6
CONTINUOUS
 62
     5
 10
-61.5
 20
-120.865025
 30
0.0
 40
3.5
 50
180.0
 51
270.0
  0
LINE
  5
A2A
  8
DETAIL
  6
CONTINUOUS
 62
     5
 10
-65.0
 20
-120.865025
 30
0.0
 11
-65.0
 21
-117.365025
 31
0.0
  0
ARC
  5
A2B
  8
DETAIL
  6
CONTINUOUS
 62
     5
 10
-62.0
 20
-119.1640639999999
 30
0.0
 40
3.0
 50
180.0
 51
270.0
  0
ARC
  5
A2C
  8
DETAIL
  6
CONTINUOUS
 62
     5
 10
-62.0
 20
-108.164064
 30
0.0
 40
3.0
 50
180.0
 51
270.0
  0
LINE
  5
A2D
  8
DETAIL
  6
CONTINUOUS
 62
     5
 10
-65.0
 20
-109.865025
 30
0.0
 11
-65.0
 21
-106.365025
 31
0.0
  0
LINE
  5
A2E
  8
DETAIL
  6
CONTINUOUS
 62
     5
 10
88.499999999999986
 20
-124.3650249999999
 30
0.0
 11
211.5
 21
-124.3650249999999
 31
0.0
  0
LINE
  5
A2F
  8
DETAIL
  6
CONTINUOUS
 62
     5
 10
88.0
 20
-122.1640639999999
 30
0.0
 11
212.0
 21
-122.1640639999999
 31
0.0
  0
LINE
  5
A30
  8
DETAIL
  6
CONTINUOUS
 62
     5
 10
87.0
 20
-118.2310509999996
 30
0.0
 11
213.0
 21
-118.2310509999996
 31
0.0
  0
LINE
  5
A31
  8
DETAIL
  6
CONTINUOUS
 62
     5
 10
88.499999999999986
 20
-113.365025
 30
0.0
 11
211.5
 21
-113.365025
 31
0.0
  0
LINE
  5
A32
  8
DETAIL
  6
CONTINUOUS
 62
     5
 10
87.0
 20
-107.2310509999996
 30
0.0
 11
213.0
 21
-107.2310509999996
 31
0.0
  0
LINE
  5
A33
  8
DETAIL
  6
CONTINUOUS
 62
     5
 10
88.0
 20
-111.164064
 30
0.0
 11
212.0
 21
-111.164064
 31
0.0
  0
LINE
  5
A34
  8
DETAIL
  6
CONTINUOUS
 62
     5
 10
88.499999999999986
 20
-102.3650249999999
 30
0.0
 11
211.5
 21
-102.3650249999999
 31
0.0
  0
LINE
  5
A35
  8
DETAIL
  6
CONTINUOUS
 62
     5
 10
88.0
 20
-100.1640639999999
 30
0.0
 11
212.0
 21
-100.1640639999999
 31
0.0
  0
LINE
  5
A36
  8
DETAIL
  6
CONTINUOUS
 62
     5
 10
87.0
 20
-96.231050999999994
 30
0.0
 11
213.0
 21
-96.231050999999994
 31
0.0
  0
LINE
  5
A37
  8
DETAIL
  6
CONTINUOUS
 62
     5
 10
88.499999999999986
 20
-91.365025000000003
 30
0.0
 11
211.5
 21
-91.365025000000003
 31
0.0
  0
LINE
  5
A38
  8
DETAIL
  6
CONTINUOUS
 62
     5
 10
87.0
 20
-85.231050999999979
 30
0.0
 11
213.0
 21
-85.231050999999979
 31
0.0
  0
LINE
  5
A39
  8
DETAIL
  6
CONTINUOUS
 62
     5
 10
88.0
 20
-89.164063999999968
 30
0.0
 11
212.0
 21
-89.164063999999968
 31
0.0
  0
LINE
  5
A3A
  8
DETAIL
  6
CONTINUOUS
 62
     5
 10
88.499999999999986
 20
-80.365025000000003
 30
0.0
 11
211.5
 21
-80.365025000000003
 31
0.0
  0
LINE
  5
A3B
  8
DETAIL
  6
CONTINUOUS
 62
     5
 10
87.0
 20
-74.231050999999979
 30
0.0
 11
213.0
 21
-74.231050999999979
 31
0.0
  0
LINE
  5
A3C
  8
DETAIL
  6
CONTINUOUS
 62
     5
 10
88.0
 20
-78.164063999999982
 30
0.0
 11
212.0
 21
-78.164063999999982
 31
0.0
  0
LINE
  5
A3D
  8
DETAIL
  6
CONTINUOUS
 62
     5
 10
88.499999999999986
 20
-58.365025000000003
 30
0.0
 11
211.5
 21
-58.365025000000003
 31
0.0
  0
LINE
  5
A3E
  8
DETAIL
  6
CONTINUOUS
 62
     5
 10
87.0
 20
-52.231051000000001
 30
0.0
 11
213.0
 21
-52.231051000000001
 31
0.0
  0
LINE
  5
A3F
  8
DETAIL
  6
CONTINUOUS
 62
     5
 10
88.0
 20
-56.164064000000003
 30
0.0
 11
212.0
 21
-56.164064000000003
 31
0.0
  0
LINE
  5
A40
  8
DETAIL
  6
CONTINUOUS
 62
     5
 10
88.499999999999986
 20
-69.365025000000003
 30
0.0
 11
211.5
 21
-69.365025000000003
 31
0.0
  0
LINE
  5
A41
  8
DETAIL
  6
CONTINUOUS
 62
     5
 10
87.0
 20
-63.231051000000001
 30
0.0
 11
213.0
 21
-63.231051000000001
 31
0.0
  0
LINE
  5
A42
  8
DETAIL
  6
CONTINUOUS
 62
     5
 10
88.0
 20
-67.164063999999996
 30
0.0
 11
212.0
 21
-67.164063999999996
 31
0.0
  0
LINE
  5
A43
  8
DETAIL
  6
CONTINUOUS
 62
     5
 10
0.0
 20
-124.3650249999999
 30
0.0
 11
61.5
 21
-124.3650249999999
 31
0.0
  0
LINE
  5
A44
  8
DETAIL
  6
CONTINUOUS
 62
     5
 10
0.0
 20
-122.1640639999999
 30
0.0
 11
62.0
 21
-122.1640639999999
 31
0.0
  0
LINE
  5
A45
  8
DETAIL
  6
CONTINUOUS
 62
     5
 10
0.0
 20
-118.2310509999996
 30
0.0
 11
63.0
 21
-118.2310509999996
 31
0.0
  0
LINE
  5
A46
  8
DETAIL
  6
CONTINUOUS
 62
     5
 10
0.0
 20
-113.365025
 30
0.0
 11
61.5
 21
-113.365025
 31
0.0
  0
LINE
  5
A47
  8
DETAIL
  6
CONTINUOUS
 62
     5
 10
0.0
 20
-107.2310509999996
 30
0.0
 11
63.0
 21
-107.2310509999996
 31
0.0
  0
LINE
  5
A48
  8
DETAIL
  6
CONTINUOUS
 62
     5
 10
0.0
 20
-111.164064
 30
0.0
 11
62.0
 21
-111.164064
 31
0.0
  0
LINE
  5
A49
  8
DETAIL
  6
CONTINUOUS
 62
     5
 10
0.0
 20
-102.3650249999999
 30
0.0
 11
61.5
 21
-102.3650249999999
 31
0.0
  0
LINE
  5
A4A
  8
DETAIL
  6
CONTINUOUS
 62
     5
 10
0.0
 20
-100.1640639999999
 30
0.0
 11
62.0
 21
-100.1640639999999
 31
0.0
  0
LINE
  5
A4B
  8
DETAIL
  6
CONTINUOUS
 62
     5
 10
0.0
 20
-96.231050999999994
 30
0.0
 11
63.0
 21
-96.231050999999994
 31
0.0
  0
LINE
  5
A4C
  8
DETAIL
  6
CONTINUOUS
 62
     5
 10
0.0
 20
-91.365025000000003
 30
0.0
 11
61.5
 21
-91.365025000000003
 31
0.0
  0
LINE
  5
A4D
  8
DETAIL
  6
CONTINUOUS
 62
     5
 10
0.0
 20
-85.231050999999979
 30
0.0
 11
63.0
 21
-85.231050999999979
 31
0.0
  0
LINE
  5
A4E
  8
DETAIL
  6
CONTINUOUS
 62
     5
 10
0.0
 20
-89.164063999999968
 30
0.0
 11
62.0
 21
-89.164063999999968
 31
0.0
  0
LINE
  5
A4F
  8
DETAIL
  6
CONTINUOUS
 62
     5
 10
0.0
 20
-80.365025000000003
 30
0.0
 11
61.5
 21
-80.365025000000003
 31
0.0
  0
LINE
  5
A50
  8
DETAIL
  6
CONTINUOUS
 62
     5
 10
0.0
 20
-74.231050999999979
 30
0.0
 11
63.0
 21
-74.231050999999979
 31
0.0
  0
LINE
  5
A51
  8
DETAIL
  6
CONTINUOUS
 62
     5
 10
0.0
 20
-78.164063999999982
 30
0.0
 11
62.0
 21
-78.164063999999982
 31
0.0
  0
LINE
  5
A52
  8
DETAIL
  6
CONTINUOUS
 62
     5
 10
0.0
 20
-58.365025000000003
 30
0.0
 11
61.5
 21
-58.365025000000003
 31
0.0
  0
LINE
  5
A53
  8
DETAIL
  6
CONTINUOUS
 62
     5
 10
0.0
 20
-52.231051000000001
 30
0.0
 11
63.0
 21
-52.231051000000001
 31
0.0
  0
LINE
  5
A54
  8
DETAIL
  6
CONTINUOUS
 62
     5
 10
0.0
 20
-56.164064000000003
 30
0.0
 11
62.0
 21
-56.164064000000003
 31
0.0
  0
LINE
  5
A55
  8
DETAIL
  6
CONTINUOUS
 62
     5
 10
0.0
 20
-69.365025000000003
 30
0.0
 11
61.5
 21
-69.365025000000003
 31
0.0
  0
LINE
  5
A56
  8
DETAIL
  6
CONTINUOUS
 62
     5
 10
0.0
 20
-63.231051000000001
 30
0.0
 11
63.0
 21
-63.231051000000001
 31
0.0
  0
LINE
  5
A57
  8
DETAIL
  6
CONTINUOUS
 62
     5
 10
0.0
 20
-67.164063999999996
 30
0.0
 11
62.0
 21
-67.164063999999996
 31
0.0
  0
ARC
  5
A58
  8
DETAIL
  6
CONTINUOUS
 62
     5
 10
88.499999999999986
 20
-98.865025000000003
 30
0.0
 40
3.5
 50
180.0
 51
270.0
  0
LINE
  5
A59
  8
DETAIL
  6
CONTINUOUS
 62
     5
 10
85.0
 20
-98.865025000000003
 30
0.0
 11
85.0
 21
-95.365025000000003
 31
0.0
  0
ARC
  5
A5A
  8
DETAIL
  6
CONTINUOUS
 62
     5
 10
88.0
 20
-97.164063999999996
 30
0.0
 40
3.0
 50
180.0
 51
270.0
  0
LINE
  5
A5B
  8
DETAIL
  6
CONTINUOUS
 62
     5
 10
85.0
 20
-87.865025000000003
 30
0.0
 11
85.0
 21
-84.365025000000017
 31
0.0
  0
ARC
  5
A5C
  8
DETAIL
  6
CONTINUOUS
 62
     5
 10
88.499999999999986
 20
-87.865025000000003
 30
0.0
 40
3.5
 50
180.0
 51
270.0
  0
ARC
  5
A5D
  8
DETAIL
  6
CONTINUOUS
 62
     5
 10
88.0
 20
-86.164063999999982
 30
0.0
 40
3.0
 50
180.0
 51
270.0
  0
LINE
  5
A5E
  8
DETAIL
  6
CONTINUOUS
 62
     5
 10
85.0
 20
-76.865025000000003
 30
0.0
 11
85.0
 21
-73.365025000000003
 31
0.0
  0
ARC
  5
A5F
  8
DETAIL
  6
CONTINUOUS
 62
     5
 10
88.499999999999986
 20
-76.865025000000003
 30
0.0
 40
3.5
 50
180.0
 51
270.0
  0
ARC
  5
A60
  8
DETAIL
  6
CONTINUOUS
 62
     5
 10
88.0
 20
-75.164063999999982
 30
0.0
 40
3.0
 50
180.0
 51
270.0
  0
LINE
  5
A61
  8
DETAIL
  6
CONTINUOUS
 62
     5
 10
85.0
 20
-54.865025000000003
 30
0.0
 11
85.0
 21
-51.365025000000003
 31
0.0
  0
ARC
  5
A62
  8
DETAIL
  6
CONTINUOUS
 62
     5
 10
88.499999999999986
 20
-54.865025000000003
 30
0.0
 40
3.5
 50
180.0
 51
270.0
  0
ARC
  5
A63
  8
DETAIL
  6
CONTINUOUS
 62
     5
 10
88.0
 20
-53.164064000000003
 30
0.0
 40
3.0
 50
180.0
 51
270.0
  0
LINE
  5
A64
  8
DETAIL
  6
CONTINUOUS
 62
     5
 10
85.0
 20
-65.865025000000003
 30
0.0
 11
85.0
 21
-62.365025000000003
 31
0.0
  0
ARC
  5
A65
  8
DETAIL
  6
CONTINUOUS
 62
     5
 10
88.499999999999986
 20
-65.865025000000003
 30
0.0
 40
3.5
 50
180.0
 51
270.0
  0
ARC
  5
A66
  8
DETAIL
  6
CONTINUOUS
 62
     5
 10
88.0
 20
-64.164063999999996
 30
0.0
 40
3.0
 50
180.0
 51
270.0
  0
ARC
  5
A67
  8
DETAIL
  6
CONTINUOUS
 62
     5
 10
61.5
 20
-98.865025000000003
 30
0.0
 40
3.5
 50
270.0
 51
0.0
  0
LINE
  5
A68
  8
DETAIL
  6
CONTINUOUS
 62
     5
 10
65.0
 20
-98.865025000000003
 30
0.0
 11
65.0
 21
-95.365025000000003
 31
0.0
  0
ARC
  5
A69
  8
DETAIL
  6
CONTINUOUS
 62
     5
 10
62.0
 20
-97.164063999999996
 30
0.0
 40
3.0
 50
270.0
 51
0.0
  0
ARC
  5
A6A
  8
DETAIL
  6
CONTINUOUS
 62
     5
 10
61.5
 20
-87.865025000000003
 30
0.0
 40
3.5
 50
270.0
 51
0.0
  0
LINE
  5
A6B
  8
DETAIL
  6
CONTINUOUS
 62
     5
 10
65.0
 20
-87.865025000000003
 30
0.0
 11
65.0
 21
-84.365025000000017
 31
0.0
  0
ARC
  5
A6C
  8
DETAIL
  6
CONTINUOUS
 62
     5
 10
62.0
 20
-86.164063999999982
 30
0.0
 40
3.0
 50
270.0
 51
0.0
  0
ARC
  5
A6D
  8
DETAIL
  6
CONTINUOUS
 62
     5
 10
61.5
 20
-76.865025000000003
 30
0.0
 40
3.5
 50
270.0
 51
0.0
  0
LINE
  5
A6E
  8
DETAIL
  6
CONTINUOUS
 62
     5
 10
65.0
 20
-76.865025000000003
 30
0.0
 11
65.0
 21
-73.365025000000003
 31
0.0
  0
ARC
  5
A6F
  8
DETAIL
  6
CONTINUOUS
 62
     5
 10
62.0
 20
-75.164063999999982
 30
0.0
 40
3.0
 50
270.0
 51
0.0
  0
ARC
  5
A70
  8
DETAIL
  6
CONTINUOUS
 62
     5
 10
61.5
 20
-65.865025000000003
 30
0.0
 40
3.5
 50
270.0
 51
0.0
  0
LINE
  5
A71
  8
DETAIL
  6
CONTINUOUS
 62
     5
 10
65.0
 20
-65.865025000000003
 30
0.0
 11
65.0
 21
-62.365025000000003
 31
0.0
  0
ARC
  5
A72
  8
DETAIL
  6
CONTINUOUS
 62
     5
 10
62.0
 20
-64.164063999999996
 30
0.0
 40
3.0
 50
270.0
 51
0.0
  0
ARC
  5
A73
  8
DETAIL
  6
CONTINUOUS
 62
     5
 10
61.5
 20
-54.865025000000003
 30
0.0
 40
3.5
 50
270.0
 51
0.0
  0
LINE
  5
A74
  8
DETAIL
  6
CONTINUOUS
 62
     5
 10
65.0
 20
-54.865025000000003
 30
0.0
 11
65.0
 21
-51.365025000000003
 31
0.0
  0
ARC
  5
A75
  8
DETAIL
  6
CONTINUOUS
 62
     5
 10
62.0
 20
-53.164064000000003
 30
0.0
 40
3.0
 50
270.0
 51
0.0
  0
ARC
  5
A76
  8
DETAIL
  6
CONTINUOUS
 62
     5
 10
88.0
 20
-119.1640639999999
 30
0.0
 40
3.0
 50
180.0
 51
270.0
  0
ARC
  5
A77
  8
DETAIL
  6
CONTINUOUS
 62
     5
 10
88.499999999999986
 20
-120.865025
 30
0.0
 40
3.5
 50
180.0
 51
270.0
  0
LINE
  5
A78
  8
DETAIL
  6
CONTINUOUS
 62
     5
 10
85.0
 20
-120.865025
 30
0.0
 11
85.0
 21
-117.365025
 31
0.0
  0
ARC
  5
A79
  8
DETAIL
  6
CONTINUOUS
 62
     5
 10
88.499999999999986
 20
-109.865025
 30
0.0
 40
3.5
 50
180.0
 51
270.0
  0
ARC
  5
A7A
  8
DETAIL
  6
CONTINUOUS
 62
     5
 10
62.0
 20
-119.1640639999999
 30
0.0
 40
3.0
 50
270.0
 51
0.0
  0
LINE
  5
A7B
  8
DETAIL
  6
CONTINUOUS
 62
     5
 10
65.0
 20
-120.865025
 30
0.0
 11
65.0
 21
-117.365025
 31
0.0
  0
ARC
  5
A7C
  8
DETAIL
  6
CONTINUOUS
 62
     5
 10
61.5
 20
-120.865025
 30
0.0
 40
3.5
 50
270.0
 51
0.0
  0
ARC
  5
A7D
  8
DETAIL
  6
CONTINUOUS
 62
     5
 10
61.5
 20
-109.865025
 30
0.0
 40
3.5
 50
270.0
 51
0.0
  0
LINE
  5
A7E
  8
DETAIL
  6
CONTINUOUS
 62
     5
 10
85.0
 20
-109.865025
 30
0.0
 11
85.0
 21
-106.365025
 31
0.0
  0
ARC
  5
A7F
  8
DETAIL
  6
CONTINUOUS
 62
     5
 10
88.0
 20
-108.164064
 30
0.0
 40
3.0
 50
180.0
 51
270.0
  0
LINE
  5
A80
  8
DETAIL
  6
CONTINUOUS
 62
     5
 10
65.0
 20
-109.865025
 30
0.0
 11
65.0
 21
-106.365025
 31
0.0
  0
ARC
  5
A81
  8
DETAIL
  6
CONTINUOUS
 62
     5
 10
62.0
 20
-108.164064
 30
0.0
 40
3.0
 50
270.0
 51
0.0
  0
ARC
  5
A82
  8
DETAIL
  6
CONTINUOUS
 62
     5
 10
211.5
 20
-98.865025000000003
 30
0.0
 40
3.5
 50
270.0
 51
0.0
  0
LINE
  5
A83
  8
DETAIL
  6
CONTINUOUS
 62
     5
 10
215.0
 20
-98.865025000000003
 30
0.0
 11
215.0
 21
-95.365025000000003
 31
0.0
  0
ARC
  5
A84
  8
DETAIL
  6
CONTINUOUS
 62
     5
 10
212.0
 20
-97.164063999999996
 30
0.0
 40
3.0
 50
270.0
 51
0.0
  0
ARC
  5
A85
  8
DETAIL
  6
CONTINUOUS
 62
     5
 10
211.5
 20
-87.865025000000003
 30
0.0
 40
3.5
 50
270.0
 51
0.0
  0
LINE
  5
A86
  8
DETAIL
  6
CONTINUOUS
 62
     5
 10
215.0
 20
-87.865025000000003
 30
0.0
 11
215.0
 21
-84.365025000000017
 31
0.0
  0
ARC
  5
A87
  8
DETAIL
  6
CONTINUOUS
 62
     5
 10
212.0
 20
-86.164063999999982
 30
0.0
 40
3.0
 50
270.0
 51
0.0
  0
ARC
  5
A88
  8
DETAIL
  6
CONTINUOUS
 62
     5
 10
211.5
 20
-76.865025000000003
 30
0.0
 40
3.5
 50
270.0
 51
0.0
  0
LINE
  5
A89
  8
DETAIL
  6
CONTINUOUS
 62
     5
 10
215.0
 20
-76.865025000000003
 30
0.0
 11
215.0
 21
-73.365025000000003
 31
0.0
  0
ARC
  5
A8A
  8
DETAIL
  6
CONTINUOUS
 62
     5
 10
212.0
 20
-75.164063999999982
 30
0.0
 40
3.0
 50
270.0
 51
0.0
  0
ARC
  5
A8B
  8
DETAIL
  6
CONTINUOUS
 62
     5
 10
211.5
 20
-65.865025000000003
 30
0.0
 40
3.5
 50
270.0
 51
0.0
  0
LINE
  5
A8C
  8
DETAIL
  6
CONTINUOUS
 62
     5
 10
215.0
 20
-65.865025000000003
 30
0.0
 11
215.0
 21
-62.365025000000003
 31
0.0
  0
ARC
  5
A8D
  8
DETAIL
  6
CONTINUOUS
 62
     5
 10
212.0
 20
-64.164063999999996
 30
0.0
 40
3.0
 50
270.0
 51
0.0
  0
ARC
  5
A8E
  8
DETAIL
  6
CONTINUOUS
 62
     5
 10
211.5
 20
-54.865025000000003
 30
0.0
 40
3.5
 50
270.0
 51
0.0
  0
LINE
  5
A8F
  8
DETAIL
  6
CONTINUOUS
 62
     5
 10
215.0
 20
-54.865025000000003
 30
0.0
 11
215.0
 21
-51.365025000000003
 31
0.0
  0
ARC
  5
A90
  8
DETAIL
  6
CONTINUOUS
 62
     5
 10
212.0
 20
-53.164064000000003
 30
0.0
 40
3.0
 50
270.0
 51
0.0
  0
ARC
  5
A91
  8
DETAIL
  6
CONTINUOUS
 62
     5
 10
212.0
 20
-119.1640639999999
 30
0.0
 40
3.0
 50
270.0
 51
0.0
  0
LINE
  5
A92
  8
DETAIL
  6
CONTINUOUS
 62
     5
 10
215.0
 20
-120.865025
 30
0.0
 11
215.0
 21
-117.365025
 31
0.0
  0
ARC
  5
A93
  8
DETAIL
  6
CONTINUOUS
 62
     5
 10
211.5
 20
-120.865025
 30
0.0
 40
3.5
 50
270.0
 51
0.0
  0
ARC
  5
A94
  8
DETAIL
  6
CONTINUOUS
 62
     5
 10
211.5
 20
-109.865025
 30
0.0
 40
3.5
 50
270.0
 51
0.0
  0
LINE
  5
A95
  8
DETAIL
  6
CONTINUOUS
 62
     5
 10
215.0
 20
-109.865025
 30
0.0
 11
215.0
 21
-106.365025
 31
0.0
  0
ARC
  5
A96
  8
DETAIL
  6
CONTINUOUS
 62
     5
 10
212.0
 20
-108.164064
 30
0.0
 40
3.0
 50
270.0
 51
0.0
  0
TEXT
  5
A97
  8
ETC
  6
CONTINUOUS
 62
    61
 10
684.04612125714243
 20
669.4476703647556
 30
0.0
 40
64.0
  1
V-604KQE7_2
 41
0.9
  0
TEXT
  5
A98
  8
ETC
  6
CONTINUOUS
 62
    61
 10
679.82415425714248
 20
572.95684336475563
 30
0.0
 40
64.0
  1
換気扇
 41
0.9
  0
TEXT
  5
A99
  8
ETC
  6
CONTINUOUS
 62
    61
 10
827.31284424191074
 20
407.6607675433487
 30
0.0
 40
50.0
  1
V-604KQEF6
 41
0.9
  0
TEXT
  5
A9A
  8
ETC
  6
CONTINUOUS
 62
    61
 10
823.97064626490635
 20
489.76205276663222
 30
0.0
 40
50.0
  1
V-604KQE6
 41
0.9
  0
LINE
  5
A9C
  8
OUTLINE
  6
CONTINUOUS
 62
     3
 39
50.0
 10
-300.0
 20
0.0
 30
0.0
 11
300.0
 21
0.0
 31
0.0
  0
TEXT
  5
B78
  8
ETC
  6
CONTINUOUS
 62
    61
 10
823.97064626490635
 20
326.09261434901231
 30
0.0
 40
50.0
  1
V-604KQE7
 41
0.9
  0
ENDSEC
  0
EOF
