  0
SECTION
  2
HEADER
  9
$ACADVER
  1
AC1009
  9
$INSBASE
 10
0.0
 20
0.0
 30
0.0
  9
$EXTMIN
 10
-764.07163887525894
 20
-995.59019889634874
 30
-0.0015257624927045
  9
$EXTMAX
 10
1357.7453732813519
 20
639.90784499317851
 30
50.001525995323327
  9
$LIMMIN
 10
-2970.0
 20
-2100.0
  9
$LIMMAX
 10
2970.0
 20
2100.0
  9
$ORTHOMODE
 70
     1
  9
$REGENMODE
 70
     0
  9
$FILLMODE
 70
     1
  9
$QTEXTMODE
 70
     0
  9
$MIRRTEXT
 70
     0
  9
$DRAGMODE
 70
     2
  9
$LTSCALE
 40
20.0
  9
$OSMODE
 70
    32
  9
$ATTMODE
 70
     1
  9
$TEXTSIZE
 40
64.0
  9
$TRACEWID
 40
0.05
  9
$TEXTSTYLE
  7
STANDARD
  9
$CLAYER
  8
ETC
  9
$CELTYPE
  6
CONTINUOUS
  9
$CECOLOR
 62
     3
  9
$DIMSCALE
 40
1.0
  9
$DIMASZ
 40
12.0
  9
$DIMEXO
 40
20.0
  9
$DIMDLI
 40
200.0
  9
$DIMRND
 40
0.0
  9
$DIMDLE
 40
0.0
  9
$DIMEXE
 40
20.0
  9
$DIMTP
 40
0.0
  9
$DIMTM
 40
0.0
  9
$DIMTXT
 40
64.0
  9
$DIMCEN
 40
0.09
  9
$DIMTSZ
 40
0.0
  9
$DIMTOL
 70
     0
  9
$DIMLIM
 70
     0
  9
$DIMTIH
 70
     0
  9
$DIMTOH
 70
     0
  9
$DIMSE1
 70
     0
  9
$DIMSE2
 70
     0
  9
$DIMTAD
 70
     1
  9
$DIMZIN
 70
     8
  9
$DIMBLK
  1
DOT1
  9
$DIMASO
 70
     1
  9
$DIMSHO
 70
     0
  9
$DIMPOST
  1

  9
$DIMAPOST
  1

  9
$DIMALT
 70
     0
  9
$DIMALTD
 70
     2
  9
$DIMALTF
 40
25.399999999999999
  9
$DIMLFAC
 40
1.0
  9
$DIMTOFL
 70
     1
  9
$DIMTVP
 40
0.0
  9
$DIMTIX
 70
     1
  9
$DIMSOXD
 70
     0
  9
$DIMSAH
 70
     1
  9
$DIMBLK1
  1
ORIGIN
  9
$DIMBLK2
  1
ORIGIN
  9
$DIMSTYLE
  2
STANDARD
  9
$DIMCLRD
 70
     7
  9
$DIMCLRE
 70
     7
  9
$DIMCLRT
 70
     7
  9
$DIMTFAC
 40
1.0
  9
$DIMGAP
 40
25.0
  9
$LUNITS
 70
     2
  9
$LUPREC
 70
     4
  9
$SKETCHINC
 40
0.1
  9
$FILLETRAD
 40
4.0
  9
$AUNITS
 70
     1
  9
$AUPREC
 70
     3
  9
$MENU
  1
ACAD
  9
$ELEVATION
 40
0.0
  9
$PELEVATION
 40
0.0
  9
$THICKNESS
 40
50.0
  9
$LIMCHECK
 70
     0
  9
$BLIPMODE
 70
     0
  9
$CHAMFERA
 40
0.0
  9
$CHAMFERB
 40
0.0
  9
$SKPOLY
 70
     0
  9
$TDCREATE
 40
2453090.6791026969
  9
$TDUPDATE
 40
2454743.7286165399
  9
$TDINDWG
 40
0.0436563773
  9
$TDUSRTIMER
 40
0.0436560185
  9
$USRTIMER
 70
     1
  9
$ANGBASE
 50
0.0
  9
$ANGDIR
 70
     0
  9
$PDMODE
 70
     3
  9
$PDSIZE
 40
-2.0
  9
$PLINEWID
 40
0.0
  9
$COORDS
 70
     1
  9
$SPLFRAME
 70
     0
  9
$SPLINETYPE
 70
     6
  9
$SPLINESEGS
 70
     8
  9
$ATTDIA
 70
     0
  9
$ATTREQ
 70
     1
  9
$HANDLING
 70
     1
  9
$HANDSEED
  5
4C5
  9
$SURFTAB1
 70
     6
  9
$SURFTAB2
 70
     6
  9
$SURFTYPE
 70
     6
  9
$SURFU
 70
     6
  9
$SURFV
 70
     6
  9
$UCSNAME
  2

  9
$UCSORG
 10
0.0
 20
0.0
 30
0.0
  9
$UCSXDIR
 10
1.0
 20
0.0
 30
0.0
  9
$UCSYDIR
 10
0.0
 20
1.0
 30
0.0
  9
$PUCSNAME
  2

  9
$PUCSORG
 10
0.0
 20
0.0
 30
0.0
  9
$PUCSXDIR
 10
1.0
 20
0.0
 30
0.0
  9
$PUCSYDIR
 10
0.0
 20
1.0
 30
0.0
  9
$USERI1
 70
     0
  9
$USERI2
 70
     0
  9
$USERI3
 70
     0
  9
$USERI4
 70
     0
  9
$USERI5
 70
     0
  9
$USERR1
 40
20.0
  9
$USERR2
 40
0.0
  9
$USERR3
 40
0.0
  9
$USERR4
 40
0.0
  9
$USERR5
 40
0.0
  9
$WORLDVIEW
 70
     1
  9
$SHADEDGE
 70
     3
  9
$SHADEDIF
 70
    70
  9
$TILEMODE
 70
     1
  9
$MAXACTVP
 70
    48
  9
$PLIMCHECK
 70
     0
  9
$PEXTMIN
 10
-1.0000000000000000E+020
 20
-1.0000000000000000E+020
 30
-1.0000000000000000E+020
  9
$PEXTMAX
 10
1.0000000000000000E+020
 20
1.0000000000000000E+020
 30
1.0000000000000000E+020
  9
$PLIMMIN
 10
0.0
 20
0.0
  9
$PLIMMAX
 10
12.0
 20
9.0
  9
$UNITMODE
 70
     0
  9
$VISRETAIN
 70
     0
  9
$PLINEGEN
 70
     0
  9
$PSLTSCALE
 70
     0
  0
ENDSEC
  0
SECTION
  2
TABLES
  0
TABLE
  2
VPORT
 70
     1
  0
VPORT
  2
*ACTIVE
 70
     0
 10
0.0
 20
0.0
 11
1.0
 21
1.0
 12
445.27045136817782
 22
-452.37286051970858
 13
0.0
 23
0.0
 14
1.0
 24
1.0
 15
0.0
 25
0.0
 16
0.0
 26
0.0
 36
1.0
 17
0.0
 27
0.0
 37
0.0
 40
2638.817485616592
 41
1.812051649928264
 42
50.0
 43
0.0
 44
0.0
 50
0.0
 51
0.0
 71
     0
 72
  1000
 73
     1
 74
     0
 75
     0
 76
     0
 77
     0
 78
     0
  0
ENDTAB
  0
TABLE
  2
LTYPE
 70
     4
  0
LTYPE
  2
CONTINUOUS
 70
     0
  3
実線
 72
    65
 73
     0
 40
0.0
  0
LTYPE
  2
DASHDOT
 70
     0
  3
____ _ ____ _ ____ _ ____ _ ____ _ ____ _ ____
 72
    65
 73
     4
 40
5.5
 49
4.0
 49
-0.6
 49
0.3
 49
-0.6
  0
LTYPE
  2
CONTINOUS
 70
     0
  3
Solid line
 72
    65
 73
     0
 40
0.0
  0
ENDTAB
  0
TABLE
  2
LAYER
 70
    12
  0
LAYER
  2
0
 70
     0
 62
     7
  6
CONTINUOUS
  0
LAYER
  2
OUTLINE
 70
     0
 62
     3
  6
CONTINUOUS
  0
LAYER
  2
SIZE
 70
     0
 62
    30
  6
CONTINUOUS
  0
LAYER
  2
BASIS
 70
     0
 62
     6
  6
DASHDOT
  0
LAYER
  2
DETAIL
 70
     0
 62
     5
  6
CONTINUOUS
  0
LAYER
  2
ARRANGE
 70
     0
 62
     1
  6
CONTINUOUS
  0
LAYER
  2
DEFPOINTS
 70
     0
 62
     7
  6
CONTINUOUS
  0
LAYER
  2
ETC
 70
     0
 62
    61
  6
CONTINUOUS
  0
LAYER
  2
FIX
 70
     0
 62
    11
  6
CONTINUOUS
  0
LAYER
  2
NOTE
 70
     0
 62
     4
  6
CONTINUOUS
  0
LAYER
  2
SERVICESPACE
 70
     0
 62
     2
  6
DASHDOT
  0
LAYER
  2
SYMBOLLINE
 70
     0
 62
    15
  6
CONTINUOUS
  0
ENDTAB
  0
TABLE
  2
STYLE
 70
     2
  0
STYLE
  2
STANDARD
 70
     0
 40
64.0
 41
0.9
 50
0.0
 71
     0
 42
64.0
  3
SIMPLEX.shx
  4
BIGFONT.shx
  0
STYLE
  2
ANNOTATIVE
 70
     0
 40
0.0
 41
1.0
 50
0.0
 71
     0
 42
0.2
  3
txt
  4

  0
ENDTAB
  0
TABLE
  2
VIEW
 70
     1
  0
VIEW
  2
ALL
 70
     0
 40
4282.6198079999967
 10
0.0
 20
41.309903999999989
 41
5940.0
 11
0.0
 21
0.0
 31
1.0
 12
0.0
 22
0.0
 32
0.0
 42
50.0
 43
0.0
 44
0.0
 50
0.0
 71
     0
  0
ENDTAB
  0
TABLE
  2
UCS
 70
     0
  0
ENDTAB
  0
TABLE
  2
APPID
 70
     5
  0
APPID
  2
ACAD
 70
     0
  0
APPID
  2
ACADANNOTATIVE
 70
     0
  0
APPID
  2
ACAD_MLEADERVER
 70
     0
  0
APPID
  2
AUTOCAD_POSTSCRIPT_FIGURE
 70
     0
  0
APPID
  2
ACAD_EXEMPT_FROM_CAD_STANDARDS
 70
     0
  0
ENDTAB
  0
TABLE
  2
DIMSTYLE
 70
     2
  0
DIMSTYLE
  2
STANDARD
 70
     0
  3

  4

  5

  6

  7

 40
1.0
 41
0.18
 42
0.0625
 43
0.38
 44
0.18
 45
0.0
 46
0.0
 47
0.0
 48
0.0
140
0.18
141
0.09
142
0.0
143
25.399999999999999
144
1.0
145
0.0
146
1.0
147
0.09
 71
     0
 72
     0
 73
     1
 74
     1
 75
     0
 76
     0
 77
     0
 78
     0
170
     0
171
     2
172
     0
173
     0
174
     0
175
     0
176
     7
177
     7
178
     7
  0
DIMSTYLE
  2
ANNOTATIVE
 70
     0
  3

  4

  5

  6

  7

 40
1.0
 41
0.18
 42
0.0625
 43
0.38
 44
0.18
 45
0.0
 46
0.0
 47
0.0
 48
0.0
140
0.18
141
0.09
142
0.0
143
25.399999999999999
144
1.0
145
0.0
146
1.0
147
0.09
 71
     0
 72
     0
 73
     1
 74
     1
 75
     0
 76
     0
 77
     0
 78
     0
170
     0
171
     2
172
     0
173
     0
174
     0
175
     0
176
     0
177
     0
178
     0
  0
ENDTAB
  0
ENDSEC
  0
SECTION
  2
BLOCKS
  0
BLOCK
  8
0
  2
$MODEL_SPACE
 70
     0
 10
0.0
 20
0.0
 30
0.0
  3
$MODEL_SPACE
  1

  0
ENDBLK
  5
46D
  8
0
  0
BLOCK
 67
     1
  8
0
  2
$PAPER_SPACE
 70
     0
 10
0.0
 20
0.0
 30
0.0
  3
$PAPER_SPACE
  1

  0
ENDBLK
  5
469
 67
     1
  8
0
  0
BLOCK
  8
0
  2
DOT1
 70
     0
 10
0.0
 20
0.0
 30
0.0
  3
DOT1
  1

  0
CIRCLE
  5
2FB
  8
SIZE
  6
CONTINUOUS
 62
     7
 10
0.0
 20
0.0
 30
0.0
 40
3.0
  0
ENDBLK
  5
2FC
  8
0
  0
BLOCK
  8
0
  2
_ORIGIN
 70
     0
 10
0.0
 20
0.0
 30
0.0
  3
_ORIGIN
  1

  0
CIRCLE
  5
2FF
  8
0
  6
CONTINUOUS
 62
     7
 10
0.0
 20
0.0
 30
0.0
 40
0.5
  0
LINE
  5
300
  8
0
  6
CONTINUOUS
 62
     7
 10
0.0
 20
0.0
 30
0.0
 11
-1.0
 21
0.0
 31
0.0
  0
ENDBLK
  5
301
  8
0
  0
ENDSEC
  0
SECTION
  2
ENTITIES
  0
LINE
  5
302
  8
DETAIL
  6
CONTINUOUS
 62
     5
 10
300.0
 20
-200.0
 30
0.0
 11
300.0
 21
0.0
 31
0.0
  0
LINE
  5
303
  8
DETAIL
  6
CONTINUOUS
 62
     5
 10
-300.0
 20
0.0
 30
0.0
 11
300.0
 21
0.0
 31
0.0
  0
LINE
  5
304
  8
BASIS
  6
DASHDOT
 62
     6
 10
0.0
 20
-671.94006799999966
 30
0.0
 11
0.0
 21
62.599742999999989
 31
0.0
  0
LINE
  5
305
  8
DETAIL
  6
CONTINOUS
 62
     5
 10
300.0
 20
-600.0
 30
0.0
 11
300.0
 21
-200.0
 31
0.0
  0
LINE
  5
306
  8
DETAIL
  6
CONTINOUS
 62
     5
 10
300.0
 20
-200.0
 30
0.0
 11
-300.0
 21
-200.0
 31
0.0
  0
LINE
  5
307
  8
DETAIL
  6
CONTINOUS
 62
     5
 10
-300.0
 20
-600.0
 30
0.0
 11
-300.0
 21
0.0
 31
0.0
  0
LINE
  5
308
  8
DETAIL
  6
CONTINOUS
 62
     5
 10
300.0
 20
-600.0
 30
0.0
 11
-300.0
 21
-600.0
 31
0.0
  0
LINE
  5
309
  8
NOTE
  6
CONTINUOUS
 62
     4
 10
240.0
 20
-280.0
 30
0.0
 11
240.0
 21
-240.0
 31
0.0
  0
LINE
  5
30A
  8
NOTE
  6
CONTINUOUS
 62
     4
 10
260.0
 20
-260.0
 30
0.0
 11
220.0
 21
-260.0
 31
0.0
  0
LINE
  5
30B
  8
NOTE
  6
CONTINUOUS
 62
     4
 10
240.0
 20
-515.0
 30
0.0
 11
240.0
 21
-475.0
 31
0.0
  0
LINE
  5
30C
  8
NOTE
  6
CONTINUOUS
 62
     4
 10
260.0
 20
-495.0
 30
0.0
 11
220.0
 21
-495.0
 31
0.0
  0
LINE
  5
30D
  8
NOTE
  6
CONTINUOUS
 62
     4
 10
-240.0
 20
-280.0
 30
0.0
 11
-240.0
 21
-240.0
 31
0.0
  0
LINE
  5
30E
  8
NOTE
  6
CONTINUOUS
 62
     4
 10
-260.0
 20
-260.0
 30
0.0
 11
-220.0
 21
-260.0
 31
0.0
  0
LINE
  5
30F
  8
NOTE
  6
CONTINUOUS
 62
     4
 10
-240.0
 20
-515.0
 30
0.0
 11
-240.0
 21
-475.0
 31
0.0
  0
LINE
  5
310
  8
NOTE
  6
CONTINUOUS
 62
     4
 10
-260.0
 20
-495.0
 30
0.0
 11
-220.0
 21
-495.0
 31
0.0
  0
CIRCLE
  5
311
  8
FIX
  6
CONTINUOUS
 62
    11
 10
240.0
 20
-260.0
 30
0.0
 40
4.0
  0
CIRCLE
  5
312
  8
FIX
  6
CONTINUOUS
 62
    11
 10
-240.0
 20
-260.0
 30
0.0
 40
4.0
  0
CIRCLE
  5
313
  8
FIX
  6
CONTINUOUS
 62
    11
 10
240.0
 20
-495.0
 30
0.0
 40
4.0
  0
CIRCLE
  5
314
  8
FIX
  6
CONTINUOUS
 62
    11
 10
-240.0
 20
-495.0
 30
0.0
 40
4.0
  0
LINE
  5
315
  8
OUTLINE
  6
CONTINOUS
 62
     3
 10
300.0
 20
-600.0
 30
0.0
 11
-300.0
 21
-600.0
 31
0.0
  0
LINE
  5
316
  8
OUTLINE
  6
CONTINOUS
 62
     3
 10
300.0
 20
-600.0
 30
0.0
 11
300.0
 21
-200.0
 31
0.0
  0
LINE
  5
317
  8
OUTLINE
  6
CONTINUOUS
 62
     3
 10
300.0
 20
-200.0
 30
0.0
 11
300.0
 21
0.0
 31
0.0
  0
LINE
  5
318
  8
OUTLINE
  6
CONTINUOUS
 62
     3
 10
-300.0
 20
0.0
 30
0.0
 11
300.0
 21
0.0
 31
0.0
  0
LINE
  5
319
  8
OUTLINE
  6
CONTINOUS
 62
     3
 10
-300.0
 20
-600.0
 30
0.0
 11
-300.0
 21
0.0
 31
0.0
  0
LINE
  5
31A
  8
NOTE
  6
CONTINUOUS
 62
     4
 10
240.0
 20
-220.0
 30
0.0
 11
240.0
 21
-180.0
 31
0.0
  0
LINE
  5
31B
  8
NOTE
  6
CONTINUOUS
 62
     4
 10
260.0
 20
-200.0
 30
0.0
 11
220.0
 21
-200.0
 31
0.0
  0
CIRCLE
  5
31C
  8
FIX
  6
CONTINUOUS
 62
    11
 10
240.0
 20
-200.0
 30
0.0
 40
12.5
  0
CIRCLE
  5
31D
  8
FIX
  6
CONTINUOUS
 62
    11
 10
-240.0
 20
-200.0
 30
0.0
 40
12.5
  0
LINE
  5
31E
  8
NOTE
  6
CONTINUOUS
 62
     4
 10
-240.0
 20
-220.0
 30
0.0
 11
-240.0
 21
-180.0
 31
0.0
  0
LINE
  5
31F
  8
NOTE
  6
CONTINUOUS
 62
     4
 10
-260.0
 20
-200.0
 30
0.0
 11
-220.0
 21
-200.0
 31
0.0
  0
TEXT
  5
320
  8
NOTE
  6
CONTINUOUS
 62
     4
 10
-46.875295000000001
 20
-120.5883959999999
 30
0.0
 40
64.0
  1
EA
 41
0.9
  0
TEXT
  5
321
  8
NOTE
  6
CONTINUOUS
 62
     4
 10
-638.03323499999965
 20
-732.88894100000005
 30
0.0
 40
64.0
  1
4-φ8
 41
0.9
  0
LINE
  5
322
  8
NOTE
  6
CONTINUOUS
 62
     4
 10
-369.80605400000002
 20
-764.54697499999975
 30
0.0
 11
-663.35995000000003
 21
-764.54697499999975
 31
0.0
  0
TEXT
  5
323
  8
NOTE
  6
CONTINUOUS
 62
     4
 10
452.09207199999992
 20
39.707321999999998
 30
0.0
 40
64.0
  1
AH 2×2-φ25
 41
0.9
  0
LINE
  5
324
  8
NOTE
  6
CONTINUOUS
 62
     4
 10
421.00367899999998
 20
3.5055699999999992
 30
0.0
 11
1024.415978
 21
3.5055699999999992
 31
0.0
  0
LINE
  5
325
  8
NOTE
  6
CONTINUOUS
 62
     4
 10
240.0
 20
-200.0
 30
0.0
 11
421.00367899999998
 21
3.5055699999999992
 31
0.0
  0
LINE
  5
326
  8
NOTE
  6
CONTINUOUS
 62
     4
 10
256.923137
 20
-163.75627700000001
 30
0.0
 11
240.0
 21
-200.0
 31
0.0
  0
LINE
  5
327
  8
NOTE
  6
CONTINUOUS
 62
     4
 10
240.0
 20
-200.0
 30
0.0
 11
272.77772799999991
 21
-177.07358400000001
 31
0.0
  0
POINT
  5
328
  8
ARRANGE
  6
CONTINUOUS
 62
     1
 10
0.0
 20
0.0
 30
0.0
  0
CIRCLE
  5
329
  8
ARRANGE
  6
CONTINUOUS
 62
     1
 10
0.0
 20
0.0
 30
0.0
 40
40.0
  0
CIRCLE
  5
32A
  8
DETAIL
  6
CONTINUOUS
 62
     5
 10
-240.0
 20
-260.0
 30
0.0
 40
4.0
  0
CIRCLE
  5
32B
  8
DETAIL
  6
CONTINUOUS
 62
     5
 10
-240.0
 20
-495.0
 30
0.0
 40
4.0
  0
CIRCLE
  5
32C
  8
DETAIL
  6
CONTINUOUS
 62
     5
 10
240.0
 20
-260.0
 30
0.0
 40
4.0
  0
CIRCLE
  5
32D
  8
DETAIL
  6
CONTINUOUS
 62
     5
 10
240.0
 20
-495.0
 30
0.0
 40
4.0
  0
LINE
  5
32E
  8
DETAIL
  6
CONTINOUS
 62
     5
 10
-280.0
 20
-200.0
 30
0.0
 11
0.0
 21
-200.0
 31
0.0
  0
LINE
  5
32F
  8
DETAIL
  6
CONTINOUS
 62
     5
 10
280.0
 20
-200.0
 30
0.0
 11
0.0
 21
-200.0
 31
0.0
  0
LINE
  5
330
  8
DETAIL
  6
CONTINOUS
 62
     5
 10
-285.0
 20
-200.0
 30
0.0
 11
-285.0
 21
0.0
 31
0.0
  0
LINE
  5
331
  8
DETAIL
  6
CONTINUOUS
 62
     5
 10
285.0
 20
-200.0
 30
0.0
 11
285.0
 21
0.0
 31
0.0
  0
LINE
  5
332
  8
DETAIL
  6
CONTINOUS
 62
     5
 10
280.0
 20
-600.0
 30
0.0
 11
280.0
 21
-200.0
 31
0.0
  0
LINE
  5
333
  8
DETAIL
  6
CONTINOUS
 62
     5
 10
-280.0
 20
-600.0
 30
0.0
 11
-280.0
 21
-200.0
 31
0.0
  0
LINE
  5
334
  8
NOTE
  6
CONTINUOUS
 62
     4
 10
-240.0
 20
-495.0
 30
0.0
 11
-369.80605400000002
 21
-764.54697499999975
 31
0.0
  0
LINE
  5
335
  8
NOTE
  6
CONTINUOUS
 62
     4
 10
-248.50191799999999
 20
-534.08602499999995
 30
0.0
 11
-240.0
 21
-495.0
 31
0.0
  0
LINE
  5
336
  8
NOTE
  6
CONTINUOUS
 62
     4
 10
-240.0
 20
-495.0
 30
0.0
 11
-266.90589
 21
-524.59853199999986
 31
0.0
  0
LINE
  5
337
  8
DETAIL
  6
CONTINUOUS
 62
     5
 10
130.0
 20
-197.0
 30
0.0
 11
130.0
 21
-200.0
 31
0.0
  0
LINE
  5
338
  8
DETAIL
  6
CONTINUOUS
 62
     5
 10
-73.999591000000024
 20
-145.0
 30
0.0
 11
74.000408999999976
 21
-145.0
 31
0.0
  0
LINE
  5
339
  8
DETAIL
  6
CONTINUOUS
 62
     5
 10
130.0
 20
-197.0
 30
0.0
 11
130.0
 21
-196.0
 31
0.0
  0
LINE
  5
33A
  8
DETAIL
  6
CONTINUOUS
 62
     5
 10
129.0
 20
-195.0
 30
0.0
 11
-119.715074
 21
-195.0
 31
0.0
  0
ARC
  5
33B
  8
DETAIL
  6
CONTINUOUS
 62
     5
 10
129.0
 20
-196.0
 30
0.0
 40
1.0
 50
0.0
 51
90.0
  0
LINE
  5
33C
  8
DETAIL
  6
CONTINUOUS
 62
     5
 10
77.000408999999976
 20
-189.40000000000001
 30
0.0
 11
77.000408999999976
 21
-186.64705900000001
 31
0.0
  0
LINE
  5
33D
  8
DETAIL
  6
CONTINUOUS
 62
     5
 10
74.000408999999976
 20
-183.976471
 30
0.0
 11
74.000408999999976
 21
-145.0
 31
0.0
  0
LINE
  5
33E
  8
DETAIL
  6
CONTINUOUS
 62
     5
 10
-73.999591000000024
 20
-185.0
 30
0.0
 11
75.125408999999976
 21
-185.0
 31
0.0
  0
LINE
  5
33F
  8
DETAIL
  6
CONTINUOUS
 62
     5
 10
-119.715074
 20
-195.0
 30
0.0
 11
-129.0
 21
-195.0
 31
0.0
  0
ARC
  5
340
  8
DETAIL
  6
CONTINUOUS
 62
     5
 10
75.000408999999976
 20
-183.976471
 30
0.0
 40
1.0
 50
180.0
 51
262.84733099999988
  0
ARC
  5
341
  8
DETAIL
  6
CONTINUOUS
 62
     5
 10
75.400408999999982
 20
-186.64705900000001
 30
0.0
 40
1.6000000000000001
 50
0.0
 51
82.847331000000025
  0
LINE
  5
342
  8
DETAIL
  6
CONTINUOUS
 62
     5
 10
74.875895
 20
-184.9686889999999
 30
0.0
 11
75.599630000000005
 21
-185.0595099999999
 31
0.0
  0
ARC
  5
343
  8
DETAIL
  6
CONTINUOUS
 62
     5
 10
87.000408999999948
 20
-189.40000000000001
 30
0.0
 40
10.0
 50
180.0
 51
214.05579800000001
  0
LINE
  5
344
  8
DETAIL
  6
CONTINUOUS
 62
     5
 10
-73.999591000000024
 20
-183.976471
 30
0.0
 11
-73.999591000000024
 21
-145.0
 31
0.0
  0
LINE
  5
345
  8
DETAIL
  6
CONTINUOUS
 62
     5
 10
-74.875078000000002
 20
-184.9686889999999
 30
0.0
 11
-75.598813000000007
 21
-185.0595099999999
 31
0.0
  0
ARC
  5
346
  8
DETAIL
  6
CONTINUOUS
 62
     5
 10
-74.999591000000024
 20
-183.976471
 30
0.0
 40
1.0
 50
277.15266899999989
 51
0.0
  0
LINE
  5
347
  8
DETAIL
  6
CONTINUOUS
 62
     5
 10
-76.999590999999981
 20
-189.40000000000001
 30
0.0
 11
-76.999590999999981
 21
-186.64705900000001
 31
0.0
  0
ARC
  5
348
  8
DETAIL
  6
CONTINUOUS
 62
     5
 10
-86.999590999999995
 20
-189.40000000000001
 30
0.0
 40
10.0
 50
325.94420200000002
 51
0.0
  0
ARC
  5
349
  8
DETAIL
  6
CONTINUOUS
 62
     5
 10
-75.399591000000001
 20
-186.64705900000001
 30
0.0
 40
1.6000000000000001
 50
97.152669000000003
 51
180.0
  0
LINE
  5
34A
  8
BASIS
  6
DASHDOT
 62
     6
 10
-10.0
 20
-227.60526899999991
 30
0.0
 11
-10.0
 21
-106.6633669999997
 31
0.0
  0
LINE
  5
34B
  8
BASIS
  6
DASHDOT
 62
     6
 10
10.0
 20
-227.60526899999991
 30
0.0
 11
10.0
 21
-106.6633669999997
 31
0.0
  0
TEXT
  5
34C
  8
NOTE
  6
CONTINUOUS
 62
     4
 10
-711.57028000000003
 20
267.810474
 30
0.0
 40
64.0
  1
ダクト接続口可動寸法
 41
0.9
  0
LINE
  5
34D
  8
SIZE
  6
CONTINUOUS
 62
    30
 10
300.0
 20
-620.0
 30
0.0
 11
300.0
 21
-995.45509000000004
 31
0.0
  0
LINE
  5
34E
  8
SIZE
  6
CONTINUOUS
 62
    30
 10
-300.0
 20
-620.0
 30
0.0
 11
-300.0
 21
-995.45509000000004
 31
0.0
  0
LINE
  5
34F
  8
SIZE
  6
CONTINUOUS
 62
    30
 10
288.0
 20
-975.45508999999993
 30
0.0
 11
-288.0
 21
-975.45508999999993
 31
0.0
  0
CIRCLE
  5
350
  8
SIZE
  6
CONTINUOUS
 62
    30
 10
300.0
 20
-975.45508999999993
 30
0.0
 40
6.0
  0
LINE
  5
351
  8
SIZE
  6
CONTINUOUS
 62
    30
 10
300.0
 20
-975.45508999999993
 30
0.0
 11
288.0
 21
-975.45508999999993
 31
0.0
  0
CIRCLE
  5
352
  8
SIZE
  6
CONTINUOUS
 62
    30
 10
-300.0
 20
-975.45508999999993
 30
0.0
 40
6.0
  0
LINE
  5
353
  8
SIZE
  6
CONTINUOUS
 62
    30
 10
-300.0
 20
-975.45508999999993
 30
0.0
 11
-288.0
 21
-975.45508999999993
 31
0.0
  0
TEXT
  5
354
  8
SIZE
  6
CONTINUOUS
 62
    30
 10
-74.05714285714285
 20
-950.45508999999993
 30
0.0
 40
64.0
  1
600
 41
0.9
 72
     1
 11
0.0
 21
-950.45508999999993
 31
0.0
  0
LINE
  5
355
  8
SIZE
  6
CONTINUOUS
 62
    30
 10
240.0
 20
-535.0
 30
0.0
 11
240.0
 21
-868.01833999999985
 31
0.0
  0
LINE
  5
356
  8
SIZE
  6
CONTINUOUS
 62
    30
 10
-240.0
 20
-535.0
 30
0.0
 11
-240.0
 21
-868.01833999999985
 31
0.0
  0
LINE
  5
357
  8
SIZE
  6
CONTINUOUS
 62
    30
 10
228.0
 20
-848.01833999999974
 30
0.0
 11
-228.0
 21
-848.01833999999974
 31
0.0
  0
CIRCLE
  5
358
  8
SIZE
  6
CONTINUOUS
 62
    30
 10
240.0
 20
-848.01833999999974
 30
0.0
 40
6.0
  0
LINE
  5
359
  8
SIZE
  6
CONTINUOUS
 62
    30
 10
240.0
 20
-848.01833999999974
 30
0.0
 11
228.0
 21
-848.01833999999974
 31
0.0
  0
CIRCLE
  5
35A
  8
SIZE
  6
CONTINUOUS
 62
    30
 10
-240.0
 20
-848.01833999999974
 30
0.0
 40
6.0
  0
LINE
  5
35B
  8
SIZE
  6
CONTINUOUS
 62
    30
 10
-240.0
 20
-848.01833999999974
 30
0.0
 11
-228.0
 21
-848.01833999999974
 31
0.0
  0
TEXT
  5
35C
  8
SIZE
  6
CONTINUOUS
 62
    30
 10
-74.057142857142836
 20
-823.01833999999974
 30
0.0
 40
64.0
  1
480
 41
0.9
 72
     1
 11
0.0
 21
-823.01833999999974
 31
0.0
  0
LINE
  5
35D
  8
SIZE
  6
CONTINUOUS
 62
    30
 10
280.0
 20
-260.0
 30
0.0
 11
662.56543899999997
 21
-260.0
 31
0.0
  0
LINE
  5
35E
  8
SIZE
  6
CONTINUOUS
 62
    30
 10
320.0
 20
-600.0
 30
0.0
 11
662.56543899999997
 21
-600.0
 31
0.0
  0
LINE
  5
35F
  8
SIZE
  6
CONTINUOUS
 62
    30
 10
642.56543899999997
 20
-272.0
 30
0.0
 11
642.56543899999997
 21
-588.0
 31
0.0
  0
CIRCLE
  5
360
  8
SIZE
  6
CONTINUOUS
 62
    30
 10
642.56543899999997
 20
-260.0
 30
0.0
 40
6.0
  0
LINE
  5
361
  8
SIZE
  6
CONTINUOUS
 62
    30
 10
642.56543899999997
 20
-260.0
 30
0.0
 11
642.56543899999997
 21
-272.0
 31
0.0
  0
CIRCLE
  5
362
  8
SIZE
  6
CONTINUOUS
 62
    30
 10
642.56543899999997
 20
-600.0
 30
0.0
 40
6.0
  0
LINE
  5
363
  8
SIZE
  6
CONTINUOUS
 62
    30
 10
642.56543899999997
 20
-600.0
 30
0.0
 11
642.56543899999997
 21
-588.0
 31
0.0
  0
TEXT
  5
364
  8
SIZE
  6
CONTINUOUS
 62
    30
 10
617.56543899999997
 20
-504.05714285714282
 30
0.0
 40
64.0
  1
340
 50
90.0
 41
0.9
 72
     1
 11
617.56543899999997
 21
-430.0
 31
0.0
  0
LINE
  5
365
  8
SIZE
  6
CONTINUOUS
 62
    30
 10
320.0
 20
-600.0
 30
0.0
 11
526.85730299999966
 21
-600.0
 31
0.0
  0
LINE
  5
366
  8
SIZE
  6
CONTINUOUS
 62
    30
 10
280.0
 20
-495.0
 30
0.0
 11
526.85730299999966
 21
-495.0
 31
0.0
  0
LINE
  5
367
  8
SIZE
  6
CONTINUOUS
 62
    30
 10
506.857303
 20
-588.0
 30
0.0
 11
506.857303
 21
-507.0
 31
0.0
  0
LINE
  5
368
  8
SIZE
  6
CONTINUOUS
 62
    30
 10
506.857303
 20
-809.57207499999981
 30
0.0
 11
506.857303
 21
-600.0
 31
0.0
  0
TEXT
  5
369
  8
SIZE
  6
CONTINUOUS
 62
    30
 10
481.857303
 20
-784.5720745714284
 30
0.0
 40
64.0
  1
105
 50
90.0
 41
0.9
 72
     1
 11
481.857303
 21
-716.00064599999985
 31
0.0
  0
CIRCLE
  5
36A
  8
SIZE
  6
CONTINUOUS
 62
    30
 10
506.857303
 20
-600.0
 30
0.0
 40
6.0
  0
LINE
  5
36B
  8
SIZE
  6
CONTINUOUS
 62
    30
 10
506.857303
 20
-600.0
 30
0.0
 11
506.857303
 21
-588.0
 31
0.0
  0
CIRCLE
  5
36C
  8
SIZE
  6
CONTINUOUS
 62
    30
 10
506.857303
 20
-495.0
 30
0.0
 40
6.0
  0
LINE
  5
36D
  8
SIZE
  6
CONTINUOUS
 62
    30
 10
506.857303
 20
-495.0
 30
0.0
 11
506.857303
 21
-507.0
 31
0.0
  0
LINE
  5
36E
  8
SIZE
  6
CONTINUOUS
 62
    30
 10
-320.0
 20
0.0
 30
0.0
 11
-694.98952599999996
 21
0.0
 31
0.0
  0
LINE
  5
36F
  8
SIZE
  6
CONTINUOUS
 62
    30
 10
-320.0
 20
-600.0
 30
0.0
 11
-694.98952599999996
 21
-600.0
 31
0.0
  0
LINE
  5
370
  8
SIZE
  6
CONTINUOUS
 62
    30
 10
-674.98952599999996
 20
-12.0
 30
0.0
 11
-674.98952599999996
 21
-588.0
 31
0.0
  0
CIRCLE
  5
371
  8
SIZE
  6
CONTINUOUS
 62
    30
 10
-674.98952599999996
 20
0.0
 30
0.0
 40
6.0
  0
LINE
  5
372
  8
SIZE
  6
CONTINUOUS
 62
    30
 10
-674.98952599999996
 20
0.0
 30
0.0
 11
-674.98952599999996
 21
-12.0
 31
0.0
  0
CIRCLE
  5
373
  8
SIZE
  6
CONTINUOUS
 62
    30
 10
-674.98952599999996
 20
-600.0
 30
0.0
 40
6.0
  0
LINE
  5
374
  8
SIZE
  6
CONTINUOUS
 62
    30
 10
-674.98952599999996
 20
-600.0
 30
0.0
 11
-674.98952599999996
 21
-588.0
 31
0.0
  0
TEXT
  5
375
  8
SIZE
  6
CONTINUOUS
 62
    30
 10
-699.98952599999996
 20
-374.05714285714282
 30
0.0
 40
64.0
  1
600
 50
90.0
 41
0.9
 72
     1
 11
-699.98952599999996
 21
-300.0
 31
0.0
  0
LINE
  5
376
  8
SIZE
  6
CONTINUOUS
 62
    30
 10
-320.0
 20
-600.0
 30
0.0
 11
-574.70431399999995
 21
-600.0
 31
0.0
  0
LINE
  5
377
  8
SIZE
  6
CONTINUOUS
 62
    30
 10
-320.0
 20
-200.0
 30
0.0
 11
-574.70431399999995
 21
-200.0
 31
0.0
  0
LINE
  5
378
  8
SIZE
  6
CONTINUOUS
 62
    30
 10
-554.70431399999995
 20
-588.0
 30
0.0
 11
-554.70431399999995
 21
-212.0
 31
0.0
  0
CIRCLE
  5
379
  8
SIZE
  6
CONTINUOUS
 62
    30
 10
-554.70431399999995
 20
-600.0
 30
0.0
 40
6.0
  0
LINE
  5
37A
  8
SIZE
  6
CONTINUOUS
 62
    30
 10
-554.70431399999995
 20
-600.0
 30
0.0
 11
-554.70431399999995
 21
-588.0
 31
0.0
  0
CIRCLE
  5
37B
  8
SIZE
  6
CONTINUOUS
 62
    30
 10
-554.70431399999995
 20
-200.0
 30
0.0
 40
6.0
  0
LINE
  5
37C
  8
SIZE
  6
CONTINUOUS
 62
    30
 10
-554.70431399999995
 20
-200.0
 30
0.0
 11
-554.70431399999995
 21
-212.0
 31
0.0
  0
TEXT
  5
37D
  8
SIZE
  6
CONTINUOUS
 62
    30
 10
-579.70431399999995
 20
-474.05714285714282
 30
0.0
 40
64.0
  1
400
 50
90.0
 41
0.9
 72
     1
 11
-579.70431399999995
 21
-400.0
 31
0.0
  0
LINE
  5
37E
  8
SIZE
  6
CONTINUOUS
 62
    30
 10
-320.0
 20
-200.0
 30
0.0
 11
-574.70431399999995
 21
-200.0
 31
0.0
  0
LINE
  5
37F
  8
SIZE
  6
CONTINUOUS
 62
    30
 10
-93.999591000000024
 20
-145.0
 30
0.0
 11
-574.70431399999995
 21
-145.0
 31
0.0
  0
LINE
  5
380
  8
SIZE
  6
CONTINUOUS
 62
    30
 10
-554.70431399999995
 20
-212.0
 30
0.0
 11
-554.70431399999995
 21
-224.0
 31
0.0
  0
LINE
  5
381
  8
SIZE
  6
CONTINUOUS
 62
    30
 10
-554.70431399999995
 20
-133.0
 30
0.0
 11
-554.70431399999995
 21
-121.0
 31
0.0
  0
LINE
  5
382
  8
SIZE
  6
CONTINUOUS
 62
    30
 10
-554.70431399999995
 20
-200.0
 30
0.0
 11
-554.70431399999995
 21
-145.0
 31
0.0
  0
CIRCLE
  5
383
  8
SIZE
  6
CONTINUOUS
 62
    30
 10
-554.70431399999995
 20
-200.0
 30
0.0
 40
6.0
  0
LINE
  5
384
  8
SIZE
  6
CONTINUOUS
 62
    30
 10
-554.70431399999995
 20
-200.0
 30
0.0
 11
-554.70431399999995
 21
-212.0
 31
0.0
  0
CIRCLE
  5
385
  8
SIZE
  6
CONTINUOUS
 62
    30
 10
-554.70431399999995
 20
-145.0
 30
0.0
 40
6.0
  0
LINE
  5
386
  8
SIZE
  6
CONTINUOUS
 62
    30
 10
-554.70431399999995
 20
-145.0
 30
0.0
 11
-554.70431399999995
 21
-133.0
 31
0.0
  0
TEXT
  5
387
  8
SIZE
  6
CONTINUOUS
 62
    30
 10
-579.70431399999995
 20
-219.12857142857141
 30
0.0
 40
64.0
  1
55
 50
90.0
 41
0.9
 72
     1
 11
-579.70431399999995
 21
-172.5
 31
0.0
  0
LINE
  5
388
  8
SIZE
  6
CONTINUOUS
 62
    30
 10
-320.0
 20
-200.0
 30
0.0
 11
-438.95830999999998
 21
-200.0
 31
0.0
  0
LINE
  5
389
  8
SIZE
  6
CONTINUOUS
 62
    30
 10
-93.999591000000024
 20
-185.0
 30
0.0
 11
-438.95830999999998
 21
-185.0
 31
0.0
  0
LINE
  5
38A
  8
SIZE
  6
CONTINUOUS
 62
    30
 10
-418.95830999999998
 20
-212.0
 30
0.0
 11
-418.95830999999998
 21
-224.0
 31
0.0
  0
LINE
  5
38B
  8
SIZE
  6
CONTINUOUS
 62
    30
 10
-418.95830999999998
 20
-173.0
 30
0.0
 11
-418.95830999999998
 21
-161.0
 31
0.0
  0
LINE
  5
38C
  8
SIZE
  6
CONTINUOUS
 62
    30
 10
-418.95830999999998
 20
-18.869565999999981
 30
0.0
 11
-418.95830999999998
 21
-185.0
 31
0.0
  0
TEXT
  5
38D
  8
SIZE
  6
CONTINUOUS
 62
    30
 10
-443.95830999999998
 20
-126.15528014285709
 30
0.0
 40
64.0
  1
15
 50
90.0
 41
0.9
 72
     1
 11
-443.95830999999998
 21
-85.012422999999984
 31
0.0
  0
LINE
  5
38E
  8
SIZE
  6
CONTINUOUS
 62
    30
 10
-418.95830999999998
 20
-200.0
 30
0.0
 11
-418.95830999999998
 21
-185.0
 31
0.0
  0
LINE
  5
38F
  8
SIZE
  6
CONTINUOUS
 62
    30
 10
-418.95830999999998
 20
-200.0
 30
0.0
 11
-418.95830999999998
 21
-185.0
 31
0.0
  0
CIRCLE
  5
390
  8
SIZE
  6
CONTINUOUS
 62
    30
 10
-418.95830999999998
 20
-200.0
 30
0.0
 40
6.0
  0
LINE
  5
391
  8
SIZE
  6
CONTINUOUS
 62
    30
 10
-418.95830999999998
 20
-200.0
 30
0.0
 11
-418.95830999999998
 21
-212.0
 31
0.0
  0
CIRCLE
  5
392
  8
SIZE
  6
CONTINUOUS
 62
    30
 10
-418.95830999999998
 20
-185.0
 30
0.0
 40
6.0
  0
LINE
  5
393
  8
SIZE
  6
CONTINUOUS
 62
    30
 10
-418.95830999999998
 20
-185.0
 30
0.0
 11
-418.95830999999998
 21
-173.0
 31
0.0
  0
LINE
  5
394
  8
SIZE
  6
CONTINUOUS
 62
    30
 10
240.0
 20
-160.0
 30
0.0
 11
240.0
 21
500.46223499999991
 31
0.0
  0
LINE
  5
395
  8
SIZE
  6
CONTINUOUS
 62
    30
 10
-240.0
 20
-160.0
 30
0.0
 11
-240.0
 21
500.46223499999991
 31
0.0
  0
LINE
  5
396
  8
SIZE
  6
CONTINUOUS
 62
    30
 10
228.0
 20
480.46223499999979
 30
0.0
 11
-228.0
 21
480.46223499999979
 31
0.0
  0
CIRCLE
  5
397
  8
SIZE
  6
CONTINUOUS
 62
    30
 10
240.0
 20
480.46223499999979
 30
0.0
 40
6.0
  0
LINE
  5
398
  8
SIZE
  6
CONTINUOUS
 62
    30
 10
240.0
 20
480.46223499999979
 30
0.0
 11
228.0
 21
480.46223499999979
 31
0.0
  0
CIRCLE
  5
399
  8
SIZE
  6
CONTINUOUS
 62
    30
 10
-240.0
 20
480.46223499999979
 30
0.0
 40
6.0
  0
LINE
  5
39A
  8
SIZE
  6
CONTINUOUS
 62
    30
 10
-240.0
 20
480.46223499999979
 30
0.0
 11
-228.0
 21
480.46223499999979
 31
0.0
  0
TEXT
  5
39B
  8
SIZE
  6
CONTINUOUS
 62
    30
 10
-74.057142857142836
 20
505.46223499999979
 30
0.0
 40
64.0
  1
480
 41
0.9
 72
     1
 11
0.0
 21
505.46223499999979
 31
0.0
  0
LINE
  5
39C
  8
SIZE
  6
CONTINUOUS
 62
    30
 10
10.0
 20
-86.66336699999998
 30
0.0
 11
10.0
 21
377.05212999999992
 31
0.0
  0
LINE
  5
39D
  8
SIZE
  6
CONTINUOUS
 62
    30
 10
-10.0
 20
-86.66336699999998
 30
0.0
 11
-10.0
 21
377.05212999999992
 31
0.0
  0
LINE
  5
39E
  8
SIZE
  6
CONTINUOUS
 62
    30
 10
22.0
 20
357.05212999999992
 30
0.0
 11
34.0
 21
357.05212999999992
 31
0.0
  0
LINE
  5
39F
  8
SIZE
  6
CONTINUOUS
 62
    30
 10
-22.0
 20
357.05212999999992
 30
0.0
 11
-34.0
 21
357.05212999999992
 31
0.0
  0
LINE
  5
3A0
  8
SIZE
  6
CONTINUOUS
 62
    30
 10
-426.15802499999972
 20
357.05212999999992
 30
0.0
 11
-10.0
 21
357.05212999999992
 31
0.0
  0
TEXT
  5
3A1
  8
SIZE
  6
CONTINUOUS
 62
    30
 10
-401.15802542857119
 20
382.05212999999992
 30
0.0
 40
64.0
  1
20
 41
0.9
 72
     1
 11
-354.52945399999987
 21
382.05212999999992
 31
0.0
  0
LINE
  5
3A2
  8
SIZE
  6
CONTINUOUS
 62
    30
 10
10.0
 20
357.05212999999992
 30
0.0
 11
-10.0
 21
357.05212999999992
 31
0.0
  0
LINE
  5
3A3
  8
SIZE
  6
CONTINUOUS
 62
    30
 10
10.0
 20
357.05212999999992
 30
0.0
 11
-10.0
 21
357.05212999999992
 31
0.0
  0
CIRCLE
  5
3A4
  8
SIZE
  6
CONTINUOUS
 62
    30
 10
10.0
 20
357.05212999999992
 30
0.0
 40
6.0
  0
LINE
  5
3A5
  8
SIZE
  6
CONTINUOUS
 62
    30
 10
10.0
 20
357.05212999999992
 30
0.0
 11
22.0
 21
357.05212999999992
 31
0.0
  0
CIRCLE
  5
3A6
  8
SIZE
  6
CONTINUOUS
 62
    30
 10
-10.0
 20
357.05212999999992
 30
0.0
 40
6.0
  0
LINE
  5
3A7
  8
SIZE
  6
CONTINUOUS
 62
    30
 10
-10.0
 20
357.05212999999992
 30
0.0
 11
-22.0
 21
357.05212999999992
 31
0.0
  0
LINE
  5
3A8
  8
SIZE
  6
CONTINUOUS
 62
    30
 10
74.000408999999976
 20
-125.0
 30
0.0
 11
74.000408999999976
 21
181.86678900000001
 31
0.0
  0
LINE
  5
3A9
  8
SIZE
  6
CONTINUOUS
 62
    30
 10
-73.999591000000024
 20
-125.0
 30
0.0
 11
-73.999591000000024
 21
181.86678900000001
 31
0.0
  0
LINE
  5
3AA
  8
SIZE
  6
CONTINUOUS
 62
    30
 10
62.000408999999998
 20
161.8667889999999
 30
0.0
 11
-61.999591000000002
 21
161.8667889999999
 31
0.0
  0
LINE
  5
3AB
  8
SIZE
  6
CONTINUOUS
 62
    30
 10
485.76482499999992
 20
161.8667889999999
 30
0.0
 11
74.000408999999976
 21
161.8667889999999
 31
0.0
  0
TEXT
  5
3AC
  8
SIZE
  6
CONTINUOUS
 62
    30
 10
257.24482542857152
 20
186.8667889999999
 30
0.0
 40
64.0
  1
φ148
 41
0.9
 72
     1
 11
366.13625400000001
 21
186.8667889999999
 31
0.0
  0
CIRCLE
  5
3AD
  8
SIZE
  6
CONTINUOUS
 62
    30
 10
74.000408999999976
 20
161.8667889999999
 30
0.0
 40
6.0
  0
LINE
  5
3AE
  8
SIZE
  6
CONTINUOUS
 62
    30
 10
74.000408999999976
 20
161.8667889999999
 30
0.0
 11
62.000408999999998
 21
161.8667889999999
 31
0.0
  0
CIRCLE
  5
3AF
  8
SIZE
  6
CONTINUOUS
 62
    30
 10
-73.999591000000024
 20
161.8667889999999
 30
0.0
 40
6.0
  0
LINE
  5
3B0
  8
SIZE
  6
CONTINUOUS
 62
    30
 10
-73.999591000000024
 20
161.8667889999999
 30
0.0
 11
-61.999591000000002
 21
161.8667889999999
 31
0.0
  0
LINE
  5
3B1
  8
SIZE
  6
CONTINUOUS
 62
    30
 39
50.0
 10
-426.15802499999972
 20
357.05212999999992
 30
0.0
 11
-712.15302899999995
 21
357.05212999999992
 31
0.0
  0
TEXT
  5
3B2
  8
ETC
  6
CONTINUOUS
 62
    61
 10
553.66058145750799
 20
575.8372922221314
 30
0.0
 40
64.0
  1
V-604KSW7-BL_3
 41
0.9
  0
TEXT
  5
3B3
  8
ETC
  6
CONTINUOUS
 62
    61
 10
700.3848127562751
 20
401.28760483939368
 30
0.0
 40
50.0
  1
V-604KSW6-BL
 41
0.9
  0
TEXT
  5
3B4
  8
ETC
  6
CONTINUOUS
 62
    61
 10
558.20528845750778
 20
478.98992422213161
 30
0.0
 40
64.0
  1
換気扇
 41
0.9
  0
TEXT
  5
48A
  8
ETC
  6
CONTINUOUS
 62
    61
 10
700.3848127562751
 20
333.8476404689373
 30
0.0
 40
50.0
  1
V-604KSW7-BL
 41
0.9
  0
ENDSEC
  0
EOF
