  0
SECTION
  2
HEADER
  9
$ACADVER
  1
AC1009
  9
$INSBASE
 10
0.0
 20
0.0
 30
0.0
  9
$EXTMIN
 10
-664.37071102481775
 20
-1126.6479383067319
 30
-0.0015257624927045
  9
$EXTMAX
 10
1631.469738834385
 20
735.71778162815269
 30
50.001525995323327
  9
$LIMMIN
 10
-2970.0
 20
-2100.0
  9
$LIMMAX
 10
2970.0
 20
2100.0
  9
$ORTHOMODE
 70
     1
  9
$REGENMODE
 70
     0
  9
$FILLMODE
 70
     1
  9
$QTEXTMODE
 70
     0
  9
$MIRRTEXT
 70
     0
  9
$DRAGMODE
 70
     2
  9
$LTSCALE
 40
20.0
  9
$OSMODE
 70
    32
  9
$ATTMODE
 70
     1
  9
$TEXTSIZE
 40
64.0
  9
$TRACEWID
 40
0.05
  9
$TEXTSTYLE
  7
STANDARD
  9
$CLAYER
  8
ETC
  9
$CELTYPE
  6
CONTINUOUS
  9
$CECOLOR
 62
    30
  9
$DIMSCALE
 40
1.0
  9
$DIMASZ
 40
12.0
  9
$DIMEXO
 40
20.0
  9
$DIMDLI
 40
200.0
  9
$DIMRND
 40
0.0
  9
$DIMDLE
 40
0.0
  9
$DIMEXE
 40
20.0
  9
$DIMTP
 40
0.0
  9
$DIMTM
 40
0.0
  9
$DIMTXT
 40
64.0
  9
$DIMCEN
 40
0.09
  9
$DIMTSZ
 40
0.0
  9
$DIMTOL
 70
     0
  9
$DIMLIM
 70
     0
  9
$DIMTIH
 70
     0
  9
$DIMTOH
 70
     0
  9
$DIMSE1
 70
     0
  9
$DIMSE2
 70
     0
  9
$DIMTAD
 70
     1
  9
$DIMZIN
 70
     8
  9
$DIMBLK
  1
DOT1
  9
$DIMASO
 70
     1
  9
$DIMSHO
 70
     0
  9
$DIMPOST
  1

  9
$DIMAPOST
  1

  9
$DIMALT
 70
     0
  9
$DIMALTD
 70
     2
  9
$DIMALTF
 40
25.399999999999999
  9
$DIMLFAC
 40
1.0
  9
$DIMTOFL
 70
     1
  9
$DIMTVP
 40
0.0
  9
$DIMTIX
 70
     1
  9
$DIMSOXD
 70
     0
  9
$DIMSAH
 70
     1
  9
$DIMBLK1
  1
ORIGIN
  9
$DIMBLK2
  1
ORIGIN
  9
$DIMSTYLE
  2
STANDARD
  9
$DIMCLRD
 70
     7
  9
$DIMCLRE
 70
     7
  9
$DIMCLRT
 70
     7
  9
$DIMTFAC
 40
1.0
  9
$DIMGAP
 40
25.0
  9
$LUNITS
 70
     2
  9
$LUPREC
 70
     4
  9
$SKETCHINC
 40
0.1
  9
$FILLETRAD
 40
4.0
  9
$AUNITS
 70
     1
  9
$AUPREC
 70
     3
  9
$MENU
  1
ACAD
  9
$ELEVATION
 40
0.0
  9
$PELEVATION
 40
0.0
  9
$THICKNESS
 40
50.0
  9
$LIMCHECK
 70
     0
  9
$BLIPMODE
 70
     0
  9
$CHAMFERA
 40
0.0
  9
$CHAMFERB
 40
0.0
  9
$SKPOLY
 70
     0
  9
$TDCREATE
 40
2453091.3854939472
  9
$TDUPDATE
 40
2454743.7311953469
  9
$TDINDWG
 40
0.0223474884
  9
$TDUSRTIMER
 40
0.0223473032
  9
$USRTIMER
 70
     1
  9
$ANGBASE
 50
0.0
  9
$ANGDIR
 70
     0
  9
$PDMODE
 70
     3
  9
$PDSIZE
 40
-2.0
  9
$PLINEWID
 40
0.0
  9
$COORDS
 70
     1
  9
$SPLFRAME
 70
     0
  9
$SPLINETYPE
 70
     6
  9
$SPLINESEGS
 70
     8
  9
$ATTDIA
 70
     0
  9
$ATTREQ
 70
     1
  9
$HANDLING
 70
     1
  9
$HANDSEED
  5
27A
  9
$SURFTAB1
 70
     6
  9
$SURFTAB2
 70
     6
  9
$SURFTYPE
 70
     6
  9
$SURFU
 70
     6
  9
$SURFV
 70
     6
  9
$UCSNAME
  2

  9
$UCSORG
 10
0.0
 20
0.0
 30
0.0
  9
$UCSXDIR
 10
1.0
 20
0.0
 30
0.0
  9
$UCSYDIR
 10
0.0
 20
1.0
 30
0.0
  9
$PUCSNAME
  2

  9
$PUCSORG
 10
0.0
 20
0.0
 30
0.0
  9
$PUCSXDIR
 10
1.0
 20
0.0
 30
0.0
  9
$PUCSYDIR
 10
0.0
 20
1.0
 30
0.0
  9
$USERI1
 70
     0
  9
$USERI2
 70
     0
  9
$USERI3
 70
     0
  9
$USERI4
 70
     0
  9
$USERI5
 70
     0
  9
$USERR1
 40
20.0
  9
$USERR2
 40
0.0
  9
$USERR3
 40
0.0
  9
$USERR4
 40
0.0
  9
$USERR5
 40
0.0
  9
$WORLDVIEW
 70
     1
  9
$SHADEDGE
 70
     3
  9
$SHADEDIF
 70
    70
  9
$TILEMODE
 70
     1
  9
$MAXACTVP
 70
    48
  9
$PLIMCHECK
 70
     0
  9
$PEXTMIN
 10
-1.0000000000000000E+020
 20
-1.0000000000000000E+020
 30
-1.0000000000000000E+020
  9
$PEXTMAX
 10
1.0000000000000000E+020
 20
1.0000000000000000E+020
 30
1.0000000000000000E+020
  9
$PLIMMIN
 10
0.0
 20
0.0
  9
$PLIMMAX
 10
12.0
 20
9.0
  9
$UNITMODE
 70
     0
  9
$VISRETAIN
 70
     0
  9
$PLINEGEN
 70
     0
  9
$PSLTSCALE
 70
     0
  0
ENDSEC
  0
SECTION
  2
TABLES
  0
TABLE
  2
VPORT
 70
     1
  0
VPORT
  2
*ACTIVE
 70
     0
 10
0.0
 20
0.0
 11
1.0
 21
1.0
 12
631.31698070662924
 22
-253.17627349377651
 13
0.0
 23
0.0
 14
1.0
 24
1.0
 15
0.0
 25
0.0
 16
0.0
 26
0.0
 36
1.0
 17
0.0
 27
0.0
 37
0.0
 40
2108.1444963488539
 41
1.812051649928264
 42
50.0
 43
0.0
 44
0.0
 50
0.0
 51
0.0
 71
     0
 72
  1000
 73
     1
 74
     0
 75
     0
 76
     0
 77
     0
 78
     0
  0
ENDTAB
  0
TABLE
  2
LTYPE
 70
     4
  0
LTYPE
  2
CONTINUOUS
 70
     0
  3
実線
 72
    65
 73
     0
 40
0.0
  0
LTYPE
  2
DASHDOT
 70
     0
  3
____ _ ____ _ ____ _ ____ _ ____ _ ____ _ ____
 72
    65
 73
     4
 40
5.5
 49
4.0
 49
-0.6
 49
0.3
 49
-0.6
  0
LTYPE
  2
CONTINOUS
 70
     0
  3
Solid line
 72
    65
 73
     0
 40
0.0
  0
ENDTAB
  0
TABLE
  2
LAYER
 70
    12
  0
LAYER
  2
0
 70
     0
 62
     7
  6
CONTINUOUS
  0
LAYER
  2
SIZE
 70
     0
 62
    30
  6
CONTINUOUS
  0
LAYER
  2
BASIS
 70
     0
 62
     6
  6
DASHDOT
  0
LAYER
  2
OUTLINE
 70
     0
 62
     3
  6
CONTINUOUS
  0
LAYER
  2
DETAIL
 70
     0
 62
     5
  6
CONTINUOUS
  0
LAYER
  2
ARRANGE
 70
     0
 62
     1
  6
CONTINUOUS
  0
LAYER
  2
DEFPOINTS
 70
     0
 62
     7
  6
CONTINUOUS
  0
LAYER
  2
ETC
 70
     0
 62
    61
  6
CONTINUOUS
  0
LAYER
  2
FIX
 70
     0
 62
    11
  6
CONTINUOUS
  0
LAYER
  2
NOTE
 70
     0
 62
     4
  6
CONTINUOUS
  0
LAYER
  2
SERVICESPACE
 70
     0
 62
     2
  6
DASHDOT
  0
LAYER
  2
SYMBOLLINE
 70
     0
 62
    15
  6
CONTINUOUS
  0
ENDTAB
  0
TABLE
  2
STYLE
 70
     2
  0
STYLE
  2
STANDARD
 70
     0
 40
64.0
 41
0.9
 50
0.0
 71
     0
 42
64.0
  3
SIMPLEX.shx
  4
BIGFONT.shx
  0
STYLE
  2
ANNOTATIVE
 70
     0
 40
0.0
 41
1.0
 50
0.0
 71
     0
 42
0.2
  3
txt
  4

  0
ENDTAB
  0
TABLE
  2
VIEW
 70
     1
  0
VIEW
  2
ALL
 70
     0
 40
4282.6198079999976
 10
0.0
 20
41.309903999999989
 41
5940.0
 11
0.0
 21
0.0
 31
1.0
 12
0.0
 22
0.0
 32
0.0
 42
50.0
 43
0.0
 44
0.0
 50
0.0
 71
     0
  0
ENDTAB
  0
TABLE
  2
UCS
 70
     0
  0
ENDTAB
  0
TABLE
  2
APPID
 70
     5
  0
APPID
  2
ACAD
 70
     0
  0
APPID
  2
ACADANNOTATIVE
 70
     0
  0
APPID
  2
ACAD_MLEADERVER
 70
     0
  0
APPID
  2
AUTOCAD_POSTSCRIPT_FIGURE
 70
     0
  0
APPID
  2
ACAD_EXEMPT_FROM_CAD_STANDARDS
 70
     0
  0
ENDTAB
  0
TABLE
  2
DIMSTYLE
 70
     2
  0
DIMSTYLE
  2
STANDARD
 70
     0
  3

  4

  5

  6

  7

 40
1.0
 41
0.18
 42
0.0625
 43
0.38
 44
0.18
 45
0.0
 46
0.0
 47
0.0
 48
0.0
140
0.18
141
0.09
142
0.0
143
25.399999999999999
144
1.0
145
0.0
146
1.0
147
0.09
 71
     0
 72
     0
 73
     1
 74
     1
 75
     0
 76
     0
 77
     0
 78
     0
170
     0
171
     2
172
     0
173
     0
174
     0
175
     0
176
     7
177
     7
178
     7
  0
DIMSTYLE
  2
ANNOTATIVE
 70
     0
  3

  4

  5

  6

  7

 40
1.0
 41
0.18
 42
0.0625
 43
0.38
 44
0.18
 45
0.0
 46
0.0
 47
0.0
 48
0.0
140
0.18
141
0.09
142
0.0
143
25.399999999999999
144
1.0
145
0.0
146
1.0
147
0.09
 71
     0
 72
     0
 73
     1
 74
     1
 75
     0
 76
     0
 77
     0
 78
     0
170
     0
171
     2
172
     0
173
     0
174
     0
175
     0
176
     0
177
     0
178
     0
  0
ENDTAB
  0
ENDSEC
  0
SECTION
  2
BLOCKS
  0
BLOCK
  8
0
  2
$MODEL_SPACE
 70
     0
 10
0.0
 20
0.0
 30
0.0
  3
$MODEL_SPACE
  1

  0
ENDBLK
  5
222
  8
0
  0
BLOCK
 67
     1
  8
0
  2
$PAPER_SPACE
 70
     0
 10
0.0
 20
0.0
 30
0.0
  3
$PAPER_SPACE
  1

  0
ENDBLK
  5
21E
 67
     1
  8
0
  0
BLOCK
  8
0
  2
DOT1
 70
     0
 10
0.0
 20
0.0
 30
0.0
  3
DOT1
  1

  0
CIRCLE
  5
37
  8
SIZE
  6
CONTINUOUS
 62
     7
 10
0.0
 20
0.0
 30
0.0
 40
3.0
  0
ENDBLK
  5
38
  8
0
  0
BLOCK
  8
0
  2
_ORIGIN
 70
     0
 10
0.0
 20
0.0
 30
0.0
  3
_ORIGIN
  1

  0
CIRCLE
  5
3B
  8
0
  6
CONTINUOUS
 62
     7
 10
0.0
 20
0.0
 30
0.0
 40
0.5
  0
LINE
  5
3C
  8
0
  6
CONTINUOUS
 62
     7
 10
0.0
 20
0.0
 30
0.0
 11
-1.0
 21
0.0
 31
0.0
  0
ENDBLK
  5
3D
  8
0
  0
ENDSEC
  0
SECTION
  2
ENTITIES
  0
LINE
  5
3E
  8
NOTE
  6
CONTINUOUS
 62
     4
 10
478.75095299999998
 20
247.7741169999999
 30
0.0
 11
254.999999
 21
-200.0
 31
0.0
  0
LINE
  5
3F
  8
NOTE
  6
CONTINUOUS
 62
     4
 10
281.55755299999993
 20
-170.08852499999981
 30
0.0
 11
254.999999
 21
-200.0
 31
0.0
  0
LINE
  5
40
  8
NOTE
  6
CONTINUOUS
 62
     4
 10
254.999999
 20
-200.0
 30
0.0
 11
263.04377799999992
 21
-160.817125
 31
0.0
  0
LINE
  5
41
  8
NOTE
  6
CONTINUOUS
 62
     4
 10
-3.7037589999999989
 20
-220.171842
 30
0.0
 11
-0.000001
 21
-260.0
 31
0.0
  0
LINE
  5
42
  8
NOTE
  6
CONTINUOUS
 62
     4
 10
-0.000001
 20
-260.0
 30
0.0
 11
-23.121628999999999
 21
-227.35968299999999
 31
0.0
  0
LINE
  5
43
  8
NOTE
  6
CONTINUOUS
 62
     4
 10
-0.000001
 20
-260.0
 30
0.0
 11
-59.866495999999991
 21
-105.9690489999999
 31
0.0
  0
LINE
  5
44
  8
NOTE
  6
CONTINUOUS
 62
     4
 10
-59.866495999999991
 20
-105.9690489999999
 30
0.0
 11
-324.31849899999997
 21
-105.9690489999999
 31
0.0
  0
TEXT
  5
45
  8
NOTE
  6
CONTINUOUS
 62
     4
 10
-309.72952199999997
 20
-84.050817000000009
 30
0.0
 40
64.0
  1
4-φ8
 41
0.9
  0
POINT
  5
46
  8
ARRANGE
  6
CONTINUOUS
 62
     1
 10
0.0
 20
0.0
 30
0.0
  0
LINE
  5
47
  8
DETAIL
  6
CONTINUOUS
 62
     5
 10
219.999999
 20
-185.0
 30
0.0
 11
69.999999000000003
 21
-185.0
 31
0.0
  0
TEXT
  5
48
  8
NOTE
  6
CONTINUOUS
 62
     4
 10
490.00176799999991
 20
280.9523549999999
 30
0.0
 40
64.0
  1
AH 2×2-φ25
 41
0.9
  0
LINE
  5
49
  8
DETAIL
  6
CONTINOUS
 62
     5
 10
369.999999
 20
-600.0
 30
0.0
 11
369.999999
 21
-200.0
 31
0.0
  0
LINE
  5
4A
  8
BASIS
  6
DASHDOT
 62
     6
 10
144.999999
 20
-220.65042799999989
 30
0.0
 11
144.999999
 21
-109.12141799999991
 31
0.0
  0
LINE
  5
4B
  8
DETAIL
  6
CONTINOUS
 62
     5
 10
344.999999
 20
-200.0
 30
0.0
 11
344.999999
 21
0.0
 31
0.0
  0
LINE
  5
4C
  8
DETAIL
  6
CONTINOUS
 62
     5
 10
399.999999
 20
-200.0
 30
0.0
 11
399.999999
 21
0.0
 31
0.0
  0
LINE
  5
4D
  8
DETAIL
  6
CONTINOUS
 62
     5
 10
399.999999
 20
0.0
 30
0.0
 11
344.999999
 21
0.0
 31
0.0
  0
LINE
  5
4E
  8
DETAIL
  6
CONTINOUS
 62
     5
 10
464.35512499999987
 20
-200.0
 30
0.0
 11
-0.000001
 21
-200.0
 31
0.0
  0
LINE
  5
4F
  8
DETAIL
  6
CONTINOUS
 62
     5
 10
-0.000001
 20
-600.0
 30
0.0
 11
372.95429100000001
 21
-600.0
 31
0.0
  0
LINE
  5
50
  8
DETAIL
  6
CONTINOUS
 62
     5
 10
-0.000001
 20
-600.0
 30
0.0
 11
-0.000001
 21
-200.0
 31
0.0
  0
ARC
  5
51
  8
DETAIL
  6
CONTINOUS
 62
     5
 10
384.5540759999999
 20
51.0
 30
0.0
 40
650.0
 50
271.3616449999999
 51
291.64304800000002
  0
LINE
  5
52
  8
DETAIL
  6
CONTINOUS
 62
     5
 10
646.21892700000001
 20
-459.31670100000002
 30
0.0
 11
480.20377699999989
 21
-211.41966899999991
 31
0.0
  0
LINE
  5
53
  8
DETAIL
  6
CONTINOUS
 62
     5
 10
633.84268699999996
 20
-542.44387500000005
 30
0.0
 11
649.999999
 21
-482.14396499999998
 31
0.0
  0
ARC
  5
54
  8
DETAIL
  6
CONTINOUS
 62
     5
 10
456.93892599999998
 20
-227.0
 30
0.0
 40
28.0
 50
33.809981999999998
 51
74.641114000000002
  0
ARC
  5
55
  8
DETAIL
  6
CONTINOUS
 62
     5
 10
622.95407599999987
 20
-474.89703200000002
 30
0.0
 40
28.0
 50
345.0
 51
33.809981999999998
  0
ARC
  5
56
  8
DETAIL
  6
CONTINOUS
 62
     5
 10
618.3878739999999
 20
-538.30277000000001
 30
0.0
 40
16.0
 50
291.64304800000002
 51
345.0
  0
LINE
  5
57
  8
DETAIL
  6
CONTINUOUS
 62
     5
 10
55.499590000000012
 20
-197.0
 30
0.0
 11
55.499590000000012
 21
-200.0
 31
0.0
  0
ARC
  5
58
  8
DETAIL
  6
CONTINUOUS
 62
     5
 10
232.9995899999999
 20
-196.0
 30
0.0
 40
1.0
 50
0.0
 51
90.0
  0
LINE
  5
59
  8
DETAIL
  6
CONTINUOUS
 62
     5
 10
218.9995899999999
 20
-145.0
 30
0.0
 11
70.999589999999998
 21
-145.0
 31
0.0
  0
LINE
  5
5A
  8
DETAIL
  6
CONTINUOUS
 62
     5
 10
55.499590000000012
 20
-197.0
 30
0.0
 11
55.499590000000012
 21
-196.0
 31
0.0
  0
LINE
  5
5B
  8
DETAIL
  6
CONTINUOUS
 62
     5
 10
56.499589999999991
 20
-195.0
 30
0.0
 11
223.714664
 21
-195.0
 31
0.0
  0
ARC
  5
5C
  8
DETAIL
  6
CONTINUOUS
 62
     5
 10
56.499589999999991
 20
-196.0
 30
0.0
 40
1.0
 50
90.0
 51
180.0
  0
LINE
  5
5D
  8
DETAIL
  6
CONTINUOUS
 62
     5
 10
67.999589999999998
 20
-189.40000000000001
 30
0.0
 11
67.999589999999998
 21
-186.64705900000001
 31
0.0
  0
LINE
  5
5E
  8
DETAIL
  6
CONTINUOUS
 62
     5
 10
70.999589999999998
 20
-183.97647000000001
 30
0.0
 11
70.999589999999998
 21
-145.0
 31
0.0
  0
LINE
  5
5F
  8
DETAIL
  6
CONTINUOUS
 62
     5
 10
233.9995899999999
 20
-200.0
 30
0.0
 11
233.9995899999999
 21
-196.0
 31
0.0
  0
LINE
  5
60
  8
DETAIL
  6
CONTINUOUS
 62
     5
 10
223.714664
 20
-195.0
 30
0.0
 11
232.9995899999999
 21
-195.0
 31
0.0
  0
ARC
  5
61
  8
DETAIL
  6
CONTINUOUS
 62
     5
 10
69.999589999999998
 20
-183.97647000000001
 30
0.0
 40
1.0
 50
277.15266899999989
 51
0.0
  0
ARC
  5
62
  8
DETAIL
  6
CONTINUOUS
 62
     5
 10
69.599590000000006
 20
-186.64705900000001
 30
0.0
 40
1.6000000000000001
 50
97.152669000000003
 51
180.0
  0
LINE
  5
63
  8
DETAIL
  6
CONTINUOUS
 62
     5
 10
70.124104000000003
 20
-184.9686879999999
 30
0.0
 11
69.400368999999984
 21
-185.0595099999999
 31
0.0
  0
ARC
  5
64
  8
DETAIL
  6
CONTINUOUS
 62
     5
 10
57.999590000000012
 20
-189.40000000000001
 30
0.0
 40
10.0
 50
325.94420200000002
 51
0.0
  0
LINE
  5
65
  8
DETAIL
  6
CONTINUOUS
 62
     5
 10
218.9995899999999
 20
-183.97647000000001
 30
0.0
 11
218.9995899999999
 21
-145.0
 31
0.0
  0
LINE
  5
66
  8
DETAIL
  6
CONTINUOUS
 62
     5
 10
219.875077
 20
-184.9686879999999
 30
0.0
 11
220.59881200000001
 21
-185.0595099999999
 31
0.0
  0
ARC
  5
67
  8
DETAIL
  6
CONTINUOUS
 62
     5
 10
219.9995899999999
 20
-183.97647000000001
 30
0.0
 40
1.0
 50
180.0
 51
262.84733099999988
  0
LINE
  5
68
  8
DETAIL
  6
CONTINUOUS
 62
     5
 10
221.9995899999999
 20
-189.40000000000001
 30
0.0
 11
221.9995899999999
 21
-186.64705900000001
 31
0.0
  0
ARC
  5
69
  8
DETAIL
  6
CONTINUOUS
 62
     5
 10
231.9995899999999
 20
-189.40000000000001
 30
0.0
 40
10.0
 50
180.0
 51
214.05579800000001
  0
ARC
  5
6A
  8
DETAIL
  6
CONTINUOUS
 62
     5
 10
220.3995899999999
 20
-186.64705900000001
 30
0.0
 40
1.6000000000000001
 50
0.0
 51
82.847331000000025
  0
CIRCLE
  5
6B
  8
ARRANGE
  6
CONTINUOUS
 62
     1
 10
0.0
 20
0.0
 30
0.0
 40
40.0
  0
LINE
  5
79
  8
NOTE
  6
CONTINUOUS
 62
     4
 10
-0.000001
 20
-280.0
 30
0.0
 11
-0.000001
 21
-240.0
 31
0.0
  0
LINE
  5
7A
  8
NOTE
  6
CONTINUOUS
 62
     4
 10
19.999998999999988
 20
-260.0
 30
0.0
 11
-20.000001000000001
 21
-260.0
 31
0.0
  0
LINE
  5
7B
  8
NOTE
  6
CONTINUOUS
 62
     4
 10
-0.000001
 20
-515.0
 30
0.0
 11
-0.000001
 21
-475.0
 31
0.0
  0
LINE
  5
7C
  8
NOTE
  6
CONTINUOUS
 62
     4
 10
19.999998999999988
 20
-495.0
 30
0.0
 11
-20.000001000000001
 21
-495.0
 31
0.0
  0
LINE
  5
7D
  8
NOTE
  6
CONTINUOUS
 62
     4
 10
254.999999
 20
-220.0
 30
0.0
 11
254.999999
 21
-180.0
 31
0.0
  0
LINE
  5
7E
  8
NOTE
  6
CONTINUOUS
 62
     4
 10
274.999999
 20
-200.0
 30
0.0
 11
234.999999
 21
-200.0
 31
0.0
  0
LINE
  5
7F
  8
NOTE
  6
CONTINUOUS
 62
     4
 10
289.99999899999989
 20
-220.0
 30
0.0
 11
289.99999899999989
 21
-180.0
 31
0.0
  0
LINE
  5
80
  8
NOTE
  6
CONTINUOUS
 62
     4
 10
309.999999
 20
-200.0
 30
0.0
 11
269.999999
 21
-200.0
 31
0.0
  0
LINE
  5
81
  8
NOTE
  6
CONTINUOUS
 62
     4
 10
289.99999899999989
 20
-220.0
 30
0.0
 11
289.99999899999989
 21
-180.0
 31
0.0
  0
LINE
  5
82
  8
NOTE
  6
CONTINUOUS
 62
     4
 10
309.999999
 20
-200.0
 30
0.0
 11
269.999999
 21
-200.0
 31
0.0
  0
LINE
  5
83
  8
NOTE
  6
CONTINUOUS
 62
     4
 10
478.75095299999998
 20
247.7741169999999
 30
0.0
 11
1062.8242
 21
247.7741169999999
 31
0.0
  0
CIRCLE
  5
84
  8
FIX
  6
CONTINUOUS
 62
    11
 10
-0.000001
 20
-260.0
 30
0.0
 40
4.0
  0
CIRCLE
  5
85
  8
FIX
  6
CONTINUOUS
 62
    11
 10
-0.000001
 20
-495.0
 30
0.0
 40
4.0
  0
CIRCLE
  5
86
  8
FIX
  6
CONTINUOUS
 62
    11
 10
289.99999899999989
 20
-200.0
 30
0.0
 40
12.5
  0
CIRCLE
  5
87
  8
FIX
  6
CONTINUOUS
 62
    11
 10
254.999999
 20
-200.0
 30
0.0
 40
12.5
  0
LINE
  5
88
  8
BASIS
  6
DASHDOT
 62
     6
 10
151.999999
 20
-213.65235699999999
 30
0.0
 11
151.999999
 21
-121.537254
 31
0.0
  0
LINE
  5
89
  8
BASIS
  6
DASHDOT
 62
     6
 10
144.999999
 20
-220.65042799999989
 30
0.0
 11
144.999999
 21
-101.0869209999999
 31
0.0
  0
LINE
  5
8A
  8
BASIS
  6
DASHDOT
 62
     6
 10
137.9999989999998
 20
-213.65235699999999
 30
0.0
 11
137.9999989999998
 21
-121.537254
 31
0.0
  0
TEXT
  5
8B
  8
NOTE
  6
CONTINUOUS
 62
     4
 10
-534.31094100000007
 20
66.962050000000005
 30
0.0
 40
64.0
  1
ダクト接続口可動寸法
 41
0.9
  0
TEXT
  5
8C
  8
NOTE
  6
CONTINUOUS
 62
     4
 10
101.0496959999999
 20
-85.464894999999984
 30
0.0
 40
64.0
  1
EA
 41
0.9
  0
LINE
  5
8E
  8
DETAIL
  6
CONTINUOUS
 62
     5
 10
372.95429100000001
 20
-600.0
 30
0.0
 11
399.999999
 21
-598.81645400000002
 31
0.0
  0
LINE
  5
8F
  8
SIZE
  6
CONTINUOUS
 62
    30
 10
419.999999
 20
0.0
 30
0.0
 11
892.30590500000005
 21
0.0
 31
0.0
  0
LINE
  5
90
  8
SIZE
  6
CONTINUOUS
 62
    30
 10
392.95429100000001
 20
-600.0
 30
0.0
 11
892.30590500000005
 21
-600.0
 31
0.0
  0
LINE
  5
91
  8
SIZE
  6
CONTINUOUS
 62
    30
 10
872.30590500000005
 20
-12.0
 30
0.0
 11
872.30590500000005
 21
-588.0
 31
0.0
  0
CIRCLE
  5
92
  8
SIZE
  6
CONTINUOUS
 62
    30
 10
872.30590500000005
 20
0.0
 30
0.0
 40
6.0
  0
LINE
  5
93
  8
SIZE
  6
CONTINUOUS
 62
    30
 10
872.30590500000005
 20
0.0
 30
0.0
 11
872.30590500000005
 21
-12.0
 31
0.0
  0
CIRCLE
  5
94
  8
SIZE
  6
CONTINUOUS
 62
    30
 10
872.30590500000005
 20
-600.0
 30
0.0
 40
6.0
  0
LINE
  5
95
  8
SIZE
  6
CONTINUOUS
 62
    30
 10
872.30590500000005
 20
-600.0
 30
0.0
 11
872.30590500000005
 21
-588.0
 31
0.0
  0
TEXT
  5
96
  8
SIZE
  6
CONTINUOUS
 62
    30
 10
847.30590499999983
 20
-374.05714285714282
 30
0.0
 40
64.0
  1
600
 50
90.0
 41
0.9
 72
     1
 11
847.30590499999983
 21
-300.0
 31
0.0
  0
LINE
  5
9A
  8
SIZE
  6
CONTINUOUS
 62
    30
 10
-20.000001000000001
 20
-600.0
 30
0.0
 11
-410.18732499999987
 21
-600.0
 31
0.0
  0
LINE
  5
9B
  8
SIZE
  6
CONTINUOUS
 62
    30
 10
-40.000000999999997
 20
-260.0
 30
0.0
 11
-410.18732499999987
 21
-260.0
 31
0.0
  0
LINE
  5
9C
  8
SIZE
  6
CONTINUOUS
 62
    30
 10
-390.18732499999987
 20
-588.0
 30
0.0
 11
-390.18732499999987
 21
-272.0
 31
0.0
  0
CIRCLE
  5
9D
  8
SIZE
  6
CONTINUOUS
 62
    30
 10
-390.18732499999987
 20
-600.0
 30
0.0
 40
6.0
  0
LINE
  5
9E
  8
SIZE
  6
CONTINUOUS
 62
    30
 10
-390.18732499999987
 20
-600.0
 30
0.0
 11
-390.18732499999987
 21
-588.0
 31
0.0
  0
CIRCLE
  5
9F
  8
SIZE
  6
CONTINUOUS
 62
    30
 10
-390.18732499999987
 20
-260.0
 30
0.0
 40
6.0
  0
LINE
  5
A0
  8
SIZE
  6
CONTINUOUS
 62
    30
 10
-390.18732499999987
 20
-260.0
 30
0.0
 11
-390.18732499999987
 21
-272.0
 31
0.0
  0
TEXT
  5
A1
  8
SIZE
  6
CONTINUOUS
 62
    30
 10
-415.18732499999987
 20
-504.05714285714282
 30
0.0
 40
64.0
  1
340
 50
90.0
 41
0.9
 72
     1
 11
-415.18732499999987
 21
-430.0
 31
0.0
  0
LINE
  5
A5
  8
SIZE
  6
CONTINUOUS
 62
    30
 10
-20.000001000000001
 20
-600.0
 30
0.0
 11
-275.94392599999992
 21
-600.0
 31
0.0
  0
LINE
  5
A6
  8
SIZE
  6
CONTINUOUS
 62
    30
 10
-40.000000999999997
 20
-495.0
 30
0.0
 11
-275.94392599999992
 21
-495.0
 31
0.0
  0
LINE
  5
A7
  8
SIZE
  6
CONTINUOUS
 62
    30
 10
-255.94392599999989
 20
-588.0
 30
0.0
 11
-255.94392599999989
 21
-507.0
 31
0.0
  0
LINE
  5
A8
  8
SIZE
  6
CONTINUOUS
 62
    30
 10
-255.94392599999989
 20
-806.56023799999969
 30
0.0
 11
-255.94392599999989
 21
-600.0
 31
0.0
  0
TEXT
  5
A9
  8
SIZE
  6
CONTINUOUS
 62
    30
 10
-280.94392599999992
 20
-781.5602375714285
 30
0.0
 40
64.0
  1
105
 50
90.0
 41
0.9
 72
     1
 11
-280.94392599999992
 21
-712.98880899999995
 31
0.0
  0
CIRCLE
  5
AA
  8
SIZE
  6
CONTINUOUS
 62
    30
 10
-255.94392599999989
 20
-600.0
 30
0.0
 40
6.0
  0
LINE
  5
AB
  8
SIZE
  6
CONTINUOUS
 62
    30
 10
-255.94392599999989
 20
-600.0
 30
0.0
 11
-255.94392599999989
 21
-588.0
 31
0.0
  0
CIRCLE
  5
AC
  8
SIZE
  6
CONTINUOUS
 62
    30
 10
-255.94392599999989
 20
-495.0
 30
0.0
 40
6.0
  0
LINE
  5
AD
  8
SIZE
  6
CONTINUOUS
 62
    30
 10
-255.94392599999989
 20
-495.0
 30
0.0
 11
-255.94392599999989
 21
-507.0
 31
0.0
  0
LINE
  5
B1
  8
SIZE
  6
CONTINUOUS
 62
    30
 10
-20.000001000000001
 20
-600.0
 30
0.0
 11
-595.35245099999997
 21
-600.0
 31
0.0
  0
LINE
  5
B2
  8
SIZE
  6
CONTINUOUS
 62
    30
 10
-20.000001000000001
 20
-200.0
 30
0.0
 11
-595.35245099999997
 21
-200.0
 31
0.0
  0
LINE
  5
B3
  8
SIZE
  6
CONTINUOUS
 62
    30
 10
-575.35245099999997
 20
-588.0
 30
0.0
 11
-575.35245099999997
 21
-212.0
 31
0.0
  0
CIRCLE
  5
B4
  8
SIZE
  6
CONTINUOUS
 62
    30
 10
-575.35245099999997
 20
-600.0
 30
0.0
 40
6.0
  0
LINE
  5
B5
  8
SIZE
  6
CONTINUOUS
 62
    30
 10
-575.35245099999997
 20
-600.0
 30
0.0
 11
-575.35245099999997
 21
-588.0
 31
0.0
  0
CIRCLE
  5
B6
  8
SIZE
  6
CONTINUOUS
 62
    30
 10
-575.35245099999997
 20
-200.0
 30
0.0
 40
6.0
  0
LINE
  5
B7
  8
SIZE
  6
CONTINUOUS
 62
    30
 10
-575.35245099999997
 20
-200.0
 30
0.0
 11
-575.35245099999997
 21
-212.0
 31
0.0
  0
TEXT
  5
B8
  8
SIZE
  6
CONTINUOUS
 62
    30
 10
-600.35245099999997
 20
-474.05714285714282
 30
0.0
 40
64.0
  1
400
 50
90.0
 41
0.9
 72
     1
 11
-600.35245099999997
 21
-400.0
 31
0.0
  0
LINE
  5
BC
  8
SIZE
  6
CONTINUOUS
 62
    30
 10
-20.000001000000001
 20
-200.0
 30
0.0
 11
-595.35245099999997
 21
-200.0
 31
0.0
  0
LINE
  5
BD
  8
SIZE
  6
CONTINUOUS
 62
    30
 10
50.999590000000012
 20
-145.0
 30
0.0
 11
-595.35245099999997
 21
-145.0
 31
0.0
  0
LINE
  5
BE
  8
SIZE
  6
CONTINUOUS
 62
    30
 10
-575.35245099999997
 20
-212.0
 30
0.0
 11
-575.35245099999997
 21
-224.0
 31
0.0
  0
LINE
  5
BF
  8
SIZE
  6
CONTINUOUS
 62
    30
 10
-575.35245099999997
 20
-133.0
 30
0.0
 11
-575.35245099999997
 21
-121.0
 31
0.0
  0
LINE
  5
C0
  8
SIZE
  6
CONTINUOUS
 62
    30
 10
-575.35245099999997
 20
23.049503999999999
 30
0.0
 11
-575.35245099999997
 21
-145.0
 31
0.0
  0
TEXT
  5
C1
  8
SIZE
  6
CONTINUOUS
 62
    30
 10
-600.35245099999997
 20
-95.207639428571426
 30
0.0
 40
64.0
  1
55
 50
90.0
 41
0.9
 72
     1
 11
-600.35245099999997
 21
-48.579067999999999
 31
0.0
  0
LINE
  5
C2
  8
SIZE
  6
CONTINUOUS
 62
    30
 10
-575.35245099999997
 20
-200.0
 30
0.0
 11
-575.35245099999997
 21
-145.0
 31
0.0
  0
LINE
  5
C3
  8
SIZE
  6
CONTINUOUS
 62
    30
 10
-575.35245099999997
 20
-200.0
 30
0.0
 11
-575.35245099999997
 21
-145.0
 31
0.0
  0
CIRCLE
  5
C4
  8
SIZE
  6
CONTINUOUS
 62
    30
 10
-575.35245099999997
 20
-200.0
 30
0.0
 40
6.0
  0
LINE
  5
C5
  8
SIZE
  6
CONTINUOUS
 62
    30
 10
-575.35245099999997
 20
-200.0
 30
0.0
 11
-575.35245099999997
 21
-212.0
 31
0.0
  0
CIRCLE
  5
C6
  8
SIZE
  6
CONTINUOUS
 62
    30
 10
-575.35245099999997
 20
-145.0
 30
0.0
 40
6.0
  0
LINE
  5
C7
  8
SIZE
  6
CONTINUOUS
 62
    30
 10
-575.35245099999997
 20
-145.0
 30
0.0
 11
-575.35245099999997
 21
-133.0
 31
0.0
  0
LINE
  5
CB
  8
SIZE
  6
CONTINUOUS
 62
    30
 10
-20.000001000000001
 20
-200.0
 30
0.0
 11
-471.40994999999992
 21
-200.0
 31
0.0
  0
LINE
  5
CC
  8
SIZE
  6
CONTINUOUS
 62
    30
 10
49.999999000000003
 20
-185.0
 30
0.0
 11
-471.40994999999992
 21
-185.0
 31
0.0
  0
LINE
  5
CD
  8
SIZE
  6
CONTINUOUS
 62
    30
 10
-451.40994999999992
 20
-212.0
 30
0.0
 11
-451.40994999999992
 21
-224.0
 31
0.0
  0
LINE
  5
CE
  8
SIZE
  6
CONTINUOUS
 62
    30
 10
-451.40994999999992
 20
-173.0
 30
0.0
 11
-451.40994999999992
 21
-161.0
 31
0.0
  0
LINE
  5
CF
  8
SIZE
  6
CONTINUOUS
 62
    30
 10
-451.40994999999992
 20
-13.435097000000001
 30
0.0
 11
-451.40994999999992
 21
-185.0
 31
0.0
  0
TEXT
  5
D0
  8
SIZE
  6
CONTINUOUS
 62
    30
 10
-476.40994999999992
 20
-120.7208111428571
 30
0.0
 40
64.0
  1
15
 50
90.0
 41
0.9
 72
     1
 11
-476.40994999999992
 21
-79.577954000000005
 31
0.0
  0
LINE
  5
D1
  8
SIZE
  6
CONTINUOUS
 62
    30
 10
-451.40994999999992
 20
-200.0
 30
0.0
 11
-451.40994999999992
 21
-185.0
 31
0.0
  0
LINE
  5
D2
  8
SIZE
  6
CONTINUOUS
 62
    30
 10
-451.40994999999992
 20
-200.0
 30
0.0
 11
-451.40994999999992
 21
-185.0
 31
0.0
  0
CIRCLE
  5
D3
  8
SIZE
  6
CONTINUOUS
 62
    30
 10
-451.40994999999992
 20
-200.0
 30
0.0
 40
6.0
  0
LINE
  5
D4
  8
SIZE
  6
CONTINUOUS
 62
    30
 10
-451.40994999999992
 20
-200.0
 30
0.0
 11
-451.40994999999992
 21
-212.0
 31
0.0
  0
CIRCLE
  5
D5
  8
SIZE
  6
CONTINUOUS
 62
    30
 10
-451.40994999999992
 20
-185.0
 30
0.0
 40
6.0
  0
LINE
  5
D6
  8
SIZE
  6
CONTINUOUS
 62
    30
 10
-451.40994999999992
 20
-185.0
 30
0.0
 11
-451.40994999999992
 21
-173.0
 31
0.0
  0
LINE
  5
DA
  8
SIZE
  6
CONTINUOUS
 62
    30
 10
-0.000001
 20
-180.0
 30
0.0
 11
-0.000001
 21
666.47351900000001
 31
0.0
  0
LINE
  5
DB
  8
SIZE
  6
CONTINUOUS
 62
    30
 10
399.999999
 20
20.0
 30
0.0
 11
399.999999
 21
666.47351900000001
 31
0.0
  0
LINE
  5
DE
  8
SIZE
  6
CONTINUOUS
 62
    30
 10
-0.000001
 20
646.47351899999978
 30
0.0
 11
399.999999
 21
646.47351899999978
 31
0.0
  0
CIRCLE
  5
DF
  8
SIZE
  6
CONTINUOUS
 62
    30
 10
-0.000001
 20
646.47351899999978
 30
0.0
 40
6.0
  0
CIRCLE
  5
E1
  8
SIZE
  6
CONTINUOUS
 62
    30
 10
399.999999
 20
646.47351899999978
 30
0.0
 40
6.0
  0
TEXT
  5
E3
  8
SIZE
  6
CONTINUOUS
 62
    30
 10
9.0971418571428444
 20
671.47351899999978
 30
0.0
 40
64.0
  1
400～450
 41
0.9
 72
     1
 11
199.999999
 21
671.47351899999978
 31
0.0
  0
POINT
  5
E6
  8
DEFPOINTS
  6
CONTINUOUS
 62
    30
 10
399.999999
 20
646.47351899999978
 30
0.0
  0
TEXT
  5
E7
  8
SIZE
  6
CONTINUOUS
 62
    30
 10
-115.860851
 20
553.53505199999995
 30
0.0
 40
64.0
  1
（350～375も可能）
 41
0.9
  0
LINE
  5
E8
  8
SIZE
  6
CONTINUOUS
 62
    30
 10
-0.000001
 20
-180.0
 30
0.0
 11
-0.000001
 21
423.022783
 31
0.0
  0
LINE
  5
E9
  8
SIZE
  6
CONTINUOUS
 62
    30
 10
144.999999
 20
-81.086920999999975
 30
0.0
 11
144.999999
 21
423.022783
 31
0.0
  0
LINE
  5
EC
  8
SIZE
  6
CONTINUOUS
 62
    30
 10
-0.000001
 20
403.022783
 30
0.0
 11
144.999999
 21
403.022783
 31
0.0
  0
CIRCLE
  5
ED
  8
SIZE
  6
CONTINUOUS
 62
    30
 10
-0.000001
 20
403.022783
 30
0.0
 40
6.0
  0
CIRCLE
  5
EF
  8
SIZE
  6
CONTINUOUS
 62
    30
 10
144.999999
 20
403.022783
 30
0.0
 40
6.0
  0
TEXT
  5
F1
  8
SIZE
  6
CONTINUOUS
 62
    30
 10
3.9285704285714331
 20
428.022783
 30
0.0
 40
64.0
  1
145
 41
0.9
 72
     1
 11
72.499999000000003
 21
428.022783
 31
0.0
  0
LINE
  5
F5
  8
SIZE
  6
CONTINUOUS
 62
    30
 10
344.999999
 20
20.0
 30
0.0
 11
344.999999
 21
423.51239500000003
 31
0.0
  0
LINE
  5
F6
  8
SIZE
  6
CONTINUOUS
 62
    30
 10
399.999999
 20
20.0
 30
0.0
 11
399.999999
 21
423.51239500000003
 31
0.0
  0
LINE
  5
F7
  8
SIZE
  6
CONTINUOUS
 62
    30
 10
332.999999
 20
403.51239500000003
 30
0.0
 11
320.999999
 21
403.51239500000003
 31
0.0
  0
LINE
  5
F8
  8
SIZE
  6
CONTINUOUS
 62
    30
 10
411.999999
 20
403.51239500000003
 30
0.0
 11
423.999999
 21
403.51239500000003
 31
0.0
  0
LINE
  5
F9
  8
SIZE
  6
CONTINUOUS
 62
    30
 10
580.25835800000004
 20
403.51239500000003
 30
0.0
 11
399.999999
 21
403.51239500000003
 31
0.0
  0
TEXT
  5
FA
  8
SIZE
  6
CONTINUOUS
 62
    30
 10
462.00121557142847
 20
428.51239500000003
 30
0.0
 40
64.0
  1
55
 41
0.9
 72
     1
 11
508.62978700000002
 21
428.51239500000003
 31
0.0
  0
LINE
  5
FB
  8
SIZE
  6
CONTINUOUS
 62
    30
 10
344.999999
 20
403.51239500000003
 30
0.0
 11
399.999999
 21
403.51239500000003
 31
0.0
  0
LINE
  5
FC
  8
SIZE
  6
CONTINUOUS
 62
    30
 10
344.999999
 20
403.51239500000003
 30
0.0
 11
399.999999
 21
403.51239500000003
 31
0.0
  0
CIRCLE
  5
FD
  8
SIZE
  6
CONTINUOUS
 62
    30
 10
344.999999
 20
403.51239500000003
 30
0.0
 40
6.0
  0
LINE
  5
FE
  8
SIZE
  6
CONTINUOUS
 62
    30
 10
344.999999
 20
403.51239500000003
 30
0.0
 11
332.999999
 21
403.51239500000003
 31
0.0
  0
CIRCLE
  5
FF
  8
SIZE
  6
CONTINUOUS
 62
    30
 10
399.999999
 20
403.51239500000003
 30
0.0
 40
6.0
  0
LINE
  5
100
  8
SIZE
  6
CONTINUOUS
 62
    30
 10
399.999999
 20
403.51239500000003
 30
0.0
 11
411.999999
 21
403.51239500000003
 31
0.0
  0
LINE
  5
104
  8
SIZE
  6
CONTINUOUS
 62
    30
 10
70.999589999999998
 20
-125.0
 30
0.0
 11
70.999589999999998
 21
307.30102299999987
 31
0.0
  0
LINE
  5
105
  8
SIZE
  6
CONTINUOUS
 62
    30
 10
218.9995899999999
 20
-125.0
 30
0.0
 11
218.9995899999999
 21
307.30102299999987
 31
0.0
  0
LINE
  5
106
  8
SIZE
  6
CONTINUOUS
 62
    30
 10
82.999589999999984
 20
287.30102299999987
 30
0.0
 11
206.9995899999999
 21
287.30102299999987
 31
0.0
  0
LINE
  5
107
  8
SIZE
  6
CONTINUOUS
 62
    30
 10
-233.879931
 20
287.30102299999987
 30
0.0
 11
70.999589999999998
 21
287.30102299999987
 31
0.0
  0
TEXT
  5
108
  8
SIZE
  6
CONTINUOUS
 62
    30
 10
-223.14278857142861
 20
312.30102299999987
 30
0.0
 40
64.0
  1
φ148
 41
0.9
 72
     1
 11
-114.25136000000001
 21
312.30102299999987
 31
0.0
  0
CIRCLE
  5
109
  8
SIZE
  6
CONTINUOUS
 62
    30
 10
70.999589999999998
 20
287.30102299999987
 30
0.0
 40
6.0
  0
LINE
  5
10A
  8
SIZE
  6
CONTINUOUS
 62
    30
 10
70.999589999999998
 20
287.30102299999987
 30
0.0
 11
82.999589999999984
 21
287.30102299999987
 31
0.0
  0
CIRCLE
  5
10B
  8
SIZE
  6
CONTINUOUS
 62
    30
 10
218.9995899999999
 20
287.30102299999987
 30
0.0
 40
6.0
  0
LINE
  5
10C
  8
SIZE
  6
CONTINUOUS
 62
    30
 10
218.9995899999999
 20
287.30102299999987
 30
0.0
 11
206.9995899999999
 21
287.30102299999987
 31
0.0
  0
LINE
  5
110
  8
SIZE
  6
CONTINUOUS
 62
    30
 10
137.9999989999998
 20
-101.5372539999999
 30
0.0
 11
137.9999989999998
 21
175.87384
 31
0.0
  0
LINE
  5
111
  8
SIZE
  6
CONTINUOUS
 62
    30
 10
151.999999
 20
-101.5372539999999
 30
0.0
 11
151.999999
 21
175.87384
 31
0.0
  0
LINE
  5
112
  8
SIZE
  6
CONTINUOUS
 62
    30
 10
125.999999
 20
155.87384
 30
0.0
 11
113.9999989999999
 21
155.87384
 31
0.0
  0
LINE
  5
113
  8
SIZE
  6
CONTINUOUS
 62
    30
 10
163.9999989999998
 20
155.87384
 30
0.0
 11
175.999999
 21
155.87384
 31
0.0
  0
LINE
  5
114
  8
SIZE
  6
CONTINUOUS
 62
    30
 10
-257.06537099999991
 20
155.87384
 30
0.0
 11
137.9999989999998
 21
155.87384
 31
0.0
  0
TEXT
  5
115
  8
SIZE
  6
CONTINUOUS
 62
    30
 10
-232.06537071428559
 20
180.87384
 30
0.0
 40
64.0
  1
14
 41
0.9
 72
     1
 11
-189.55108499999989
 21
180.87384
 31
0.0
  0
LINE
  5
116
  8
SIZE
  6
CONTINUOUS
 62
    30
 10
137.9999989999998
 20
155.87384
 30
0.0
 11
151.999999
 21
155.87384
 31
0.0
  0
LINE
  5
117
  8
SIZE
  6
CONTINUOUS
 62
    30
 10
137.9999989999998
 20
155.87384
 30
0.0
 11
151.999999
 21
155.87384
 31
0.0
  0
CIRCLE
  5
118
  8
SIZE
  6
CONTINUOUS
 62
    30
 10
137.9999989999998
 20
155.87384
 30
0.0
 40
6.0
  0
LINE
  5
119
  8
SIZE
  6
CONTINUOUS
 62
    30
 10
137.9999989999998
 20
155.87384
 30
0.0
 11
125.999999
 21
155.87384
 31
0.0
  0
CIRCLE
  5
11A
  8
SIZE
  6
CONTINUOUS
 62
    30
 10
151.999999
 20
155.87384
 30
0.0
 40
6.0
  0
LINE
  5
11B
  8
SIZE
  6
CONTINUOUS
 62
    30
 10
151.999999
 20
155.87384
 30
0.0
 11
163.9999989999998
 21
155.87384
 31
0.0
  0
LINE
  5
11F
  8
SIZE
  6
CONTINUOUS
 62
    30
 39
50.0
 10
-257.06537099999991
 20
155.87384
 30
0.0
 11
-561.19258300000001
 21
155.87384
 31
0.0
  0
LINE
  5
120
  8
SIZE
  6
CONTINUOUS
 62
    30
 10
-0.000001
 20
-620.0
 30
0.0
 11
-0.000001
 21
-1126.600678999999
 31
0.0
  0
LINE
  5
121
  8
SIZE
  6
CONTINUOUS
 62
    30
 10
649.999999
 20
-502.14396499999992
 30
0.0
 11
649.999999
 21
-1126.600678999999
 31
0.0
  0
LINE
  5
122
  8
SIZE
  6
CONTINUOUS
 62
    30
 10
11.999999000000001
 20
-1106.6006789999999
 30
0.0
 11
637.99999899999989
 21
-1106.6006789999999
 31
0.0
  0
CIRCLE
  5
123
  8
SIZE
  6
CONTINUOUS
 62
    30
 10
-0.000001
 20
-1106.6006789999999
 30
0.0
 40
6.0
  0
LINE
  5
124
  8
SIZE
  6
CONTINUOUS
 62
    30
 10
-0.000001
 20
-1106.6006789999999
 30
0.0
 11
11.999999000000001
 21
-1106.6006789999999
 31
0.0
  0
CIRCLE
  5
125
  8
SIZE
  6
CONTINUOUS
 62
    30
 10
649.999999
 20
-1106.6006789999999
 30
0.0
 40
6.0
  0
LINE
  5
126
  8
SIZE
  6
CONTINUOUS
 62
    30
 10
649.999999
 20
-1106.6006789999999
 30
0.0
 11
637.99999899999989
 21
-1106.6006789999999
 31
0.0
  0
TEXT
  5
127
  8
SIZE
  6
CONTINUOUS
 62
    30
 10
250.9428561428571
 20
-1081.600678999999
 30
0.0
 40
64.0
  1
650
 41
0.9
 72
     1
 11
324.999999
 21
-1081.600678999999
 31
0.0
  0
LINE
  5
12B
  8
SIZE
  6
CONTINUOUS
 62
    30
 10
-0.000001
 20
-620.0
 30
0.0
 11
-0.000001
 21
-994.51268400000004
 31
0.0
  0
LINE
  5
12C
  8
SIZE
  6
CONTINUOUS
 62
    30
 10
369.999999
 20
-620.0
 30
0.0
 11
369.999999
 21
-994.51268400000004
 31
0.0
  0
LINE
  5
12D
  8
SIZE
  6
CONTINUOUS
 62
    30
 10
11.999999000000001
 20
-974.51268400000015
 30
0.0
 11
357.999999
 21
-974.51268400000015
 31
0.0
  0
CIRCLE
  5
12E
  8
SIZE
  6
CONTINUOUS
 62
    30
 10
-0.000001
 20
-974.51268400000015
 30
0.0
 40
6.0
  0
LINE
  5
12F
  8
SIZE
  6
CONTINUOUS
 62
    30
 10
-0.000001
 20
-974.51268400000015
 30
0.0
 11
11.999999000000001
 21
-974.51268400000015
 31
0.0
  0
CIRCLE
  5
130
  8
SIZE
  6
CONTINUOUS
 62
    30
 10
369.999999
 20
-974.51268400000015
 30
0.0
 40
6.0
  0
LINE
  5
131
  8
SIZE
  6
CONTINUOUS
 62
    30
 10
369.999999
 20
-974.51268400000015
 30
0.0
 11
357.999999
 21
-974.51268400000015
 31
0.0
  0
TEXT
  5
132
  8
SIZE
  6
CONTINUOUS
 62
    30
 10
110.9428561428571
 20
-949.51268400000015
 30
0.0
 40
64.0
  1
370
 41
0.9
 72
     1
 11
184.999999
 21
-949.51268400000015
 31
0.0
  0
LINE
  5
136
  8
SIZE
  6
CONTINUOUS
 62
    30
 10
-0.000001
 20
-620.0
 30
0.0
 11
-0.000001
 21
-872.60021600000005
 31
0.0
  0
LINE
  5
137
  8
SIZE
  6
CONTINUOUS
 62
    30
 10
289.99999899999989
 20
-240.0
 30
0.0
 11
289.99999899999989
 21
-872.60021600000005
 31
0.0
  0
LINE
  5
138
  8
SIZE
  6
CONTINUOUS
 62
    30
 10
11.999999000000001
 20
-852.60021600000005
 30
0.0
 11
277.99999899999989
 21
-852.60021600000005
 31
0.0
  0
CIRCLE
  5
139
  8
SIZE
  6
CONTINUOUS
 62
    30
 10
-0.000001
 20
-852.60021600000005
 30
0.0
 40
6.0
  0
LINE
  5
13A
  8
SIZE
  6
CONTINUOUS
 62
    30
 10
-0.000001
 20
-852.60021600000005
 30
0.0
 11
11.999999000000001
 21
-852.60021600000005
 31
0.0
  0
CIRCLE
  5
13B
  8
SIZE
  6
CONTINUOUS
 62
    30
 10
289.99999899999989
 20
-852.60021600000005
 30
0.0
 40
6.0
  0
LINE
  5
13C
  8
SIZE
  6
CONTINUOUS
 62
    30
 10
289.99999899999989
 20
-852.60021600000005
 30
0.0
 11
277.99999899999989
 21
-852.60021600000005
 31
0.0
  0
TEXT
  5
13D
  8
SIZE
  6
CONTINUOUS
 62
    30
 10
70.942856142857153
 20
-827.60021600000005
 30
0.0
 40
64.0
  1
290
 41
0.9
 72
     1
 11
144.999999
 21
-827.60021600000005
 31
0.0
  0
LINE
  5
141
  8
SIZE
  6
CONTINUOUS
 62
    30
 10
-0.000001
 20
-620.0
 30
0.0
 11
-0.000001
 21
-753.7250049999999
 31
0.0
  0
LINE
  5
142
  8
SIZE
  6
CONTINUOUS
 62
    30
 10
254.999999
 20
-240.0
 30
0.0
 11
254.999999
 21
-753.7250049999999
 31
0.0
  0
LINE
  5
143
  8
SIZE
  6
CONTINUOUS
 62
    30
 10
11.999999000000001
 20
-733.72500500000001
 30
0.0
 11
242.999999
 21
-733.72500500000001
 31
0.0
  0
CIRCLE
  5
144
  8
SIZE
  6
CONTINUOUS
 62
    30
 10
-0.000001
 20
-733.72500500000001
 30
0.0
 40
6.0
  0
LINE
  5
145
  8
SIZE
  6
CONTINUOUS
 62
    30
 10
-0.000001
 20
-733.72500500000001
 30
0.0
 11
11.999999000000001
 21
-733.72500500000001
 31
0.0
  0
CIRCLE
  5
146
  8
SIZE
  6
CONTINUOUS
 62
    30
 10
254.999999
 20
-733.72500500000001
 30
0.0
 40
6.0
  0
LINE
  5
147
  8
SIZE
  6
CONTINUOUS
 62
    30
 10
254.999999
 20
-733.72500500000001
 30
0.0
 11
242.999999
 21
-733.72500500000001
 31
0.0
  0
TEXT
  5
148
  8
SIZE
  6
CONTINUOUS
 62
    30
 10
53.44285614285706
 20
-708.72500500000001
 30
0.0
 40
64.0
  1
255
 41
0.9
 72
     1
 11
127.4999989999999
 21
-708.72500500000001
 31
0.0
  0
TEXT
  5
15B
  8
ETC
  6
CONTINUOUS
 62
    61
 10
827.6132892291181
 20
670.92285158211234
 30
0.0
 40
64.0
  1
V-604KSW7-BL_5
 41
0.9
  0
TEXT
  5
15C
  8
ETC
  6
CONTINUOUS
 62
    61
 10
974.33752052788554
 20
496.3731641993744
 30
0.0
 40
50.0
  1
V-604KSW6-BL
 41
0.9
  0
TEXT
  5
15D
  8
ETC
  6
CONTINUOUS
 62
    61
 10
832.15799622911811
 20
574.07548358211238
 30
0.0
 40
64.0
  1
換気扇
 41
0.9
  0
LINE
  5
15E
  8
OUTLINE
  6
CONTINOUS
 62
     3
 10
-0.0000010000001112
 20
-600.0
 30
0.0
 11
372.95429100000001
 21
-600.0
 31
0.0
  0
LINE
  5
15F
  8
OUTLINE
  6
CONTINOUS
 62
     3
 10
424.99999899999989
 20
-200.0
 30
0.0
 11
-0.0000010000001112
 21
-200.0
 31
0.0
  0
LINE
  5
160
  8
OUTLINE
  6
CONTINOUS
 62
     3
 10
-0.0000010000001112
 20
-600.0
 30
0.0
 11
-0.0000010000001112
 21
-200.0
 31
0.0
  0
LINE
  5
161
  8
OUTLINE
  6
CONTINOUS
 62
     3
 10
646.21892700000012
 20
-459.31670100000002
 30
0.0
 11
480.20377699999989
 21
-211.41966899999991
 31
0.0
  0
ARC
  5
162
  8
OUTLINE
  6
CONTINOUS
 62
     3
 10
384.5540759999999
 20
51.0
 30
0.0
 40
650.0
 50
271.3616449999999
 51
291.64304800000002
  0
LINE
  5
163
  8
OUTLINE
  6
CONTINUOUS
 62
     3
 10
372.95429100000001
 20
-600.0
 30
0.0
 11
399.999999
 21
-598.81645400000002
 31
0.0
  0
LINE
  5
164
  8
OUTLINE
  6
CONTINOUS
 62
     3
 10
633.84268700000007
 20
-542.44387500000005
 30
0.0
 11
649.99999899999989
 21
-482.14396499999998
 31
0.0
  0
ARC
  5
165
  8
OUTLINE
  6
CONTINOUS
 62
     3
 10
618.3878739999999
 20
-538.30277000000001
 30
0.0
 40
16.0
 50
291.64304800000002
 51
345.0
  0
ARC
  5
166
  8
OUTLINE
  6
CONTINOUS
 62
     3
 10
622.95407599999987
 20
-474.89703200000002
 30
0.0
 40
28.0
 50
345.0
 51
33.809981999999998
  0
LINE
  5
167
  8
OUTLINE
  6
CONTINOUS
 62
     3
 10
399.999999
 20
-200.0
 30
0.0
 11
399.999999
 21
0.0
 31
0.0
  0
LINE
  5
168
  8
OUTLINE
  6
CONTINOUS
 62
     3
 10
344.99999899999978
 20
-200.0
 30
0.0
 11
344.99999899999978
 21
0.0
 31
0.0
  0
LINE
  5
169
  8
OUTLINE
  6
CONTINOUS
 62
     3
 10
464.35512499999987
 20
-200.0
 30
0.0
 11
399.999999
 21
-200.0
 31
0.0
  0
ARC
  5
16A
  8
OUTLINE
  6
CONTINOUS
 62
     3
 10
456.93892599999998
 20
-227.0
 30
0.0
 40
28.0
 50
33.809981999999998
 51
74.641114000000002
  0
LINE
  5
16B
  8
OUTLINE
  6
CONTINOUS
 62
     3
 10
399.999999
 20
0.0
 30
0.0
 11
344.99999899999978
 21
0.0
 31
0.0
  0
TEXT
  5
23F
  8
ETC
  6
CONTINUOUS
 62
    61
 10
974.33752052788554
 20
419.02263480585208
 30
0.0
 40
50.0
  1
V-604KSW7-BL
 41
0.9
  0
ENDSEC
  0
EOF
