  0
SECTION
  2
HEADER
  9
$ACADVER
  1
AC1009
  9
$INSBASE
 10
0.0
 20
0.0
 30
0.0
  9
$EXTMIN
 10
-1202.755721417205
 20
-933.10545761266985
 30
-0.0015257624927045
  9
$EXTMAX
 10
1304.7226071063451
 20
666.50391436007703
 30
50.001525995323327
  9
$LIMMIN
 10
-2970.0
 20
-2100.0
  9
$LIMMAX
 10
2970.0
 20
2100.0
  9
$ORTHOMODE
 70
     0
  9
$REGENMODE
 70
     0
  9
$FILLMODE
 70
     1
  9
$QTEXTMODE
 70
     0
  9
$MIRRTEXT
 70
     0
  9
$DRAGMODE
 70
     2
  9
$LTSCALE
 40
20.0
  9
$OSMODE
 70
    32
  9
$ATTMODE
 70
     1
  9
$TEXTSIZE
 40
64.0
  9
$TRACEWID
 40
0.05
  9
$TEXTSTYLE
  7
STANDARD
  9
$CLAYER
  8
ETC
  9
$CELTYPE
  6
DASHDOT
  9
$CECOLOR
 62
     6
  9
$DIMSCALE
 40
1.0
  9
$DIMASZ
 40
12.0
  9
$DIMEXO
 40
20.0
  9
$DIMDLI
 40
200.0
  9
$DIMRND
 40
0.0
  9
$DIMDLE
 40
0.0
  9
$DIMEXE
 40
20.0
  9
$DIMTP
 40
0.0
  9
$DIMTM
 40
0.0
  9
$DIMTXT
 40
64.0
  9
$DIMCEN
 40
0.09
  9
$DIMTSZ
 40
0.0
  9
$DIMTOL
 70
     0
  9
$DIMLIM
 70
     0
  9
$DIMTIH
 70
     0
  9
$DIMTOH
 70
     0
  9
$DIMSE1
 70
     0
  9
$DIMSE2
 70
     0
  9
$DIMTAD
 70
     1
  9
$DIMZIN
 70
     8
  9
$DIMBLK
  1
DOT1
  9
$DIMASO
 70
     1
  9
$DIMSHO
 70
     0
  9
$DIMPOST
  1

  9
$DIMAPOST
  1

  9
$DIMALT
 70
     0
  9
$DIMALTD
 70
     2
  9
$DIMALTF
 40
25.399999999999999
  9
$DIMLFAC
 40
1.0
  9
$DIMTOFL
 70
     1
  9
$DIMTVP
 40
0.0
  9
$DIMTIX
 70
     1
  9
$DIMSOXD
 70
     0
  9
$DIMSAH
 70
     1
  9
$DIMBLK1
  1
ORIGIN
  9
$DIMBLK2
  1
ORIGIN
  9
$DIMSTYLE
  2
STANDARD
  9
$DIMCLRD
 70
     7
  9
$DIMCLRE
 70
     7
  9
$DIMCLRT
 70
     7
  9
$DIMTFAC
 40
1.0
  9
$DIMGAP
 40
25.0
  9
$LUNITS
 70
     2
  9
$LUPREC
 70
     4
  9
$SKETCHINC
 40
0.1
  9
$FILLETRAD
 40
4.0
  9
$AUNITS
 70
     1
  9
$AUPREC
 70
     3
  9
$MENU
  1
ACAD
  9
$ELEVATION
 40
0.0
  9
$PELEVATION
 40
0.0
  9
$THICKNESS
 40
50.0
  9
$LIMCHECK
 70
     0
  9
$BLIPMODE
 70
     0
  9
$CHAMFERA
 40
0.0
  9
$CHAMFERB
 40
0.0
  9
$SKPOLY
 70
     0
  9
$TDCREATE
 40
2453090.592490891
  9
$TDUPDATE
 40
2454743.6980580208
  9
$TDINDWG
 40
0.1968980324
  9
$TDUSRTIMER
 40
0.1968978472
  9
$USRTIMER
 70
     1
  9
$ANGBASE
 50
0.0
  9
$ANGDIR
 70
     0
  9
$PDMODE
 70
     3
  9
$PDSIZE
 40
-2.0
  9
$PLINEWID
 40
0.0
  9
$COORDS
 70
     1
  9
$SPLFRAME
 70
     0
  9
$SPLINETYPE
 70
     6
  9
$SPLINESEGS
 70
     8
  9
$ATTDIA
 70
     0
  9
$ATTREQ
 70
     1
  9
$HANDLING
 70
     1
  9
$HANDSEED
  5
4B6
  9
$SURFTAB1
 70
     6
  9
$SURFTAB2
 70
     6
  9
$SURFTYPE
 70
     6
  9
$SURFU
 70
     6
  9
$SURFV
 70
     6
  9
$UCSNAME
  2

  9
$UCSORG
 10
0.0
 20
0.0
 30
0.0
  9
$UCSXDIR
 10
1.0
 20
0.0
 30
0.0
  9
$UCSYDIR
 10
0.0
 20
1.0
 30
0.0
  9
$PUCSNAME
  2

  9
$PUCSORG
 10
0.0
 20
0.0
 30
0.0
  9
$PUCSXDIR
 10
1.0
 20
0.0
 30
0.0
  9
$PUCSYDIR
 10
0.0
 20
1.0
 30
0.0
  9
$USERI1
 70
     0
  9
$USERI2
 70
     0
  9
$USERI3
 70
     0
  9
$USERI4
 70
     0
  9
$USERI5
 70
     0
  9
$USERR1
 40
20.0
  9
$USERR2
 40
0.0
  9
$USERR3
 40
0.0
  9
$USERR4
 40
0.0
  9
$USERR5
 40
0.0
  9
$WORLDVIEW
 70
     1
  9
$SHADEDGE
 70
     3
  9
$SHADEDIF
 70
    70
  9
$TILEMODE
 70
     1
  9
$MAXACTVP
 70
    48
  9
$PLIMCHECK
 70
     0
  9
$PEXTMIN
 10
-1.0000000000000000E+020
 20
-1.0000000000000000E+020
 30
-1.0000000000000000E+020
  9
$PEXTMAX
 10
1.0000000000000000E+020
 20
1.0000000000000000E+020
 30
1.0000000000000000E+020
  9
$PLIMMIN
 10
0.0
 20
0.0
  9
$PLIMMAX
 10
12.0
 20
9.0
  9
$UNITMODE
 70
     0
  9
$VISRETAIN
 70
     0
  9
$PLINEGEN
 70
     0
  9
$PSLTSCALE
 70
     0
  0
ENDSEC
  0
SECTION
  2
TABLES
  0
TABLE
  2
VPORT
 70
     1
  0
VPORT
  2
*ACTIVE
 70
     0
 10
0.0
 20
0.0
 11
1.0
 21
1.0
 12
152.8858566476099
 22
-181.47815577351361
 13
0.0
 23
0.0
 14
1.0
 24
1.0
 15
0.0
 25
0.0
 16
0.0
 26
0.0
 36
1.0
 17
0.0
 27
0.0
 37
0.0
 40
1810.711851736675
 41
1.812051649928264
 42
50.0
 43
0.0
 44
0.0
 50
0.0
 51
0.0
 71
     0
 72
  1000
 73
     1
 74
     0
 75
     0
 76
     0
 77
     0
 78
     0
  0
ENDTAB
  0
TABLE
  2
LTYPE
 70
     4
  0
LTYPE
  2
CONTINUOUS
 70
     0
  3
実線
 72
    65
 73
     0
 40
0.0
  0
LTYPE
  2
DASHDOT
 70
     0
  3
____ _ ____ _ ____ _ ____ _ ____ _ ____ _ ____
 72
    65
 73
     4
 40
5.5
 49
4.0
 49
-0.6
 49
0.3
 49
-0.6
  0
LTYPE
  2
CONTINOUS
 70
     0
  3
Solid line
 72
    65
 73
     0
 40
0.0
  0
ENDTAB
  0
TABLE
  2
LAYER
 70
    12
  0
LAYER
  2
0
 70
     0
 62
     7
  6
CONTINUOUS
  0
LAYER
  2
BASIS
 70
     0
 62
     6
  6
DASHDOT
  0
LAYER
  2
SIZE
 70
     0
 62
    30
  6
CONTINUOUS
  0
LAYER
  2
OUTLINE
 70
     0
 62
     3
  6
CONTINUOUS
  0
LAYER
  2
DETAIL
 70
     0
 62
     5
  6
CONTINUOUS
  0
LAYER
  2
ARRANGE
 70
     0
 62
     1
  6
CONTINUOUS
  0
LAYER
  2
DEFPOINTS
 70
     0
 62
     7
  6
CONTINUOUS
  0
LAYER
  2
ETC
 70
     0
 62
    61
  6
CONTINUOUS
  0
LAYER
  2
FIX
 70
     0
 62
    11
  6
CONTINUOUS
  0
LAYER
  2
NOTE
 70
     0
 62
     4
  6
CONTINUOUS
  0
LAYER
  2
SERVICESPACE
 70
     0
 62
     2
  6
DASHDOT
  0
LAYER
  2
SYMBOLLINE
 70
     0
 62
    15
  6
CONTINUOUS
  0
ENDTAB
  0
TABLE
  2
STYLE
 70
     2
  0
STYLE
  2
STANDARD
 70
     0
 40
64.0
 41
0.9
 50
0.0
 71
     0
 42
64.0
  3
SIMPLEX.shx
  4
BIGFONT.shx
  0
STYLE
  2
ANNOTATIVE
 70
     0
 40
0.0
 41
1.0
 50
0.0
 71
     0
 42
0.2
  3
txt
  4

  0
ENDTAB
  0
TABLE
  2
VIEW
 70
     1
  0
VIEW
  2
ALL
 70
     0
 40
4282.6198079999967
 10
0.0
 20
41.309903999999989
 41
5940.0
 11
0.0
 21
0.0
 31
1.0
 12
0.0
 22
0.0
 32
0.0
 42
50.0
 43
0.0
 44
0.0
 50
0.0
 71
     0
  0
ENDTAB
  0
TABLE
  2
UCS
 70
     0
  0
ENDTAB
  0
TABLE
  2
APPID
 70
     5
  0
APPID
  2
ACAD
 70
     0
  0
APPID
  2
ACADANNOTATIVE
 70
     0
  0
APPID
  2
ACAD_MLEADERVER
 70
     0
  0
APPID
  2
AUTOCAD_POSTSCRIPT_FIGURE
 70
     0
  0
APPID
  2
ACAD_EXEMPT_FROM_CAD_STANDARDS
 70
     0
  0
ENDTAB
  0
TABLE
  2
DIMSTYLE
 70
     2
  0
DIMSTYLE
  2
STANDARD
 70
     0
  3

  4

  5

  6

  7

 40
1.0
 41
0.18
 42
0.0625
 43
0.38
 44
0.18
 45
0.0
 46
0.0
 47
0.0
 48
0.0
140
0.18
141
0.09
142
0.0
143
25.399999999999999
144
1.0
145
0.0
146
1.0
147
0.09
 71
     0
 72
     0
 73
     1
 74
     1
 75
     0
 76
     0
 77
     0
 78
     0
170
     0
171
     2
172
     0
173
     0
174
     0
175
     0
176
     7
177
     7
178
     7
  0
DIMSTYLE
  2
ANNOTATIVE
 70
     0
  3

  4

  5

  6

  7

 40
1.0
 41
0.18
 42
0.0625
 43
0.38
 44
0.18
 45
0.0
 46
0.0
 47
0.0
 48
0.0
140
0.18
141
0.09
142
0.0
143
25.399999999999999
144
1.0
145
0.0
146
1.0
147
0.09
 71
     0
 72
     0
 73
     1
 74
     1
 75
     0
 76
     0
 77
     0
 78
     0
170
     0
171
     2
172
     0
173
     0
174
     0
175
     0
176
     0
177
     0
178
     0
  0
ENDTAB
  0
ENDSEC
  0
SECTION
  2
BLOCKS
  0
BLOCK
  8
0
  2
$MODEL_SPACE
 70
     0
 10
0.0
 20
0.0
 30
0.0
  3
$MODEL_SPACE
  1

  0
ENDBLK
  5
45E
  8
0
  0
BLOCK
 67
     1
  8
0
  2
$PAPER_SPACE
 70
     0
 10
0.0
 20
0.0
 30
0.0
  3
$PAPER_SPACE
  1

  0
ENDBLK
  5
45A
 67
     1
  8
0
  0
BLOCK
  8
0
  2
DOT1
 70
     0
 10
0.0
 20
0.0
 30
0.0
  3
DOT1
  1

  0
CIRCLE
  5
27D
  8
SIZE
  6
CONTINUOUS
 62
     7
 10
0.0
 20
0.0
 30
0.0
 40
3.0
  0
ENDBLK
  5
27E
  8
0
  0
BLOCK
  8
0
  2
_ORIGIN
 70
     0
 10
0.0
 20
0.0
 30
0.0
  3
_ORIGIN
  1

  0
CIRCLE
  5
281
  8
0
  6
CONTINUOUS
 62
     7
 10
0.0
 20
0.0
 30
0.0
 40
0.5
  0
LINE
  5
282
  8
0
  6
CONTINUOUS
 62
     7
 10
0.0
 20
0.0
 30
0.0
 11
-1.0
 21
0.0
 31
0.0
  0
ENDBLK
  5
283
  8
0
  0
ENDSEC
  0
SECTION
  2
ENTITIES
  0
TEXT
  5
284
  8
ETC
  6
CONTINUOUS
 62
    61
 10
700.8632331764328
 20
602.35789801678288
 30
0.0
 40
64.0
  1
V-604KSW7_1
 41
0.9
  0
TEXT
  5
285
  8
ETC
  6
CONTINUOUS
 62
    61
 10
702.29283617643284
 20
505.51052901678281
 30
0.0
 40
64.0
  1
換気扇
 41
0.9
  0
CIRCLE
  5
286
  8
DETAIL
  6
CONTINUOUS
 62
     5
 10
0.0
 20
-145.0
 30
0.0
 40
74.0
  0
LINE
  5
287
  8
BASIS
  6
DASHDOT
 62
     6
 10
0.0
 20
-666.08072800000002
 30
0.0
 11
0.0
 21
48.397177999999982
 31
0.0
  0
LINE
  5
288
  8
DETAIL
  6
CONTINOUS
 62
     5
 10
300.0
 20
0.0
 30
0.0
 11
300.0
 21
-590.0
 31
0.0
  0
LINE
  5
289
  8
DETAIL
  6
CONTINOUS
 62
     5
 10
279.99878499999988
 20
-598.0
 30
0.0
 11
292.0
 21
-598.0
 31
0.0
  0
ARC
  5
28A
  8
DETAIL
  6
CONTINOUS
 62
     5
 10
-292.0
 20
-590.0
 30
0.0
 40
8.0
 50
180.0
 51
270.0
  0
LINE
  5
28B
  8
DETAIL
  6
CONTINOUS
 62
     5
 10
279.99878499999988
 20
-598.0
 30
0.0
 11
279.99878499999988
 21
-600.0
 31
0.0
  0
ARC
  5
28C
  8
DETAIL
  6
CONTINOUS
 62
     5
 10
292.0
 20
-590.0
 30
0.0
 40
8.0
 50
270.0
 51
0.0
  0
LINE
  5
28D
  8
DETAIL
  6
CONTINOUS
 62
     5
 10
-292.0
 20
-598.0
 30
0.0
 11
-280.001215
 21
-598.0
 31
0.0
  0
LINE
  5
28E
  8
DETAIL
  6
CONTINOUS
 62
     5
 10
-285.0
 20
-293.80000000000001
 30
0.0
 11
-285.0
 21
-334.39999999999992
 31
0.0
  0
LINE
  5
28F
  8
DETAIL
  6
CONTINOUS
 62
     5
 10
-280.001215
 20
-600.0
 30
0.0
 11
279.99878499999988
 21
-600.0
 31
0.0
  0
LINE
  5
290
  8
DETAIL
  6
CONTINOUS
 62
     5
 10
-300.0
 20
0.0
 30
0.0
 11
-300.0
 21
-590.0
 31
0.0
  0
LINE
  5
291
  8
DETAIL
  6
CONTINOUS
 62
     5
 10
-300.0
 20
0.0
 30
0.0
 11
-74.0
 21
0.0
 31
0.0
  0
LINE
  5
292
  8
BASIS
  6
DASHDOT
 62
     6
 10
102.20353399999991
 20
-145.0
 30
0.0
 11
-100.797011
 21
-145.0
 31
0.0
  0
LINE
  5
293
  8
NOTE
  6
CONTINUOUS
 62
     4
 10
220.0
 20
0.0
 30
0.0
 11
260.0
 21
0.0
 31
0.0
  0
LINE
  5
294
  8
DETAIL
  6
CONTINUOUS
 62
     5
 10
120.0
 20
-54.0
 30
0.0
 11
-120.0
 21
-54.0
 31
0.0
  0
LINE
  5
295
  8
DETAIL
  6
CONTINUOUS
 62
     5
 10
-120.0
 20
-236.0
 30
0.0
 11
120.0
 21
-236.0
 31
0.0
  0
CIRCLE
  5
296
  8
DETAIL
  6
CONTINUOUS
 62
     5
 10
0.0
 20
-145.0
 30
0.0
 40
84.0
  0
LINE
  5
297
  8
DETAIL
  6
CONTINOUS
 62
     5
 10
-74.0
 20
0.0
 30
0.0
 11
300.0
 21
0.0
 31
0.0
  0
CIRCLE
  5
298
  8
FIX
  6
CONTINUOUS
 62
    11
 10
-240.0
 20
-255.0
 30
0.0
 40
12.5
  0
LINE
  5
299
  8
NOTE
  6
CONTINUOUS
 62
     4
 10
-240.0
 20
-275.0
 30
0.0
 11
-240.0
 21
-235.0
 31
0.0
  0
LINE
  5
29A
  8
NOTE
  6
CONTINUOUS
 62
     4
 10
-260.0
 20
-255.0
 30
0.0
 11
-220.0
 21
-255.0
 31
0.0
  0
CIRCLE
  5
29B
  8
DETAIL
  6
CONTINOUS
 62
     5
 10
-240.0
 20
-255.0
 30
0.0
 40
12.5
  0
CIRCLE
  5
29C
  8
DETAIL
  6
CONTINOUS
 62
     5
 10
240.0
 20
-255.0
 30
0.0
 40
12.5
  0
LINE
  5
29D
  8
NOTE
  6
CONTINUOUS
 62
     4
 10
240.0
 20
-275.0
 30
0.0
 11
240.0
 21
-235.0
 31
0.0
  0
LINE
  5
29E
  8
NOTE
  6
CONTINUOUS
 62
     4
 10
260.0
 20
-255.0
 30
0.0
 11
220.0
 21
-255.0
 31
0.0
  0
CIRCLE
  5
29F
  8
FIX
  6
CONTINUOUS
 62
    11
 10
240.0
 20
-255.0
 30
0.0
 40
12.5
  0
TEXT
  5
2A0
  8
NOTE
  6
CONTINUOUS
 62
     4
 10
602.23066700000004
 20
-691.11462200000005
 30
0.0
 40
64.0
  1
AH 2×2-φ25
 41
0.9
  0
LINE
  5
2A1
  8
NOTE
  6
CONTINUOUS
 62
     4
 10
566.28759600000001
 20
-725.14917800000001
 30
0.0
 11
1180.189737999998
 21
-725.14917800000001
 31
0.0
  0
LINE
  5
2A2
  8
BASIS
  6
DASHDOT
 62
     6
 10
52.949941000000003
 20
-145.0
 30
0.0
 11
99.627746000000016
 21
-145.0
 31
0.0
  0
LINE
  5
2A3
  8
BASIS
  6
DASHDOT
 62
     6
 10
-52.949941000000003
 20
-145.0
 30
0.0
 11
-98.981848000000014
 21
-145.0
 31
0.0
  0
LINE
  5
2A4
  8
DETAIL
  6
CONTINOUS
 62
     5
 10
-280.0
 20
0.0
 30
0.0
 11
-280.0
 21
-273.7999999999999
 31
0.0
  0
LINE
  5
2A5
  8
DETAIL
  6
CONTINOUS
 62
     5
 10
280.0
 20
-350.0
 30
0.0
 11
280.0
 21
-598.0
 31
0.0
  0
LINE
  5
2A6
  8
DETAIL
  6
CONTINOUS
 62
     5
 10
-280.0
 20
-350.0
 30
0.0
 11
-280.0
 21
-600.0
 31
0.0
  0
LINE
  5
2A7
  8
BASIS
  6
DASHDOT
 62
     6
 10
-10.0
 20
-249.43346
 30
0.0
 11
-10.0
 21
-45.192985
 31
0.0
  0
LINE
  5
2A8
  8
BASIS
  6
DASHDOT
 62
     6
 10
10.0
 20
-249.43346
 30
0.0
 11
10.0
 21
-45.192985
 31
0.0
  0
LINE
  5
2A9
  8
DETAIL
  6
CONTINOUS
 62
     5
 10
280.0
 20
0.0
 30
0.0
 11
280.0
 21
-273.7999999999999
 31
0.0
  0
TEXT
  5
2AA
  8
NOTE
  6
CONTINUOUS
 62
     4
 10
-45.309933999999977
 20
-195.330488
 30
0.0
 40
64.0
  1
EA
 41
0.9
  0
LINE
  5
2AB
  8
NOTE
  6
CONTINUOUS
 62
     4
 10
-240.0
 20
-20.0
 30
0.0
 11
-240.0
 21
20.0
 31
0.0
  0
LINE
  5
2AC
  8
NOTE
  6
CONTINUOUS
 62
     4
 10
-260.0
 20
0.0
 30
0.0
 11
-220.0
 21
0.0
 31
0.0
  0
LINE
  5
2AD
  8
NOTE
  6
CONTINUOUS
 62
     4
 10
240.0
 20
-20.0
 30
0.0
 11
240.0
 21
20.0
 31
0.0
  0
LINE
  5
2AE
  8
NOTE
  6
CONTINUOUS
 62
     4
 10
220.0
 20
0.0
 30
0.0
 11
260.0
 21
0.0
 31
0.0
  0
CIRCLE
  5
2AF
  8
FIX
  6
CONTINUOUS
 62
    11
 10
-240.0
 20
0.0
 30
0.0
 40
4.0
  0
CIRCLE
  5
2B0
  8
FIX
  6
CONTINUOUS
 62
    11
 10
240.0
 20
0.0
 30
0.0
 40
4.0
  0
LINE
  5
2B1
  8
DETAIL
  6
CONTINOUS
 62
     5
 10
-300.0
 20
-239.40000000000001
 30
0.0
 11
-282.0
 21
-239.40000000000001
 31
0.0
  0
TEXT
  5
2B2
  8
NOTE
  6
CONTINUOUS
 62
     4
 10
-788.39532499999984
 20
397.83136300000001
 30
0.0
 40
64.0
  1
4-φ8
 41
0.9
  0
LINE
  5
2B3
  8
NOTE
  6
CONTINUOUS
 62
     4
 10
-822.93107699999973
 20
366.17332900000002
 30
0.0
 11
-530.36762800000008
 21
366.17332900000002
 31
0.0
  0
TEXT
  5
2B4
  8
NOTE
  6
CONTINUOUS
 62
     4
 10
7.6895660000000001
 20
223.38791805393981
 30
0.0
 40
64.0
  1
ダクト接続口可動寸法
 41
0.9
  0
TEXT
  5
2B5
  8
NOTE
  6
CONTINUOUS
 62
     4
 10
-385.693894
 20
-843.44259999999986
 30
0.0
 40
64.0
  1
ダクト接続口可動寸法
 50
90.0
 41
0.9
  0
LINE
  5
2B6
  8
NOTE
  6
CONTINUOUS
 62
     4
 10
-240.0
 20
0.0
 30
0.0
 11
-530.36762800000008
 21
366.17332900000002
 31
0.0
  0
LINE
  5
2B7
  8
NOTE
  6
CONTINUOUS
 62
     4
 10
-272.282128
 20
23.619150000000001
 30
0.0
 11
-240.0
 21
0.0
 31
0.0
  0
LINE
  5
2B8
  8
NOTE
  6
CONTINUOUS
 62
     4
 10
-240.0
 20
0.0
 30
0.0
 11
-256.14756699999992
 21
36.595847999999989
 31
0.0
  0
POINT
  5
2B9
  8
ARRANGE
  6
CONTINUOUS
 62
     1
 10
0.0
 20
0.0
 30
0.0
  0
CIRCLE
  5
2BA
  8
ARRANGE
  6
CONTINUOUS
 62
     1
 10
0.0
 20
0.0
 30
0.0
 40
40.0
  0
LINE
  5
2BB
  8
DETAIL
  6
CONTINUOUS
 62
     5
 10
120.0
 20
-236.0
 30
0.0
 11
120.0
 21
-54.0
 31
0.0
  0
LINE
  5
2BC
  8
DETAIL
  6
CONTINUOUS
 62
     5
 10
-120.0
 20
-236.0
 30
0.0
 11
-120.0
 21
-54.0
 31
0.0
  0
LINE
  5
2BD
  8
BASIS
  6
DASHDOT
 62
     6
 10
-52.949941000000003
 20
-138.0
 30
0.0
 11
-92.790177
 21
-138.0
 31
0.0
  0
LINE
  5
2BE
  8
BASIS
  6
DASHDOT
 62
     6
 10
-52.949941000000003
 20
-152.0
 30
0.0
 11
-92.790177
 21
-152.0
 31
0.0
  0
LINE
  5
2BF
  8
BASIS
  6
DASHDOT
 62
     6
 10
92.959800000000001
 20
-152.0
 30
0.0
 11
-92.790177
 21
-152.0
 31
0.0
  0
LINE
  5
2C0
  8
BASIS
  6
DASHDOT
 62
     6
 10
92.959800000000001
 20
-138.0
 30
0.0
 11
-92.790177
 21
-138.0
 31
0.0
  0
LINE
  5
2C1
  8
OUTLINE
  6
CONTINOUS
 62
     3
 10
-300.0
 20
0.0
 30
0.0
 11
-300.0
 21
-590.0
 31
0.0
  0
LINE
  5
2C2
  8
OUTLINE
  6
CONTINOUS
 62
     3
 10
-292.0
 20
-598.0
 30
0.0
 11
-280.0
 21
-598.0
 31
0.0
  0
LINE
  5
2C3
  8
OUTLINE
  6
CONTINOUS
 62
     3
 10
-280.001215
 20
-600.0
 30
0.0
 11
279.99878499999988
 21
-600.0
 31
0.0
  0
LINE
  5
2C4
  8
OUTLINE
  6
CONTINOUS
 62
     3
 10
-280.0
 20
-598.0
 30
0.0
 11
-280.0
 21
-600.0
 31
0.0
  0
LINE
  5
2C5
  8
OUTLINE
  6
CONTINOUS
 62
     3
 10
-300.0
 20
0.0
 30
0.0
 11
300.0
 21
0.0
 31
0.0
  0
ARC
  5
2C6
  8
OUTLINE
  6
CONTINOUS
 62
     3
 10
-292.0
 20
-590.0
 30
0.0
 40
8.0
 50
180.0
 51
270.0
  0
ARC
  5
2C7
  8
OUTLINE
  6
CONTINOUS
 62
     3
 10
292.0
 20
-590.0
 30
0.0
 40
8.0
 50
270.0
 51
0.0
  0
LINE
  5
2C8
  8
OUTLINE
  6
CONTINOUS
 62
     3
 10
280.0
 20
-598.0
 30
0.0
 11
280.0
 21
-600.0
 31
0.0
  0
LINE
  5
2C9
  8
OUTLINE
  6
CONTINOUS
 62
     3
 10
292.0
 20
-598.0
 30
0.0
 11
280.0
 21
-598.0
 31
0.0
  0
LINE
  5
2CA
  8
OUTLINE
  6
CONTINOUS
 62
     3
 10
300.0
 20
0.0
 30
0.0
 11
300.0
 21
-590.0
 31
0.0
  0
CIRCLE
  5
2CB
  8
DETAIL
  6
CONTINOUS
 62
     5
 10
-240.0
 20
-290.0
 30
0.0
 40
12.5
  0
LINE
  5
2CC
  8
NOTE
  6
CONTINUOUS
 62
     4
 10
-240.0
 20
-310.0
 30
0.0
 11
-240.0
 21
-270.0
 31
0.0
  0
LINE
  5
2CD
  8
NOTE
  6
CONTINUOUS
 62
     4
 10
-260.0
 20
-290.0
 30
0.0
 11
-220.0
 21
-290.0
 31
0.0
  0
CIRCLE
  5
2CE
  8
FIX
  6
CONTINUOUS
 62
    11
 10
-240.0
 20
-290.0
 30
0.0
 40
12.5
  0
CIRCLE
  5
2CF
  8
FIX
  6
CONTINUOUS
 62
    11
 10
240.0
 20
-290.0
 30
0.0
 40
12.5
  0
LINE
  5
2D0
  8
NOTE
  6
CONTINUOUS
 62
     4
 10
240.0
 20
-310.0
 30
0.0
 11
240.0
 21
-270.0
 31
0.0
  0
LINE
  5
2D1
  8
NOTE
  6
CONTINUOUS
 62
     4
 10
260.0
 20
-290.0
 30
0.0
 11
220.0
 21
-290.0
 31
0.0
  0
CIRCLE
  5
2D2
  8
DETAIL
  6
CONTINOUS
 62
     5
 10
240.0
 20
-290.0
 30
0.0
 40
12.5
  0
TEXT
  5
2D3
  8
NOTE
  6
CONTINUOUS
 62
     4
 10
-1196.2263499999981
 20
262.215824
 30
0.0
 40
64.0
  1
後、上配管の場合
 41
0.9
  0
TEXT
  5
2D4
  8
NOTE
  6
CONTINUOUS
 62
     4
 10
-1133.0444130000001
 20
116.28342600000001
 30
0.0
 40
64.0
  1
右、左配管の場合
 41
0.9
  0
LINE
  5
2D5
  8
DETAIL
  6
CONTINOUS
 62
     5
 10
-285.0
 20
-334.39999999999992
 30
0.0
 11
285.0
 21
-334.39999999999992
 31
0.0
  0
LINE
  5
2D6
  8
DETAIL
  6
CONTINOUS
 62
     5
 10
-300.0
 20
-350.0
 30
0.0
 11
300.0
 21
-350.0
 31
0.0
  0
LINE
  5
2D7
  8
DETAIL
  6
CONTINUOUS
 62
     5
 10
-285.0
 20
-334.39999999999992
 30
0.0
 11
-300.0
 21
-350.0
 31
0.0
  0
LINE
  5
2D8
  8
DETAIL
  6
CONTINUOUS
 62
     5
 10
285.0
 20
-334.39999999999992
 30
0.0
 11
300.0
 21
-350.0
 31
0.0
  0
LINE
  5
2D9
  8
DETAIL
  6
CONTINOUS
 62
     5
 10
-280.001215
 20
-422.0
 30
0.0
 11
279.99878499999988
 21
-422.0
 31
0.0
  0
LINE
  5
2DA
  8
DETAIL
  6
CONTINOUS
 62
     5
 10
-280.001215
 20
-382.0
 30
0.0
 11
279.99878499999988
 21
-382.0
 31
0.0
  0
LINE
  5
2DB
  8
NOTE
  6
CONTINUOUS
 62
     4
 10
240.0
 20
-290.0
 30
0.0
 11
566.28759600000001
 21
-725.14917800000001
 31
0.0
  0
LINE
  5
2DC
  8
NOTE
  6
CONTINUOUS
 62
     4
 10
271.53419500000001
 20
-314.60882999999973
 30
0.0
 11
240.0
 21
-290.0
 31
0.0
  0
LINE
  5
2DD
  8
NOTE
  6
CONTINUOUS
 62
     4
 10
240.0
 20
-290.0
 30
0.0
 11
255.004999
 21
-327.07897000000008
 31
0.0
  0
LINE
  5
2DE
  8
NOTE
  6
CONTINUOUS
 62
     4
 10
-619.50223399999982
 20
235.86478199999991
 30
0.0
 11
-1202.6810479999999
 21
235.86478199999991
 31
0.0
  0
LINE
  5
2DF
  8
NOTE
  6
CONTINUOUS
 62
     4
 10
-1148.8104410000001
 20
96.516333000000003
 30
0.0
 11
-582.68163800000002
 21
96.516333000000003
 31
0.0
  0
LINE
  5
2E0
  8
NOTE
  6
CONTINUOUS
 62
     4
 10
-240.0
 20
-255.0
 30
0.0
 11
-619.50223399999982
 21
235.86478199999991
 31
0.0
  0
LINE
  5
2E1
  8
NOTE
  6
CONTINUOUS
 62
     4
 10
-240.0
 20
-290.0
 30
0.0
 11
-582.68163800000002
 21
96.516333000000003
 31
0.0
  0
LINE
  5
2E2
  8
NOTE
  6
CONTINUOUS
 62
     4
 10
-271.97596800000002
 20
-230.96799100000001
 30
0.0
 11
-240.0
 21
-255.0
 31
0.0
  0
LINE
  5
2E3
  8
NOTE
  6
CONTINUOUS
 62
     4
 10
-240.0
 20
-255.0
 30
0.0
 11
-255.675995
 21
-218.1996849999999
 31
0.0
  0
LINE
  5
2E4
  8
NOTE
  6
CONTINUOUS
 62
     4
 10
-273.92781699999989
 20
-268.81266399999998
 30
0.0
 11
-240.0
 21
-290.0
 31
0.0
  0
LINE
  5
2E5
  8
NOTE
  6
CONTINUOUS
 62
     4
 10
-240.0
 20
-290.0
 30
0.0
 11
-258.78868299999982
 21
-254.68732
 31
0.0
  0
LINE
  5
2E6
  8
SIZE
  6
CONTINUOUS
 62
    30
 10
300.0
 20
-610.0
 30
0.0
 11
300.0
 21
-933.07390022304617
 31
0.0
  0
LINE
  5
2E7
  8
SIZE
  6
CONTINUOUS
 62
    30
 10
-300.0
 20
-610.0
 30
0.0
 11
-300.0
 21
-930.64336550483586
 31
0.0
  0
LINE
  5
2E8
  8
SIZE
  6
CONTINUOUS
 62
    30
 10
288.0
 20
-906.42553241735845
 30
0.0
 11
-288.0
 21
-906.42553241735845
 31
0.0
  0
CIRCLE
  5
2E9
  8
SIZE
  6
CONTINUOUS
 62
    30
 10
300.0
 20
-906.42553241735845
 30
0.0
 40
6.0
  0
LINE
  5
2EA
  8
SIZE
  6
CONTINUOUS
 62
    30
 10
300.0
 20
-906.42553241735845
 30
0.0
 11
288.0
 21
-906.42553241735845
 31
0.0
  0
CIRCLE
  5
2EB
  8
SIZE
  6
CONTINUOUS
 62
    30
 10
-300.0
 20
-906.42553241735845
 30
0.0
 40
6.0
  0
LINE
  5
2EC
  8
SIZE
  6
CONTINUOUS
 62
    30
 10
-300.0
 20
-906.42553241735845
 30
0.0
 11
-288.0
 21
-906.42553241735845
 31
0.0
  0
TEXT
  5
2ED
  8
SIZE
  6
CONTINUOUS
 62
    30
 10
-74.05714285714285
 20
-881.42553241735902
 30
0.0
 40
64.0
  1
600
 41
0.9
 72
     1
 11
0.0
 21
-881.42553241735902
 31
0.0
  0
LINE
  5
2F1
  8
SIZE
  6
CONTINUOUS
 62
    30
 10
240.0
 20
-330.0
 30
0.0
 11
240.0
 21
-811.54703053291644
 31
0.0
  0
LINE
  5
2F2
  8
SIZE
  6
CONTINUOUS
 62
    30
 10
-240.0
 20
-330.0
 30
0.0
 11
-240.0
 21
-811.54703053291644
 31
0.0
  0
LINE
  5
2F3
  8
SIZE
  6
CONTINUOUS
 62
    30
 10
228.0
 20
-784.81111741735901
 30
0.0
 11
-228.0
 21
-784.81111741735901
 31
0.0
  0
CIRCLE
  5
2F4
  8
SIZE
  6
CONTINUOUS
 62
    30
 10
240.0
 20
-784.81111741735901
 30
0.0
 40
6.0
  0
LINE
  5
2F5
  8
SIZE
  6
CONTINUOUS
 62
    30
 10
240.0
 20
-784.81111741735901
 30
0.0
 11
228.0
 21
-784.81111741735901
 31
0.0
  0
CIRCLE
  5
2F6
  8
SIZE
  6
CONTINUOUS
 62
    30
 10
-240.0
 20
-784.81111741735901
 30
0.0
 40
6.0
  0
LINE
  5
2F7
  8
SIZE
  6
CONTINUOUS
 62
    30
 10
-240.0
 20
-784.81111741735901
 30
0.0
 11
-228.0
 21
-784.81111741735901
 31
0.0
  0
TEXT
  5
2F8
  8
SIZE
  6
CONTINUOUS
 62
    30
 10
-74.057142857142836
 20
-759.81111741735901
 30
0.0
 40
64.0
  1
480
 41
0.9
 72
     1
 11
0.0
 21
-759.81111741735901
 31
0.0
  0
LINE
  5
2FC
  8
SIZE
  6
CONTINUOUS
 62
    30
 10
240.0
 20
40.0
 30
0.0
 11
240.0
 21
527.67910199196649
 31
0.0
  0
LINE
  5
2FD
  8
SIZE
  6
CONTINUOUS
 62
    30
 10
-240.0
 20
40.0
 30
0.0
 11
-240.0
 21
527.67910199196649
 31
0.0
  0
LINE
  5
2FE
  8
SIZE
  6
CONTINUOUS
 62
    30
 10
228.0
 20
503.37372805394
 30
0.0
 11
-228.0
 21
503.37372805394
 31
0.0
  0
CIRCLE
  5
2FF
  8
SIZE
  6
CONTINUOUS
 62
    30
 10
240.0
 20
503.37372805394
 30
0.0
 40
6.0
  0
LINE
  5
300
  8
SIZE
  6
CONTINUOUS
 62
    30
 10
240.0
 20
503.37372805394
 30
0.0
 11
228.0
 21
503.37372805394
 31
0.0
  0
CIRCLE
  5
301
  8
SIZE
  6
CONTINUOUS
 62
    30
 10
-240.0
 20
503.37372805394
 30
0.0
 40
6.0
  0
LINE
  5
302
  8
SIZE
  6
CONTINUOUS
 62
    30
 10
-240.0
 20
503.37372805394
 30
0.0
 11
-228.0
 21
503.37372805394
 31
0.0
  0
TEXT
  5
303
  8
SIZE
  6
CONTINUOUS
 62
    30
 10
-74.057142857142836
 20
528.37372805394
 30
0.0
 40
64.0
  1
480
 41
0.9
 72
     1
 11
0.0
 21
528.37372805394
 31
0.0
  0
LINE
  5
307
  8
SIZE
  6
CONTINUOUS
 62
    30
 10
10.0
 20
-25.192985
 30
0.0
 11
10.0
 21
325.94449741448602
 31
0.0
  0
LINE
  5
308
  8
SIZE
  6
CONTINUOUS
 62
    30
 10
-10.0
 20
-25.192985
 30
0.0
 11
-10.0
 21
328.37503213269707
 31
0.0
  0
LINE
  5
309
  8
SIZE
  6
CONTINUOUS
 62
    30
 10
22.0
 20
305.30916105393982
 30
0.0
 11
34.0
 21
305.30916105393982
 31
0.0
  0
LINE
  5
30A
  8
SIZE
  6
CONTINUOUS
 62
    30
 10
-22.0
 20
305.30916105393982
 30
0.0
 11
-34.0
 21
305.30916105393982
 31
0.0
  0
LINE
  5
30B
  8
SIZE
  6
CONTINUOUS
 62
    30
 10
408.55986499999989
 20
305.30916105393982
 30
0.0
 11
10.0
 21
305.30916105393982
 31
0.0
  0
TEXT
  5
30C
  8
SIZE
  6
CONTINUOUS
 62
    30
 10
290.30272257142849
 20
330.30916105393982
 30
0.0
 40
64.0
  1
20
 41
0.9
 72
     1
 11
336.93129399999992
 21
330.30916105393982
 31
0.0
  0
LINE
  5
30D
  8
SIZE
  6
CONTINUOUS
 62
    30
 10
10.0
 20
305.30916105393982
 30
0.0
 11
-10.0
 21
305.30916105393982
 31
0.0
  0
LINE
  5
30E
  8
SIZE
  6
CONTINUOUS
 62
    30
 10
10.0
 20
305.30916105393982
 30
0.0
 11
-10.0
 21
305.30916105393982
 31
0.0
  0
CIRCLE
  5
30F
  8
SIZE
  6
CONTINUOUS
 62
    30
 10
10.0
 20
305.30916105393982
 30
0.0
 40
6.0
  0
LINE
  5
310
  8
SIZE
  6
CONTINUOUS
 62
    30
 10
10.0
 20
305.30916105393982
 30
0.0
 11
22.0
 21
305.30916105393982
 31
0.0
  0
CIRCLE
  5
311
  8
SIZE
  6
CONTINUOUS
 62
    30
 10
-10.0
 20
305.30916105393982
 30
0.0
 40
6.0
  0
LINE
  5
312
  8
SIZE
  6
CONTINUOUS
 62
    30
 10
-10.0
 20
305.30916105393982
 30
0.0
 11
-22.0
 21
305.30916105393982
 31
0.0
  0
LINE
  5
316
  8
SIZE
  6
CONTINUOUS
 62
    30
 10
74.0
 20
-125.0
 30
0.0
 11
74.0
 21
403.72169312430549
 31
0.0
  0
LINE
  5
317
  8
SIZE
  6
CONTINUOUS
 62
    30
 10
-74.0
 20
-125.0
 30
0.0
 11
-74.0
 21
403.72169312430549
 31
0.0
  0
LINE
  5
318
  8
SIZE
  6
CONTINUOUS
 62
    30
 10
74.0
 20
381.42680005393981
 30
0.0
 11
-74.0
 21
381.42680005393981
 31
0.0
  0
CIRCLE
  5
319
  8
SIZE
  6
CONTINUOUS
 62
    30
 10
74.0
 20
381.42680005393981
 30
0.0
 40
6.0
  0
CIRCLE
  5
31A
  8
SIZE
  6
CONTINUOUS
 62
    30
 10
-74.0
 20
381.42680005393981
 30
0.0
 40
6.0
  0
TEXT
  5
31B
  8
SIZE
  6
CONTINUOUS
 62
    30
 10
-108.89142857142851
 20
406.42680005393981
 30
0.0
 40
64.0
  1
φ148
 41
0.9
 72
     1
 11
0.0
 21
406.42680005393981
 31
0.0
  0
LINE
  5
31F
  8
SIZE
  6
CONTINUOUS
 62
    30
 39
50.0
 10
408.55986499999989
 20
305.30916105393982
 30
0.0
 11
692.05301699999995
 21
305.30916105393982
 31
0.0
  0
LINE
  5
320
  8
SIZE
  6
CONTINUOUS
 62
    30
 10
-112.790177
 20
-138.0
 30
0.0
 11
-502.51646799999992
 21
-138.0
 31
0.0
  0
LINE
  5
321
  8
SIZE
  6
CONTINUOUS
 62
    30
 10
-112.790177
 20
-152.0
 30
0.0
 11
-502.51646799999992
 21
-152.0
 31
0.0
  0
LINE
  5
322
  8
SIZE
  6
CONTINUOUS
 62
    30
 10
-482.51646799999992
 20
-126.0
 30
0.0
 11
-482.51646799999992
 21
-114.0
 31
0.0
  0
LINE
  5
323
  8
SIZE
  6
CONTINUOUS
 62
    30
 10
-482.51646799999992
 20
-164.0
 30
0.0
 11
-482.51646799999992
 21
-176.0
 31
0.0
  0
LINE
  5
324
  8
SIZE
  6
CONTINUOUS
 62
    30
 10
-482.51646799999992
 20
-610.32741199999998
 30
0.0
 11
-482.51646799999992
 21
-152.0
 31
0.0
  0
TEXT
  5
325
  8
SIZE
  6
CONTINUOUS
 62
    30
 10
-507.51646799999992
 20
-585.32741171428552
 30
0.0
 40
64.0
  1
14
 50
90.0
 41
0.9
 72
     1
 11
-507.51646799999992
 21
-542.81312599999978
 31
0.0
  0
LINE
  5
326
  8
SIZE
  6
CONTINUOUS
 62
    30
 10
-482.51646799999992
 20
-138.0
 30
0.0
 11
-482.51646799999992
 21
-152.0
 31
0.0
  0
LINE
  5
327
  8
SIZE
  6
CONTINUOUS
 62
    30
 10
-482.51646799999992
 20
-138.0
 30
0.0
 11
-482.51646799999992
 21
-152.0
 31
0.0
  0
CIRCLE
  5
328
  8
SIZE
  6
CONTINUOUS
 62
    30
 10
-482.51646799999992
 20
-138.0
 30
0.0
 40
6.0
  0
LINE
  5
329
  8
SIZE
  6
CONTINUOUS
 62
    30
 10
-482.51646799999992
 20
-138.0
 30
0.0
 11
-482.51646799999992
 21
-126.0
 31
0.0
  0
CIRCLE
  5
32A
  8
SIZE
  6
CONTINUOUS
 62
    30
 10
-482.51646799999992
 20
-152.0
 30
0.0
 40
6.0
  0
LINE
  5
32B
  8
SIZE
  6
CONTINUOUS
 62
    30
 10
-482.51646799999992
 20
-152.0
 30
0.0
 11
-482.51646799999992
 21
-164.0
 31
0.0
  0
LINE
  5
32F
  8
SIZE
  6
CONTINUOUS
 62
    30
 39
50.0
 10
-482.51646799999992
 20
-606.97367499999984
 30
0.0
 11
-482.51646799999992
 21
-855.79139299999974
 31
0.0
  0
LINE
  5
330
  8
SIZE
  6
CONTINUOUS
 62
    30
 10
-320.0
 20
0.0
 30
0.0
 11
-895.3438809999999
 21
0.0
 31
0.0
  0
LINE
  5
331
  8
SIZE
  6
CONTINUOUS
 62
    30
 10
-300.0
 20
-600.0
 30
0.0
 11
-895.3438809999999
 21
-600.0
 31
0.0
  0
LINE
  5
332
  8
SIZE
  6
CONTINUOUS
 62
    30
 10
-875.34388100000001
 20
-12.0
 30
0.0
 11
-875.34388100000001
 21
-588.0
 31
0.0
  0
CIRCLE
  5
333
  8
SIZE
  6
CONTINUOUS
 62
    30
 10
-875.34388100000001
 20
0.0
 30
0.0
 40
6.0
  0
LINE
  5
334
  8
SIZE
  6
CONTINUOUS
 62
    30
 10
-875.34388100000001
 20
0.0
 30
0.0
 11
-875.34388100000001
 21
-12.0
 31
0.0
  0
CIRCLE
  5
335
  8
SIZE
  6
CONTINUOUS
 62
    30
 10
-875.34388100000001
 20
-600.0
 30
0.0
 40
6.0
  0
LINE
  5
336
  8
SIZE
  6
CONTINUOUS
 62
    30
 10
-875.34388100000001
 20
-600.0
 30
0.0
 11
-875.34388100000001
 21
-588.0
 31
0.0
  0
TEXT
  5
337
  8
SIZE
  6
CONTINUOUS
 62
    30
 10
-900.34388100000001
 20
-374.05714285714282
 30
0.0
 40
64.0
  1
600
 50
90.0
 41
0.9
 72
     1
 11
-900.34388100000001
 21
-300.0
 31
0.0
  0
LINE
  5
33B
  8
SIZE
  6
CONTINUOUS
 62
    30
 10
-320.0
 20
0.0
 30
0.0
 11
-760.313672
 21
0.0
 31
0.0
  0
LINE
  5
33C
  8
SIZE
  6
CONTINUOUS
 62
    30
 10
-280.0
 20
-290.0
 30
0.0
 11
-760.313672
 21
-290.0
 31
0.0
  0
LINE
  5
33D
  8
SIZE
  6
CONTINUOUS
 62
    30
 10
-740.313672
 20
-12.0
 30
0.0
 11
-740.313672
 21
-278.0
 31
0.0
  0
CIRCLE
  5
33E
  8
SIZE
  6
CONTINUOUS
 62
    30
 10
-740.313672
 20
0.0
 30
0.0
 40
6.0
  0
LINE
  5
33F
  8
SIZE
  6
CONTINUOUS
 62
    30
 10
-740.313672
 20
0.0
 30
0.0
 11
-740.313672
 21
-12.0
 31
0.0
  0
CIRCLE
  5
340
  8
SIZE
  6
CONTINUOUS
 62
    30
 10
-740.313672
 20
-290.0
 30
0.0
 40
6.0
  0
LINE
  5
341
  8
SIZE
  6
CONTINUOUS
 62
    30
 10
-740.313672
 20
-290.0
 30
0.0
 11
-740.313672
 21
-278.0
 31
0.0
  0
TEXT
  5
342
  8
SIZE
  6
CONTINUOUS
 62
    30
 10
-765.313672
 20
-219.05714285714279
 30
0.0
 40
64.0
  1
290
 50
90.0
 41
0.9
 72
     1
 11
-765.313672
 21
-145.0
 31
0.0
  0
LINE
  5
346
  8
SIZE
  6
CONTINUOUS
 62
    30
 10
-320.0
 20
0.0
 30
0.0
 11
-637.972668
 21
0.0
 31
0.0
  0
LINE
  5
347
  8
SIZE
  6
CONTINUOUS
 62
    30
 10
-280.0
 20
-255.0
 30
0.0
 11
-637.972668
 21
-255.0
 31
0.0
  0
LINE
  5
348
  8
SIZE
  6
CONTINUOUS
 62
    30
 10
-617.97266799999989
 20
-12.0
 30
0.0
 11
-617.97266799999989
 21
-243.0
 31
0.0
  0
CIRCLE
  5
349
  8
SIZE
  6
CONTINUOUS
 62
    30
 10
-617.97266799999989
 20
0.0
 30
0.0
 40
6.0
  0
LINE
  5
34A
  8
SIZE
  6
CONTINUOUS
 62
    30
 10
-617.97266799999989
 20
0.0
 30
0.0
 11
-617.97266799999989
 21
-12.0
 31
0.0
  0
CIRCLE
  5
34B
  8
SIZE
  6
CONTINUOUS
 62
    30
 10
-617.97266799999989
 20
-255.0
 30
0.0
 40
6.0
  0
LINE
  5
34C
  8
SIZE
  6
CONTINUOUS
 62
    30
 10
-617.97266799999989
 20
-255.0
 30
0.0
 11
-617.97266799999989
 21
-243.0
 31
0.0
  0
TEXT
  5
34D
  8
SIZE
  6
CONTINUOUS
 62
    30
 10
-642.97266799999989
 20
-201.55714285714291
 30
0.0
 40
64.0
  1
255
 50
90.0
 41
0.9
 72
     1
 11
-642.97266799999989
 21
-127.5
 31
0.0
  0
LINE
  5
351
  8
DETAIL
  6
CONTINOUS
 62
     5
 10
-263.80000000000001
 20
-280.80000000000001
 30
0.0
 11
-263.80000000000001
 21
-273.7999999999999
 31
0.0
  0
CIRCLE
  5
352
  8
DETAIL
  6
CONTINOUS
 62
     5
 10
-275.80000000000001
 20
-283.80000000000001
 30
0.0
 40
2.1000000000000001
  0
CIRCLE
  5
353
  8
DETAIL
  6
CONTINOUS
 62
     5
 10
-275.80000000000001
 20
-283.80000000000001
 30
0.0
 40
3.1000000000000001
  0
LINE
  5
354
  8
DETAIL
  6
CONTINOUS
 62
     5
 10
-261.80000000000001
 20
-280.80000000000001
 30
0.0
 11
-263.80000000000001
 21
-280.80000000000001
 31
0.0
  0
LINE
  5
355
  8
DETAIL
  6
CONTINOUS
 62
     5
 10
-261.80000000000001
 20
-286.80000000000001
 30
0.0
 11
-261.80000000000001
 21
-280.80000000000001
 31
0.0
  0
LINE
  5
356
  8
DETAIL
  6
CONTINOUS
 62
     5
 10
-261.80000000000001
 20
-286.80000000000001
 30
0.0
 11
-263.80000000000001
 21
-286.80000000000001
 31
0.0
  0
LINE
  5
357
  8
DETAIL
  6
CONTINOUS
 62
     5
 10
-263.80000000000001
 20
-293.80000000000001
 30
0.0
 11
-263.80000000000001
 21
-286.80000000000001
 31
0.0
  0
LINE
  5
358
  8
DETAIL
  6
CONTINOUS
 62
     5
 10
-263.80000000000001
 20
-293.80000000000001
 30
0.0
 11
-293.80000000000001
 21
-293.80000000000001
 31
0.0
  0
LINE
  5
359
  8
DETAIL
  6
CONTINOUS
 62
     5
 10
-263.80000000000001
 20
-273.7999999999999
 30
0.0
 11
-293.80000000000001
 21
-273.7999999999999
 31
0.0
  0
LINE
  5
35A
  8
DETAIL
  6
CONTINOUS
 62
     5
 10
-263.80000000000001
 20
-292.80000000000001
 30
0.0
 11
-293.80000000000001
 21
-292.80000000000001
 31
0.0
  0
LINE
  5
35B
  8
DETAIL
  6
CONTINOUS
 62
     5
 10
-263.80000000000001
 20
-274.80000000000001
 30
0.0
 11
-293.80000000000001
 21
-274.80000000000001
 31
0.0
  0
LINE
  5
35C
  8
DETAIL
  6
CONTINOUS
 62
     5
 10
-293.80000000000001
 20
-293.80000000000001
 30
0.0
 11
-293.80000000000001
 21
-273.7999999999999
 31
0.0
  0
LINE
  5
35D
  8
DETAIL
  6
CONTINOUS
 62
     5
 10
-282.0
 20
-239.40000000000001
 30
0.0
 11
-282.0
 21
-273.7999999999999
 31
0.0
  0
LINE
  5
35E
  8
DETAIL
  6
CONTINOUS
 62
     5
 10
293.80000000000001
 20
-293.80000000000001
 30
0.0
 11
293.80000000000001
 21
-273.7999999999999
 31
0.0
  0
LINE
  5
35F
  8
DETAIL
  6
CONTINOUS
 62
     5
 10
263.80000000000001
 20
-280.80000000000001
 30
0.0
 11
263.80000000000001
 21
-273.7999999999999
 31
0.0
  0
LINE
  5
360
  8
DETAIL
  6
CONTINOUS
 62
     5
 10
263.80000000000001
 20
-292.80000000000001
 30
0.0
 11
293.80000000000001
 21
-292.80000000000001
 31
0.0
  0
LINE
  5
361
  8
DETAIL
  6
CONTINOUS
 62
     5
 10
263.80000000000001
 20
-293.80000000000001
 30
0.0
 11
293.80000000000001
 21
-293.80000000000001
 31
0.0
  0
LINE
  5
362
  8
DETAIL
  6
CONTINOUS
 62
     5
 10
263.80000000000001
 20
-293.80000000000001
 30
0.0
 11
263.80000000000001
 21
-286.80000000000001
 31
0.0
  0
LINE
  5
363
  8
DETAIL
  6
CONTINOUS
 62
     5
 10
261.80000000000001
 20
-286.80000000000001
 30
0.0
 11
263.80000000000001
 21
-286.80000000000001
 31
0.0
  0
LINE
  5
364
  8
DETAIL
  6
CONTINOUS
 62
     5
 10
261.80000000000001
 20
-286.80000000000001
 30
0.0
 11
261.80000000000001
 21
-280.80000000000001
 31
0.0
  0
LINE
  5
365
  8
DETAIL
  6
CONTINOUS
 62
     5
 10
261.80000000000001
 20
-280.80000000000001
 30
0.0
 11
263.80000000000001
 21
-280.80000000000001
 31
0.0
  0
CIRCLE
  5
366
  8
DETAIL
  6
CONTINOUS
 62
     5
 10
275.80000000000001
 20
-283.80000000000001
 30
0.0
 40
3.1000000000000001
  0
CIRCLE
  5
367
  8
DETAIL
  6
CONTINOUS
 62
     5
 10
275.80000000000001
 20
-283.80000000000001
 30
0.0
 40
2.1000000000000001
  0
LINE
  5
368
  8
DETAIL
  6
CONTINOUS
 62
     5
 10
263.80000000000001
 20
-274.80000000000001
 30
0.0
 11
293.80000000000001
 21
-274.80000000000001
 31
0.0
  0
LINE
  5
369
  8
DETAIL
  6
CONTINOUS
 62
     5
 10
263.80000000000001
 20
-273.7999999999999
 30
0.0
 11
293.80000000000001
 21
-273.7999999999999
 31
0.0
  0
LINE
  5
36A
  8
DETAIL
  6
CONTINOUS
 62
     5
 10
300.0
 20
-239.40000000000001
 30
0.0
 11
282.0
 21
-239.40000000000001
 31
0.0
  0
LINE
  5
36B
  8
DETAIL
  6
CONTINOUS
 62
     5
 10
282.0
 20
-239.40000000000001
 30
0.0
 11
282.0
 21
-273.7999999999999
 31
0.0
  0
LINE
  5
36C
  8
SIZE
  6
CONTINUOUS
 62
    30
 10
320.0
 20
0.0
 30
0.0
 11
855.13510899999983
 21
0.0
 31
0.0
  0
LINE
  5
36D
  8
SIZE
  6
CONTINUOUS
 62
    30
 10
320.0
 20
-400.0
 30
0.0
 11
855.13510899999983
 21
-400.0
 31
0.0
  0
LINE
  5
36E
  8
SIZE
  6
CONTINUOUS
 62
    30
 10
835.13510899999972
 20
0.0
 30
0.0
 11
835.13510899999972
 21
-400.0
 31
0.0
  0
CIRCLE
  5
36F
  8
SIZE
  6
CONTINUOUS
 62
    30
 10
835.13510899999972
 20
0.0
 30
0.0
 40
6.0
  0
CIRCLE
  5
370
  8
SIZE
  6
CONTINUOUS
 62
    30
 10
835.13510899999972
 20
-400.0
 30
0.0
 40
6.0
  0
TEXT
  5
371
  8
SIZE
  6
CONTINUOUS
 62
    30
 10
810.13510899999972
 20
-390.9028571428571
 30
0.0
 40
64.0
  1
350～400
 50
90.0
 41
0.9
 72
     1
 11
810.13510899999972
 21
-200.0
 31
0.0
  0
LINE
  5
375
  8
DETAIL
  6
CONTINOUS
 62
     5
 10
-285.0
 20
-318.80000000000001
 30
0.0
 11
285.0
 21
-318.80000000000001
 31
0.0
  0
LINE
  5
376
  8
DETAIL
  6
CONTINOUS
 62
     5
 10
-280.0
 20
-293.80000000000001
 30
0.0
 11
-280.0
 21
-350.0
 31
0.0
  0
LINE
  5
377
  8
DETAIL
  6
CONTINOUS
 62
     5
 10
280.0
 20
-293.80000000000001
 30
0.0
 11
280.0
 21
-350.0
 31
0.0
  0
LINE
  5
378
  8
DETAIL
  6
CONTINOUS
 62
     5
 10
285.0
 20
-293.80000000000001
 30
0.0
 11
285.0
 21
-334.39999999999992
 31
0.0
  0
LINE
  5
379
  8
DETAIL
  6
CONTINOUS
 62
     5
 10
-300.0
 20
-295.0
 30
0.0
 11
-285.0
 21
-295.0
 31
0.0
  0
LINE
  5
37A
  8
DETAIL
  6
CONTINOUS
 62
     5
 10
285.0
 20
-295.0
 30
0.0
 11
300.0
 21
-295.0
 31
0.0
  0
LINE
  5
37B
  8
DETAIL
  6
CONTINUOUS
 62
     5
 10
299.99977000000001
 20
-295.39999999999992
 30
0.0
 11
299.99977000000001
 21
-303.19999999999999
 31
0.0
  0
LINE
  5
37C
  8
DETAIL
  6
CONTINUOUS
 62
     5
 10
299.99977000000001
 20
-274.94999999999987
 30
0.0
 11
299.99977000000001
 21
-303.19999999999999
 31
0.0
  0
LINE
  5
37D
  8
SIZE
  6
CONTINUOUS
 62
    30
 10
320.0
 20
0.0
 30
0.0
 11
581.12448500000005
 21
0.0
 31
0.0
  0
LINE
  5
37E
  8
SIZE
  6
CONTINUOUS
 62
    30
 10
122.203534
 20
-145.0
 30
0.0
 11
581.12448500000005
 21
-145.0
 31
0.0
  0
LINE
  5
37F
  8
SIZE
  6
CONTINUOUS
 62
    30
 10
561.12448500000005
 20
0.0
 30
0.0
 11
561.12448500000005
 21
-145.0
 31
0.0
  0
CIRCLE
  5
380
  8
SIZE
  6
CONTINUOUS
 62
    30
 10
561.12448500000005
 20
0.0
 30
0.0
 40
6.0
  0
CIRCLE
  5
381
  8
SIZE
  6
CONTINUOUS
 62
    30
 10
561.12448500000005
 20
-145.0
 30
0.0
 40
6.0
  0
TEXT
  5
382
  8
SIZE
  6
CONTINUOUS
 62
    30
 10
536.12448500000005
 20
-141.0714285714285
 30
0.0
 40
64.0
  1
145
 50
90.0
 41
0.9
 72
     1
 11
536.12448500000005
 21
-72.5
 31
0.0
  0
LINE
  5
386
  8
SIZE
  6
CONTINUOUS
 62
    30
 10
320.0
 20
0.0
 30
0.0
 11
717.27128700000003
 21
0.0
 31
0.0
  0
LINE
  5
387
  8
SIZE
  6
CONTINUOUS
 62
    30
 10
230.0
 20
-240.0
 30
0.0
 11
717.27128700000003
 21
-240.0
 31
0.0
  0
LINE
  5
388
  8
SIZE
  6
CONTINUOUS
 62
    30
 10
697.27128700000003
 20
-12.0
 30
0.0
 11
697.27128700000003
 21
-228.0
 31
0.0
  0
CIRCLE
  5
389
  8
SIZE
  6
CONTINUOUS
 62
    30
 10
697.27128700000003
 20
0.0
 30
0.0
 40
6.0
  0
LINE
  5
38A
  8
SIZE
  6
CONTINUOUS
 62
    30
 10
697.27128700000003
 20
0.0
 30
0.0
 11
697.27128700000003
 21
-12.0
 31
0.0
  0
CIRCLE
  5
38B
  8
SIZE
  6
CONTINUOUS
 62
    30
 10
697.27128700000003
 20
-240.0
 30
0.0
 40
6.0
  0
LINE
  5
38C
  8
SIZE
  6
CONTINUOUS
 62
    30
 10
697.27128700000003
 20
-240.0
 30
0.0
 11
697.27128700000003
 21
-228.0
 31
0.0
  0
TEXT
  5
38D
  8
SIZE
  6
CONTINUOUS
 62
    30
 10
672.27128700000003
 20
-194.05714285714279
 30
0.0
 40
64.0
  1
240
 50
90.0
 41
0.9
 72
     1
 11
672.27128700000003
 21
-120.0
 31
0.0
  0
LINE
  5
391
  8
SIZE
  6
CONTINUOUS
 62
    30
 10
320.0
 20
-295.0
 30
0.0
 11
717.73511099999996
 21
-295.0
 31
0.0
  0
LINE
  5
392
  8
SIZE
  6
CONTINUOUS
 62
    30
 10
320.0
 20
-350.0
 30
0.0
 11
717.73511099999996
 21
-350.0
 31
0.0
  0
LINE
  5
393
  8
SIZE
  6
CONTINUOUS
 62
    30
 10
697.73511099999985
 20
-283.0
 30
0.0
 11
697.73511099999985
 21
-271.0
 31
0.0
  0
LINE
  5
394
  8
SIZE
  6
CONTINUOUS
 62
    30
 10
697.73511099999985
 20
-362.0
 30
0.0
 11
697.73511099999985
 21
-374.0
 31
0.0
  0
LINE
  5
395
  8
SIZE
  6
CONTINUOUS
 62
    30
 10
697.73511099999985
 20
-550.37684399999989
 30
0.0
 11
697.73511099999985
 21
-350.0
 31
0.0
  0
TEXT
  5
396
  8
SIZE
  6
CONTINUOUS
 62
    30
 10
672.73511099999985
 20
-525.3768444285713
 30
0.0
 40
64.0
  1
55
 50
90.0
 41
0.9
 72
     1
 11
672.73511099999985
 21
-478.74827299999993
 31
0.0
  0
LINE
  5
397
  8
SIZE
  6
CONTINUOUS
 62
    30
 10
697.73511099999985
 20
-295.0
 30
0.0
 11
697.73511099999985
 21
-350.0
 31
0.0
  0
LINE
  5
398
  8
SIZE
  6
CONTINUOUS
 62
    30
 10
697.73511099999985
 20
-295.0
 30
0.0
 11
697.73511099999985
 21
-350.0
 31
0.0
  0
CIRCLE
  5
399
  8
SIZE
  6
CONTINUOUS
 62
    30
 10
697.73511099999985
 20
-295.0
 30
0.0
 40
6.0
  0
LINE
  5
39A
  8
SIZE
  6
CONTINUOUS
 62
    30
 10
697.73511099999985
 20
-295.0
 30
0.0
 11
697.73511099999985
 21
-283.0
 31
0.0
  0
CIRCLE
  5
39B
  8
SIZE
  6
CONTINUOUS
 62
    30
 10
697.73511099999985
 20
-350.0
 30
0.0
 40
6.0
  0
LINE
  5
39C
  8
SIZE
  6
CONTINUOUS
 62
    30
 10
697.73511099999985
 20
-350.0
 30
0.0
 11
697.73511099999985
 21
-362.0
 31
0.0
  0
TEXT
  5
3A0
  8
ETC
  6
CONTINUOUS
 62
    61
 10
847.55910906728229
 20
435.31868013560319
 30
0.0
 40
50.0
  1
V-604KSW6
 41
0.9
  0
LINE
  5
3A1
  8
DETAIL
  6
CONTINUOUS
 62
     5
 39
50.0
 10
141.81883333177211
 20
-236.0
 30
0.0
 11
201.818833331772
 21
-235.9999999999998
 31
0.0
  0
LINE
  5
3A2
  8
DETAIL
  6
CONTINUOUS
 62
     5
 39
50.0
 10
141.81883333177211
 20
-236.0
 30
0.0
 11
141.81883333177211
 21
-276.0
 31
0.0
  0
LINE
  5
3A3
  8
DETAIL
  6
CONTINUOUS
 62
     5
 39
50.0
 10
201.818833331772
 20
-235.9999999999998
 30
0.0
 11
201.818833331772
 21
-276.0
 31
0.0
  0
LINE
  5
3A4
  8
DETAIL
  6
CONTINUOUS
 62
     5
 39
50.0
 10
141.81883333177211
 20
-276.0
 30
0.0
 11
201.818833331772
 21
-276.0
 31
0.0
  0
LINE
  5
3A5
  8
BASIS
  6
DASHDOT
 62
     6
 39
50.0
 10
134.52435731250881
 20
-256.0
 30
0.0
 11
209.90057939368211
 21
-256.0
 31
0.0
  0
LINE
  5
3A6
  8
BASIS
  6
DASHDOT
 62
     6
 39
50.0
 10
171.81883333177211
 20
-288.37384603750422
 30
0.0
 11
171.81883333177211
 21
-225.17987201490811
 31
0.0
  0
TEXT
  5
47B
  8
ETC
  6
CONTINUOUS
 62
    61
 10
847.55910906728229
 20
351.7501061721814
 30
0.0
 40
50.0
  1
V-604KSW7
 41
0.9
  0
ENDSEC
  0
EOF
