  0
SECTION
  2
HEADER
  9
$ACADVER
  1
AC1009
  9
$INSBASE
 10
0.0
 20
0.0
 30
0.0
  9
$EXTMIN
 10
-1057.736189998381
 20
-1209.9609266849709
 30
-0.0015257624927045
  9
$EXTMAX
 10
1170.579540543931
 20
615.87525219176314
 30
50.001525995323327
  9
$LIMMIN
 10
-2970.0
 20
-2100.0
  9
$LIMMAX
 10
2970.0
 20
2100.0
  9
$ORTHOMODE
 70
     1
  9
$REGENMODE
 70
     0
  9
$FILLMODE
 70
     1
  9
$QTEXTMODE
 70
     0
  9
$MIRRTEXT
 70
     0
  9
$DRAGMODE
 70
     2
  9
$LTSCALE
 40
20.0
  9
$OSMODE
 70
    32
  9
$ATTMODE
 70
     1
  9
$TEXTSIZE
 40
64.0
  9
$TRACEWID
 40
0.05
  9
$TEXTSTYLE
  7
STANDARD
  9
$CLAYER
  8
ETC
  9
$CELTYPE
  6
CONTINUOUS
  9
$CECOLOR
 62
    30
  9
$DIMSCALE
 40
1.0
  9
$DIMASZ
 40
12.0
  9
$DIMEXO
 40
20.0
  9
$DIMDLI
 40
200.0
  9
$DIMRND
 40
0.0
  9
$DIMDLE
 40
0.0
  9
$DIMEXE
 40
20.0
  9
$DIMTP
 40
0.0
  9
$DIMTM
 40
0.0
  9
$DIMTXT
 40
64.0
  9
$DIMCEN
 40
0.09
  9
$DIMTSZ
 40
0.0
  9
$DIMTOL
 70
     0
  9
$DIMLIM
 70
     0
  9
$DIMTIH
 70
     0
  9
$DIMTOH
 70
     0
  9
$DIMSE1
 70
     0
  9
$DIMSE2
 70
     0
  9
$DIMTAD
 70
     1
  9
$DIMZIN
 70
     8
  9
$DIMBLK
  1
DOT1
  9
$DIMASO
 70
     1
  9
$DIMSHO
 70
     0
  9
$DIMPOST
  1

  9
$DIMAPOST
  1

  9
$DIMALT
 70
     0
  9
$DIMALTD
 70
     2
  9
$DIMALTF
 40
25.399999999999999
  9
$DIMLFAC
 40
1.0
  9
$DIMTOFL
 70
     1
  9
$DIMTVP
 40
0.0
  9
$DIMTIX
 70
     1
  9
$DIMSOXD
 70
     0
  9
$DIMSAH
 70
     1
  9
$DIMBLK1
  1
ORIGIN
  9
$DIMBLK2
  1
ORIGIN
  9
$DIMSTYLE
  2
STANDARD
  9
$DIMCLRD
 70
     7
  9
$DIMCLRE
 70
     7
  9
$DIMCLRT
 70
     7
  9
$DIMTFAC
 40
1.0
  9
$DIMGAP
 40
25.0
  9
$LUNITS
 70
     2
  9
$LUPREC
 70
     4
  9
$SKETCHINC
 40
0.1
  9
$FILLETRAD
 40
4.0
  9
$AUNITS
 70
     1
  9
$AUPREC
 70
     3
  9
$MENU
  1
ACAD
  9
$ELEVATION
 40
0.0
  9
$PELEVATION
 40
0.0
  9
$THICKNESS
 40
50.0
  9
$LIMCHECK
 70
     0
  9
$BLIPMODE
 70
     0
  9
$CHAMFERA
 40
0.0
  9
$CHAMFERB
 40
0.0
  9
$SKPOLY
 70
     0
  9
$TDCREATE
 40
2453091.6707671182
  9
$TDUPDATE
 40
2454743.7021627892
  9
$TDINDWG
 40
0.0287027083
  9
$TDUSRTIMER
 40
0.0287025231
  9
$USRTIMER
 70
     1
  9
$ANGBASE
 50
0.0
  9
$ANGDIR
 70
     0
  9
$PDMODE
 70
     3
  9
$PDSIZE
 40
-2.0
  9
$PLINEWID
 40
0.0
  9
$COORDS
 70
     1
  9
$SPLFRAME
 70
     0
  9
$SPLINETYPE
 70
     6
  9
$SPLINESEGS
 70
     8
  9
$ATTDIA
 70
     0
  9
$ATTREQ
 70
     1
  9
$HANDLING
 70
     1
  9
$HANDSEED
  5
3EB
  9
$SURFTAB1
 70
     6
  9
$SURFTAB2
 70
     6
  9
$SURFTYPE
 70
     6
  9
$SURFU
 70
     6
  9
$SURFV
 70
     6
  9
$UCSNAME
  2

  9
$UCSORG
 10
0.0
 20
0.0
 30
0.0
  9
$UCSXDIR
 10
1.0
 20
0.0
 30
0.0
  9
$UCSYDIR
 10
0.0
 20
1.0
 30
0.0
  9
$PUCSNAME
  2

  9
$PUCSORG
 10
0.0
 20
0.0
 30
0.0
  9
$PUCSXDIR
 10
1.0
 20
0.0
 30
0.0
  9
$PUCSYDIR
 10
0.0
 20
1.0
 30
0.0
  9
$USERI1
 70
     0
  9
$USERI2
 70
     0
  9
$USERI3
 70
     0
  9
$USERI4
 70
     0
  9
$USERI5
 70
     0
  9
$USERR1
 40
20.0
  9
$USERR2
 40
0.0
  9
$USERR3
 40
0.0
  9
$USERR4
 40
0.0
  9
$USERR5
 40
0.0
  9
$WORLDVIEW
 70
     1
  9
$SHADEDGE
 70
     3
  9
$SHADEDIF
 70
    70
  9
$TILEMODE
 70
     1
  9
$MAXACTVP
 70
    48
  9
$PLIMCHECK
 70
     0
  9
$PEXTMIN
 10
-1.0000000000000000E+020
 20
-1.0000000000000000E+020
 30
-1.0000000000000000E+020
  9
$PEXTMAX
 10
1.0000000000000000E+020
 20
1.0000000000000000E+020
 30
1.0000000000000000E+020
  9
$PLIMMIN
 10
0.0
 20
0.0
  9
$PLIMMAX
 10
12.0
 20
9.0
  9
$UNITMODE
 70
     0
  9
$VISRETAIN
 70
     0
  9
$PLINEGEN
 70
     0
  9
$PSLTSCALE
 70
     0
  0
ENDSEC
  0
SECTION
  2
TABLES
  0
TABLE
  2
VPORT
 70
     1
  0
VPORT
  2
*ACTIVE
 70
     0
 10
0.0
 20
0.0
 11
1.0
 21
1.0
 12
114.037595873659
 22
-342.51545419649187
 13
0.0
 23
0.0
 14
1.0
 24
1.0
 15
0.0
 25
0.0
 16
0.0
 26
0.0
 36
1.0
 17
0.0
 27
0.0
 37
0.0
 40
2066.7941098268288
 41
1.812051649928264
 42
50.0
 43
0.0
 44
0.0
 50
0.0
 51
0.0
 71
     0
 72
  1000
 73
     1
 74
     0
 75
     0
 76
     0
 77
     0
 78
     0
  0
ENDTAB
  0
TABLE
  2
LTYPE
 70
     4
  0
LTYPE
  2
CONTINUOUS
 70
     0
  3
実線
 72
    65
 73
     0
 40
0.0
  0
LTYPE
  2
DASHDOT
 70
     0
  3
____ _ ____ _ ____ _ ____ _ ____ _ ____ _ ____
 72
    65
 73
     4
 40
5.5
 49
4.0
 49
-0.6
 49
0.3
 49
-0.6
  0
LTYPE
  2
CONTINOUS
 70
     0
  3
Solid line
 72
    65
 73
     0
 40
0.0
  0
ENDTAB
  0
TABLE
  2
LAYER
 70
    12
  0
LAYER
  2
0
 70
     0
 62
     7
  6
CONTINUOUS
  0
LAYER
  2
SIZE
 70
     0
 62
    30
  6
CONTINUOUS
  0
LAYER
  2
BASIS
 70
     0
 62
     6
  6
DASHDOT
  0
LAYER
  2
OUTLINE
 70
     0
 62
     3
  6
CONTINUOUS
  0
LAYER
  2
DETAIL
 70
     0
 62
     5
  6
CONTINUOUS
  0
LAYER
  2
ARRANGE
 70
     0
 62
     1
  6
CONTINUOUS
  0
LAYER
  2
DEFPOINTS
 70
     0
 62
     7
  6
CONTINUOUS
  0
LAYER
  2
ETC
 70
     0
 62
    61
  6
CONTINUOUS
  0
LAYER
  2
FIX
 70
     0
 62
    11
  6
CONTINUOUS
  0
LAYER
  2
NOTE
 70
     0
 62
     4
  6
CONTINUOUS
  0
LAYER
  2
SERVICESPACE
 70
     0
 62
     2
  6
DASHDOT
  0
LAYER
  2
SYMBOLLINE
 70
     0
 62
    15
  6
CONTINUOUS
  0
ENDTAB
  0
TABLE
  2
STYLE
 70
     2
  0
STYLE
  2
STANDARD
 70
     0
 40
64.0
 41
0.9
 50
0.0
 71
     0
 42
64.0
  3
SIMPLEX.shx
  4
BIGFONT.shx
  0
STYLE
  2
ANNOTATIVE
 70
     0
 40
0.0
 41
1.0
 50
0.0
 71
     0
 42
0.2
  3
txt
  4

  0
ENDTAB
  0
TABLE
  2
VIEW
 70
     1
  0
VIEW
  2
ALL
 70
     0
 40
4282.6198079999967
 10
0.0
 20
41.309903999999989
 41
5940.0
 11
0.0
 21
0.0
 31
1.0
 12
0.0
 22
0.0
 32
0.0
 42
50.0
 43
0.0
 44
0.0
 50
0.0
 71
     0
  0
ENDTAB
  0
TABLE
  2
UCS
 70
     0
  0
ENDTAB
  0
TABLE
  2
APPID
 70
     5
  0
APPID
  2
ACAD
 70
     0
  0
APPID
  2
ACADANNOTATIVE
 70
     0
  0
APPID
  2
ACAD_MLEADERVER
 70
     0
  0
APPID
  2
AUTOCAD_POSTSCRIPT_FIGURE
 70
     0
  0
APPID
  2
ACAD_EXEMPT_FROM_CAD_STANDARDS
 70
     0
  0
ENDTAB
  0
TABLE
  2
DIMSTYLE
 70
     2
  0
DIMSTYLE
  2
STANDARD
 70
     0
  3

  4

  5

  6

  7

 40
1.0
 41
0.18
 42
0.0625
 43
0.38
 44
0.18
 45
0.0
 46
0.0
 47
0.0
 48
0.0
140
0.18
141
0.09
142
0.0
143
25.399999999999999
144
1.0
145
0.0
146
1.0
147
0.09
 71
     0
 72
     0
 73
     1
 74
     1
 75
     0
 76
     0
 77
     0
 78
     0
170
     0
171
     2
172
     0
173
     0
174
     0
175
     0
176
     7
177
     7
178
     7
  0
DIMSTYLE
  2
ANNOTATIVE
 70
     0
  3

  4

  5

  6

  7

 40
1.0
 41
0.18
 42
0.0625
 43
0.38
 44
0.18
 45
0.0
 46
0.0
 47
0.0
 48
0.0
140
0.18
141
0.09
142
0.0
143
25.399999999999999
144
1.0
145
0.0
146
1.0
147
0.09
 71
     0
 72
     0
 73
     1
 74
     1
 75
     0
 76
     0
 77
     0
 78
     0
170
     0
171
     2
172
     0
173
     0
174
     0
175
     0
176
     0
177
     0
178
     0
  0
ENDTAB
  0
ENDSEC
  0
SECTION
  2
BLOCKS
  0
BLOCK
  8
0
  2
$MODEL_SPACE
 70
     0
 10
0.0
 20
0.0
 30
0.0
  3
$MODEL_SPACE
  1

  0
ENDBLK
  5
393
  8
0
  0
BLOCK
 67
     1
  8
0
  2
$PAPER_SPACE
 70
     0
 10
0.0
 20
0.0
 30
0.0
  3
$PAPER_SPACE
  1

  0
ENDBLK
  5
38F
 67
     1
  8
0
  0
BLOCK
  8
0
  2
DOT1
 70
     0
 10
0.0
 20
0.0
 30
0.0
  3
DOT1
  1

  0
CIRCLE
  5
1E7
  8
SIZE
  6
CONTINUOUS
 62
     7
 10
0.0
 20
0.0
 30
0.0
 40
3.0
  0
ENDBLK
  5
1E8
  8
0
  0
BLOCK
  8
0
  2
_ORIGIN
 70
     0
 10
0.0
 20
0.0
 30
0.0
  3
_ORIGIN
  1

  0
CIRCLE
  5
1EB
  8
0
  6
CONTINUOUS
 62
     7
 10
0.0
 20
0.0
 30
0.0
 40
0.5
  0
LINE
  5
1EC
  8
0
  6
CONTINUOUS
 62
     7
 10
0.0
 20
0.0
 30
0.0
 11
-1.0
 21
0.0
 31
0.0
  0
ENDBLK
  5
1ED
  8
0
  0
ENDSEC
  0
SECTION
  2
ENTITIES
  0
LINE
  5
1EE
  8
NOTE
  6
CONTINUOUS
 62
     4
 10
-473.69055999999989
 20
76.097555
 30
0.0
 11
-289.99999899999989
 21
-200.0
 31
0.0
  0
LINE
  5
1EF
  8
NOTE
  6
CONTINUOUS
 62
     4
 10
-320.044152
 20
-173.5926349999998
 30
0.0
 11
-289.99999899999989
 21
-200.0
 31
0.0
  0
LINE
  5
1F0
  8
NOTE
  6
CONTINUOUS
 62
     4
 10
-289.99999899999989
 20
-200.0
 30
0.0
 11
-302.81531699999988
 21
-162.108475
 31
0.0
  0
LINE
  5
1F1
  8
NOTE
  6
CONTINUOUS
 62
     4
 10
140.7364229999998
 20
-924.22553800000014
 30
0.0
 11
405.18842599999988
 21
-924.22553800000014
 31
0.0
  0
TEXT
  5
1F2
  8
NOTE
  6
CONTINUOUS
 62
     4
 10
156.90801999999991
 20
-902.30730500000004
 30
0.0
 40
64.0
  1
4-φ8
 41
0.9
  0
POINT
  5
1F3
  8
ARRANGE
  6
CONTINUOUS
 62
     1
 10
0.0
 20
0.0
 30
0.0
  0
LINE
  5
1F4
  8
DETAIL
  6
CONTINUOUS
 62
     5
 10
-219.999999
 20
-185.0
 30
0.0
 11
-204.9999989999998
 21
-185.0
 31
0.0
  0
TEXT
  5
1F5
  8
NOTE
  6
CONTINUOUS
 62
     4
 10
-1052.571414999999
 20
109.2757919999999
 30
0.0
 40
64.0
  1
AH 2×2-φ25
 41
0.9
  0
LINE
  5
1F6
  8
DETAIL
  6
CONTINOUS
 62
     5
 10
-319.999999
 20
-600.0
 30
0.0
 11
-319.999999
 21
-200.0
 31
0.0
  0
LINE
  5
1F7
  8
BASIS
  6
DASHDOT
 62
     6
 10
-144.999999
 20
-220.65042799999981
 30
0.0
 11
-144.999999
 21
-109.12141799999991
 31
0.0
  0
LINE
  5
1F8
  8
DETAIL
  6
CONTINOUS
 62
     5
 10
-319.999999
 20
-200.0
 30
0.0
 11
-319.999999
 21
0.0
 31
0.0
  0
LINE
  5
1F9
  8
DETAIL
  6
CONTINOUS
 62
     5
 10
-374.999999
 20
-200.0
 30
0.0
 11
-374.999999
 21
0.0
 31
0.0
  0
LINE
  5
1FA
  8
DETAIL
  6
CONTINOUS
 62
     5
 10
-374.999999
 20
0.0
 30
0.0
 11
-319.999999
 21
0.0
 31
0.0
  0
LINE
  5
1FB
  8
DETAIL
  6
CONTINOUS
 62
     5
 10
-414.35512499999987
 20
-200.0
 30
0.0
 11
0.000001
 21
-200.0
 31
0.0
  0
LINE
  5
1FC
  8
DETAIL
  6
CONTINOUS
 62
     5
 10
0.000001
 20
-600.0
 30
0.0
 11
-322.95429100000001
 21
-600.0
 31
0.0
  0
LINE
  5
1FD
  8
DETAIL
  6
CONTINOUS
 62
     5
 10
0.000001
 20
-600.0
 30
0.0
 11
0.000001
 21
-200.0
 31
0.0
  0
ARC
  5
1FE
  8
DETAIL
  6
CONTINOUS
 62
     5
 10
-334.5540759999999
 20
51.0
 30
0.0
 40
650.0
 50
248.35695200000001
 51
268.63835499999982
  0
LINE
  5
1FF
  8
DETAIL
  6
CONTINOUS
 62
     5
 10
-596.21892700000001
 20
-459.31670100000002
 30
0.0
 11
-430.20377699999989
 21
-211.41966899999991
 31
0.0
  0
LINE
  5
200
  8
DETAIL
  6
CONTINOUS
 62
     5
 10
-583.84268699999996
 20
-542.44387500000005
 30
0.0
 11
-599.999999
 21
-482.14396499999998
 31
0.0
  0
ARC
  5
201
  8
DETAIL
  6
CONTINOUS
 62
     5
 10
-406.93892599999992
 20
-227.0
 30
0.0
 40
28.0
 50
105.358886
 51
146.19001799999981
  0
ARC
  5
202
  8
DETAIL
  6
CONTINOUS
 62
     5
 10
-572.95407599999987
 20
-474.89703200000002
 30
0.0
 40
28.0
 50
146.19001799999981
 51
195.0
  0
ARC
  5
203
  8
DETAIL
  6
CONTINOUS
 62
     5
 10
-568.3878739999999
 20
-538.30277000000001
 30
0.0
 40
16.0
 50
195.0
 51
248.35695200000001
  0
ARC
  5
204
  8
DETAIL
  6
CONTINUOUS
 62
     5
 10
-232.9995899999999
 20
-196.0
 30
0.0
 40
1.0
 50
90.0
 51
180.0
  0
LINE
  5
205
  8
DETAIL
  6
CONTINUOUS
 62
     5
 10
-204.9999989999998
 20
-195.0
 30
0.0
 11
-223.714664
 21
-195.0
 31
0.0
  0
LINE
  5
206
  8
DETAIL
  6
CONTINUOUS
 62
     5
 10
-233.9995899999999
 20
-200.0
 30
0.0
 11
-233.9995899999999
 21
-196.0
 31
0.0
  0
LINE
  5
207
  8
DETAIL
  6
CONTINUOUS
 62
     5
 10
-223.714664
 20
-195.0
 30
0.0
 11
-232.9995899999999
 21
-195.0
 31
0.0
  0
LINE
  5
208
  8
DETAIL
  6
CONTINUOUS
 62
     5
 10
-219.875077
 20
-184.9686879999999
 30
0.0
 11
-220.59881200000001
 21
-185.0595099999999
 31
0.0
  0
ARC
  5
209
  8
DETAIL
  6
CONTINUOUS
 62
     5
 10
-219.9995899999999
 20
-183.97647000000001
 30
0.0
 40
1.0
 50
277.15266899999989
 51
0.0
  0
LINE
  5
20A
  8
DETAIL
  6
CONTINUOUS
 62
     5
 10
-221.9995899999999
 20
-189.40000000000001
 30
0.0
 11
-221.9995899999999
 21
-186.64705900000001
 31
0.0
  0
ARC
  5
20B
  8
DETAIL
  6
CONTINUOUS
 62
     5
 10
-231.9995899999999
 20
-189.40000000000001
 30
0.0
 40
10.0
 50
325.94420200000002
 51
0.0
  0
ARC
  5
20C
  8
DETAIL
  6
CONTINUOUS
 62
     5
 10
-220.3995899999999
 20
-186.64705900000001
 30
0.0
 40
1.6000000000000001
 50
97.152669000000003
 51
180.0
  0
CIRCLE
  5
20D
  8
ARRANGE
  6
CONTINUOUS
 62
     1
 10
0.0
 20
0.0
 30
0.0
 40
40.0
  0
LINE
  5
21B
  8
NOTE
  6
CONTINUOUS
 62
     4
 10
0.000001
 20
-280.0
 30
0.0
 11
0.000001
 21
-240.0
 31
0.0
  0
LINE
  5
21C
  8
NOTE
  6
CONTINUOUS
 62
     4
 10
-19.999998999999981
 20
-260.0
 30
0.0
 11
20.000001000000001
 21
-260.0
 31
0.0
  0
LINE
  5
21D
  8
NOTE
  6
CONTINUOUS
 62
     4
 10
0.000001
 20
-515.0
 30
0.0
 11
0.000001
 21
-475.0
 31
0.0
  0
LINE
  5
21E
  8
NOTE
  6
CONTINUOUS
 62
     4
 10
-19.999998999999981
 20
-495.0
 30
0.0
 11
20.000001000000001
 21
-495.0
 31
0.0
  0
LINE
  5
21F
  8
NOTE
  6
CONTINUOUS
 62
     4
 10
-254.999999
 20
-220.0
 30
0.0
 11
-254.999999
 21
-180.0
 31
0.0
  0
LINE
  5
220
  8
NOTE
  6
CONTINUOUS
 62
     4
 10
-274.999999
 20
-200.0
 30
0.0
 11
-234.999999
 21
-200.0
 31
0.0
  0
LINE
  5
221
  8
NOTE
  6
CONTINUOUS
 62
     4
 10
-289.99999899999989
 20
-220.0
 30
0.0
 11
-289.99999899999989
 21
-180.0
 31
0.0
  0
LINE
  5
222
  8
NOTE
  6
CONTINUOUS
 62
     4
 10
-309.999999
 20
-200.0
 30
0.0
 11
-269.999999
 21
-200.0
 31
0.0
  0
LINE
  5
223
  8
NOTE
  6
CONTINUOUS
 62
     4
 10
-259.999999
 20
-200.0
 30
0.0
 11
-219.999999
 21
-200.0
 31
0.0
  0
LINE
  5
224
  8
NOTE
  6
CONTINUOUS
 62
     4
 10
-473.69055999999989
 20
76.097555
 30
0.0
 11
-1057.6224179999999
 21
76.097555
 31
0.0
  0
CIRCLE
  5
225
  8
FIX
  6
CONTINUOUS
 62
    11
 10
0.000001
 20
-260.0
 30
0.0
 40
4.0
  0
CIRCLE
  5
226
  8
FIX
  6
CONTINUOUS
 62
    11
 10
0.000001
 20
-495.0
 30
0.0
 40
4.0
  0
CIRCLE
  5
227
  8
FIX
  6
CONTINUOUS
 62
    11
 10
-289.99999899999989
 20
-200.0
 30
0.0
 40
12.5
  0
CIRCLE
  5
228
  8
FIX
  6
CONTINUOUS
 62
    11
 10
-254.999999
 20
-200.0
 30
0.0
 40
12.5
  0
LINE
  5
229
  8
BASIS
  6
DASHDOT
 62
     6
 10
-151.999999
 20
-213.65235699999999
 30
0.0
 11
-151.999999
 21
-109.12141799999991
 31
0.0
  0
LINE
  5
22A
  8
BASIS
  6
DASHDOT
 62
     6
 10
-144.999999
 20
-220.65042799999981
 30
0.0
 11
-144.999999
 21
-101.0869209999998
 31
0.0
  0
LINE
  5
22B
  8
BASIS
  6
DASHDOT
 62
     6
 10
-137.9999989999998
 20
-213.65235699999999
 30
0.0
 11
-137.9999989999998
 21
-109.12141799999991
 31
0.0
  0
TEXT
  5
22C
  8
NOTE
  6
CONTINUOUS
 62
     4
 10
-130.151578
 20
53.181252000000001
 30
0.0
 40
64.0
  1
ダクト接続口可動寸法
 41
0.9
  0
TEXT
  5
22D
  8
NOTE
  6
CONTINUOUS
 62
     4
 10
-192.818566
 20
-288.4751149999999
 30
0.0
 40
64.0
  1
EA
 41
0.9
  0
LINE
  5
22F
  8
DETAIL
  6
CONTINUOUS
 62
     5
 10
-322.95429100000001
 20
-600.0
 30
0.0
 11
-349.999999
 21
-598.81645400000002
 31
0.0
  0
ARC
  5
230
  8
DETAIL
  6
CONTINUOUS
 62
     5
 10
-57.999590000000012
 20
-189.40000000000001
 30
0.0
 40
10.0
 50
180.0
 51
214.05579800000001
  0
LINE
  5
231
  8
DETAIL
  6
CONTINUOUS
 62
     5
 10
-70.124104000000003
 20
-184.9686879999999
 30
0.0
 11
-69.400368999999984
 21
-185.0595099999999
 31
0.0
  0
ARC
  5
232
  8
DETAIL
  6
CONTINUOUS
 62
     5
 10
-69.599590000000006
 20
-186.64705900000001
 30
0.0
 40
1.6000000000000001
 50
0.0
 51
82.847331000000025
  0
ARC
  5
233
  8
DETAIL
  6
CONTINUOUS
 62
     5
 10
-69.999589999999998
 20
-183.97647000000001
 30
0.0
 40
1.0
 50
180.0
 51
262.84733099999988
  0
LINE
  5
234
  8
DETAIL
  6
CONTINUOUS
 62
     5
 10
-70.999589999999998
 20
-183.97647000000001
 30
0.0
 11
-70.999589999999998
 21
-145.0
 31
0.0
  0
LINE
  5
235
  8
DETAIL
  6
CONTINUOUS
 62
     5
 10
-67.999589999999998
 20
-189.40000000000001
 30
0.0
 11
-67.999589999999998
 21
-186.64705900000001
 31
0.0
  0
ARC
  5
236
  8
DETAIL
  6
CONTINUOUS
 62
     5
 10
-56.499589999999991
 20
-196.0
 30
0.0
 40
1.0
 50
0.0
 51
90.0
  0
LINE
  5
237
  8
DETAIL
  6
CONTINUOUS
 62
     5
 10
-56.499589999999991
 20
-195.0
 30
0.0
 11
-204.9999989999998
 21
-195.0
 31
0.0
  0
LINE
  5
238
  8
DETAIL
  6
CONTINUOUS
 62
     5
 10
-55.499590000000012
 20
-197.0
 30
0.0
 11
-55.499590000000012
 21
-196.0
 31
0.0
  0
LINE
  5
239
  8
DETAIL
  6
CONTINUOUS
 62
     5
 10
-219.00040799999999
 20
-145.0
 30
0.0
 11
-70.999589999999998
 21
-145.0
 31
0.0
  0
LINE
  5
23A
  8
DETAIL
  6
CONTINUOUS
 62
     5
 10
-55.499590000000012
 20
-197.0
 30
0.0
 11
-55.499590000000012
 21
-200.0
 31
0.0
  0
LINE
  5
23B
  8
DETAIL
  6
CONTINUOUS
 62
     5
 10
-204.9999989999998
 20
-185.0
 30
0.0
 11
-69.999999000000003
 21
-185.0
 31
0.0
  0
LINE
  5
23C
  8
NOTE
  6
CONTINUOUS
 62
     4
 10
0.000001
 20
-495.0
 30
0.0
 11
140.7364229999998
 21
-924.22553800000014
 31
0.0
  0
LINE
  5
23D
  8
NOTE
  6
CONTINUOUS
 62
     4
 10
22.846600999999989
 20
-527.83341100000007
 30
0.0
 11
0.000001
 21
-495.0
 31
0.0
  0
LINE
  5
23E
  8
NOTE
  6
CONTINUOUS
 62
     4
 10
0.000001
 20
-495.0
 30
0.0
 11
3.3690309999999992
 21
-534.85786800000005
 31
0.0
  0
LINE
  5
23F
  8
SIZE
  6
CONTINUOUS
 62
    30
 10
-394.999999
 20
0.0
 30
0.0
 11
-798.55593199999998
 21
0.0
 31
0.0
  0
LINE
  5
240
  8
SIZE
  6
CONTINUOUS
 62
    30
 10
-342.95429100000001
 20
-600.0
 30
0.0
 11
-798.55593199999998
 21
-600.0
 31
0.0
  0
LINE
  5
241
  8
SIZE
  6
CONTINUOUS
 62
    30
 10
-778.55593199999987
 20
-12.0
 30
0.0
 11
-778.55593199999987
 21
-588.0
 31
0.0
  0
CIRCLE
  5
242
  8
SIZE
  6
CONTINUOUS
 62
    30
 10
-778.55593199999987
 20
0.0
 30
0.0
 40
6.0
  0
LINE
  5
243
  8
SIZE
  6
CONTINUOUS
 62
    30
 10
-778.55593199999987
 20
0.0
 30
0.0
 11
-778.55593199999987
 21
-12.0
 31
0.0
  0
CIRCLE
  5
244
  8
SIZE
  6
CONTINUOUS
 62
    30
 10
-778.55593199999987
 20
-600.0
 30
0.0
 40
6.0
  0
LINE
  5
245
  8
SIZE
  6
CONTINUOUS
 62
    30
 10
-778.55593199999987
 20
-600.0
 30
0.0
 11
-778.55593199999987
 21
-588.0
 31
0.0
  0
TEXT
  5
246
  8
SIZE
  6
CONTINUOUS
 62
    30
 10
-803.55593199999998
 20
-374.05714285714282
 30
0.0
 40
64.0
  1
600
 50
90.0
 41
0.9
 72
     1
 11
-803.55593199999998
 21
-300.0
 31
0.0
  0
LINE
  5
247
  8
SIZE
  6
CONTINUOUS
 62
    30
 10
-599.999999
 20
-502.14396499999992
 30
0.0
 11
-599.999999
 21
-1207.406399254666
 31
0.0
  0
LINE
  5
248
  8
SIZE
  6
CONTINUOUS
 62
    30
 10
0.000001
 20
-620.0
 30
0.0
 11
0.000001
 21
-1209.926681367838
 31
0.0
  0
LINE
  5
249
  8
SIZE
  6
CONTINUOUS
 62
    30
 10
-587.99999899999989
 20
-1183.743935
 30
0.0
 11
-11.999999000000001
 21
-1183.743935
 31
0.0
  0
CIRCLE
  5
24A
  8
SIZE
  6
CONTINUOUS
 62
    30
 10
-599.999999
 20
-1183.743935
 30
0.0
 40
6.0
  0
LINE
  5
24B
  8
SIZE
  6
CONTINUOUS
 62
    30
 10
-599.999999
 20
-1183.743935
 30
0.0
 11
-587.99999899999989
 21
-1183.743935
 31
0.0
  0
CIRCLE
  5
24C
  8
SIZE
  6
CONTINUOUS
 62
    30
 10
0.0000009999999975
 20
-1183.743935
 30
0.0
 40
6.0
  0
LINE
  5
24D
  8
SIZE
  6
CONTINUOUS
 62
    30
 10
0.0000009999999975
 20
-1183.743935
 30
0.0
 11
-11.999999000000001
 21
-1183.743935
 31
0.0
  0
TEXT
  5
24E
  8
SIZE
  6
CONTINUOUS
 62
    30
 10
-374.05714185714282
 20
-1158.743935
 30
0.0
 40
64.0
  1
600
 41
0.9
 72
     1
 11
-299.999999
 21
-1158.743935
 31
0.0
  0
LINE
  5
24F
  8
SIZE
  6
CONTINUOUS
 62
    30
 10
0.000001
 20
-620.0
 30
0.0
 11
0.000001
 21
-1183.086507
 31
0.0
  0
LINE
  5
250
  8
SIZE
  6
CONTINUOUS
 62
    30
 10
-319.999999
 20
-620.0
 30
0.0
 11
-319.999999
 21
-1066.994309363821
 31
0.0
  0
LINE
  5
251
  8
SIZE
  6
CONTINUOUS
 62
    30
 10
-11.999999000000001
 20
-1051.827174
 30
0.0
 11
-307.999999
 21
-1051.827174
 31
0.0
  0
CIRCLE
  5
252
  8
SIZE
  6
CONTINUOUS
 62
    30
 10
0.0000009999999975
 20
-1051.827174
 30
0.0
 40
6.0
  0
LINE
  5
253
  8
SIZE
  6
CONTINUOUS
 62
    30
 10
0.0000009999999975
 20
-1051.827174
 30
0.0
 11
-11.999999000000001
 21
-1051.827174
 31
0.0
  0
CIRCLE
  5
254
  8
SIZE
  6
CONTINUOUS
 62
    30
 10
-319.999999
 20
-1051.827174
 30
0.0
 40
6.0
  0
LINE
  5
255
  8
SIZE
  6
CONTINUOUS
 62
    30
 10
-319.999999
 20
-1051.827174
 30
0.0
 11
-307.999999
 21
-1051.827174
 31
0.0
  0
TEXT
  5
256
  8
SIZE
  6
CONTINUOUS
 62
    30
 10
-234.0571418571428
 20
-1026.827174
 30
0.0
 40
64.0
  1
320
 41
0.9
 72
     1
 11
-159.999999
 21
-1026.827174
 31
0.0
  0
LINE
  5
257
  8
SIZE
  6
CONTINUOUS
 62
    30
 10
0.000001
 20
-620.0
 30
0.0
 11
0.000001
 21
-1056.61906
 31
0.0
  0
LINE
  5
258
  8
SIZE
  6
CONTINUOUS
 62
    30
 10
-289.99999899999989
 20
-240.0
 30
0.0
 11
-289.99999899999989
 21
-953.58148942359355
 31
0.0
  0
LINE
  5
259
  8
SIZE
  6
CONTINUOUS
 62
    30
 10
-11.999999000000001
 20
-925.35972699999979
 30
0.0
 11
-277.99999899999972
 21
-925.35972699999979
 31
0.0
  0
CIRCLE
  5
25A
  8
SIZE
  6
CONTINUOUS
 62
    30
 10
0.0000009999999975
 20
-925.35972699999979
 30
0.0
 40
6.0
  0
LINE
  5
25B
  8
SIZE
  6
CONTINUOUS
 62
    30
 10
0.0000009999999975
 20
-925.35972699999979
 30
0.0
 11
-11.999999000000001
 21
-925.35972699999979
 31
0.0
  0
CIRCLE
  5
25C
  8
SIZE
  6
CONTINUOUS
 62
    30
 10
-289.99999899999989
 20
-925.35972699999979
 30
0.0
 40
6.0
  0
LINE
  5
25D
  8
SIZE
  6
CONTINUOUS
 62
    30
 10
-289.99999899999989
 20
-925.35972699999979
 30
0.0
 11
-277.99999899999972
 21
-925.35972699999979
 31
0.0
  0
TEXT
  5
25E
  8
SIZE
  6
CONTINUOUS
 62
    30
 10
-219.0571418571428
 20
-900.35972699999979
 30
0.0
 40
64.0
  1
290
 41
0.9
 72
     1
 11
-144.999999
 21
-900.35972699999979
 31
0.0
  0
LINE
  5
25F
  8
SIZE
  6
CONTINUOUS
 62
    30
 10
0.000001
 20
-620.0
 30
0.0
 11
0.000001
 21
-945.35972700000013
 31
0.0
  0
LINE
  5
260
  8
SIZE
  6
CONTINUOUS
 62
    30
 10
-254.999999
 20
-240.0
 30
0.0
 11
-254.999999
 21
-837.64838274621252
 31
0.0
  0
LINE
  5
261
  8
SIZE
  6
CONTINUOUS
 62
    30
 10
-11.999999000000001
 20
-814.10039399999994
 30
0.0
 11
-242.999999
 21
-814.10039399999994
 31
0.0
  0
CIRCLE
  5
262
  8
SIZE
  6
CONTINUOUS
 62
    30
 10
0.0000009999999975
 20
-814.10039399999994
 30
0.0
 40
6.0
  0
LINE
  5
263
  8
SIZE
  6
CONTINUOUS
 62
    30
 10
0.0000009999999975
 20
-814.10039399999994
 30
0.0
 11
-11.999999000000001
 21
-814.10039399999994
 31
0.0
  0
CIRCLE
  5
264
  8
SIZE
  6
CONTINUOUS
 62
    30
 10
-254.999999
 20
-814.10039399999994
 30
0.0
 40
6.0
  0
LINE
  5
265
  8
SIZE
  6
CONTINUOUS
 62
    30
 10
-254.999999
 20
-814.10039399999994
 30
0.0
 11
-242.999999
 21
-814.10039399999994
 31
0.0
  0
TEXT
  5
266
  8
SIZE
  6
CONTINUOUS
 62
    30
 10
-201.5571418571428
 20
-789.10039399999982
 30
0.0
 40
64.0
  1
255
 41
0.9
 72
     1
 11
-127.4999989999999
 21
-789.10039399999982
 31
0.0
  0
LINE
  5
267
  8
SIZE
  6
CONTINUOUS
 62
    30
 10
20.000001000000001
 20
-600.0
 30
0.0
 11
356.24431600000008
 21
-600.0
 31
0.0
  0
LINE
  5
268
  8
SIZE
  6
CONTINUOUS
 62
    30
 10
40.000000999999997
 20
-495.0
 30
0.0
 11
356.24431600000008
 21
-495.0
 31
0.0
  0
LINE
  5
269
  8
SIZE
  6
CONTINUOUS
 62
    30
 10
336.24431600000008
 20
-588.0
 30
0.0
 11
336.24431600000008
 21
-507.0
 31
0.0
  0
LINE
  5
26A
  8
SIZE
  6
CONTINUOUS
 62
    30
 10
336.24431600000008
 20
-290.10944999999992
 30
0.0
 11
336.24431600000008
 21
-495.0
 31
0.0
  0
TEXT
  5
26B
  8
SIZE
  6
CONTINUOUS
 62
    30
 10
311.24431600000008
 20
-452.25230757142862
 30
0.0
 40
64.0
  1
105
 50
90.0
 41
0.9
 72
     1
 11
311.24431600000008
 21
-383.680879
 31
0.0
  0
CIRCLE
  5
26C
  8
SIZE
  6
CONTINUOUS
 62
    30
 10
336.24431600000008
 20
-600.0
 30
0.0
 40
6.0
  0
LINE
  5
26D
  8
SIZE
  6
CONTINUOUS
 62
    30
 10
336.24431600000008
 20
-600.0
 30
0.0
 11
336.24431600000008
 21
-588.0
 31
0.0
  0
CIRCLE
  5
26E
  8
SIZE
  6
CONTINUOUS
 62
    30
 10
336.24431600000008
 20
-495.0
 30
0.0
 40
6.0
  0
LINE
  5
26F
  8
SIZE
  6
CONTINUOUS
 62
    30
 10
336.24431600000008
 20
-495.0
 30
0.0
 11
336.24431600000008
 21
-507.0
 31
0.0
  0
LINE
  5
270
  8
SIZE
  6
CONTINUOUS
 62
    30
 10
20.000001000000001
 20
-600.0
 30
0.0
 11
477.18990199999979
 21
-600.0
 31
0.0
  0
LINE
  5
271
  8
SIZE
  6
CONTINUOUS
 62
    30
 10
40.000000999999997
 20
-260.0
 30
0.0
 11
477.18990199999979
 21
-260.0
 31
0.0
  0
LINE
  5
272
  8
SIZE
  6
CONTINUOUS
 62
    30
 10
457.18990200000002
 20
-588.0
 30
0.0
 11
457.18990200000002
 21
-272.0
 31
0.0
  0
CIRCLE
  5
273
  8
SIZE
  6
CONTINUOUS
 62
    30
 10
457.18990200000002
 20
-600.0
 30
0.0
 40
6.0
  0
LINE
  5
274
  8
SIZE
  6
CONTINUOUS
 62
    30
 10
457.18990200000002
 20
-600.0
 30
0.0
 11
457.18990200000002
 21
-588.0
 31
0.0
  0
CIRCLE
  5
275
  8
SIZE
  6
CONTINUOUS
 62
    30
 10
457.18990200000002
 20
-260.0
 30
0.0
 40
6.0
  0
LINE
  5
276
  8
SIZE
  6
CONTINUOUS
 62
    30
 10
457.18990200000002
 20
-260.0
 30
0.0
 11
457.18990200000002
 21
-272.0
 31
0.0
  0
TEXT
  5
277
  8
SIZE
  6
CONTINUOUS
 62
    30
 10
432.18990200000002
 20
-504.05714285714282
 30
0.0
 40
64.0
  1
340
 50
90.0
 41
0.9
 72
     1
 11
432.18990200000002
 21
-430.0
 31
0.0
  0
LINE
  5
278
  8
SIZE
  6
CONTINUOUS
 62
    30
 10
20.000001000000001
 20
-600.0
 30
0.0
 11
601.43617400000005
 21
-600.0
 31
0.0
  0
LINE
  5
279
  8
SIZE
  6
CONTINUOUS
 62
    30
 10
20.000001000000001
 20
-200.0
 30
0.0
 11
601.43617400000005
 21
-200.0
 31
0.0
  0
LINE
  5
27A
  8
SIZE
  6
CONTINUOUS
 62
    30
 10
581.43617400000005
 20
-588.0
 30
0.0
 11
581.43617400000005
 21
-212.0
 31
0.0
  0
CIRCLE
  5
27B
  8
SIZE
  6
CONTINUOUS
 62
    30
 10
581.43617400000005
 20
-600.0
 30
0.0
 40
6.0
  0
LINE
  5
27C
  8
SIZE
  6
CONTINUOUS
 62
    30
 10
581.43617400000005
 20
-600.0
 30
0.0
 11
581.43617400000005
 21
-588.0
 31
0.0
  0
CIRCLE
  5
27D
  8
SIZE
  6
CONTINUOUS
 62
    30
 10
581.43617400000005
 20
-200.0
 30
0.0
 40
6.0
  0
LINE
  5
27E
  8
SIZE
  6
CONTINUOUS
 62
    30
 10
581.43617400000005
 20
-200.0
 30
0.0
 11
581.43617400000005
 21
-212.0
 31
0.0
  0
TEXT
  5
27F
  8
SIZE
  6
CONTINUOUS
 62
    30
 10
556.43617400000005
 20
-474.05714285714282
 30
0.0
 40
64.0
  1
400
 50
90.0
 41
0.9
 72
     1
 11
556.43617400000005
 21
-400.0
 31
0.0
  0
LINE
  5
280
  8
SIZE
  6
CONTINUOUS
 62
    30
 10
20.000001000000001
 20
-200.0
 30
0.0
 11
476.56504899999987
 21
-200.0
 31
0.0
  0
LINE
  5
281
  8
SIZE
  6
CONTINUOUS
 62
    30
 10
-50.999590000000012
 20
-145.0
 30
0.0
 11
476.56504899999987
 21
-145.0
 31
0.0
  0
LINE
  5
282
  8
SIZE
  6
CONTINUOUS
 62
    30
 10
456.56504899999999
 20
-212.0
 30
0.0
 11
456.56504899999999
 21
-224.0
 31
0.0
  0
LINE
  5
283
  8
SIZE
  6
CONTINUOUS
 62
    30
 10
456.56504899999999
 20
-133.0
 30
0.0
 11
456.56504899999999
 21
-121.0
 31
0.0
  0
LINE
  5
284
  8
SIZE
  6
CONTINUOUS
 62
    30
 10
456.56504899999999
 20
28.452217999999998
 30
0.0
 11
456.56504899999999
 21
-145.0
 31
0.0
  0
TEXT
  5
285
  8
SIZE
  6
CONTINUOUS
 62
    30
 10
431.56504899999999
 20
-89.804924428571411
 30
0.0
 40
64.0
  1
55
 50
90.0
 41
0.9
 72
     1
 11
431.56504899999999
 21
-43.176352999999999
 31
0.0
  0
LINE
  5
286
  8
SIZE
  6
CONTINUOUS
 62
    30
 10
456.56504899999999
 20
-200.0
 30
0.0
 11
456.56504899999999
 21
-145.0
 31
0.0
  0
LINE
  5
287
  8
SIZE
  6
CONTINUOUS
 62
    30
 10
456.56504899999999
 20
-200.0
 30
0.0
 11
456.56504899999999
 21
-145.0
 31
0.0
  0
CIRCLE
  5
288
  8
SIZE
  6
CONTINUOUS
 62
    30
 10
456.56504899999999
 20
-200.0
 30
0.0
 40
6.0
  0
LINE
  5
289
  8
SIZE
  6
CONTINUOUS
 62
    30
 10
456.56504899999999
 20
-200.0
 30
0.0
 11
456.56504899999999
 21
-212.0
 31
0.0
  0
CIRCLE
  5
28A
  8
SIZE
  6
CONTINUOUS
 62
    30
 10
456.56504899999999
 20
-145.0
 30
0.0
 40
6.0
  0
LINE
  5
28B
  8
SIZE
  6
CONTINUOUS
 62
    30
 10
456.56504899999999
 20
-145.0
 30
0.0
 11
456.56504899999999
 21
-133.0
 31
0.0
  0
LINE
  5
28C
  8
SIZE
  6
CONTINUOUS
 62
    30
 10
-49.999999000000003
 20
-185.0
 30
0.0
 11
359.46962400000001
 21
-185.0
 31
0.0
  0
LINE
  5
28D
  8
SIZE
  6
CONTINUOUS
 62
    30
 10
20.000001000000001
 20
-200.0
 30
0.0
 11
359.46962400000001
 21
-200.0
 31
0.0
  0
LINE
  5
28E
  8
SIZE
  6
CONTINUOUS
 62
    30
 10
339.46962400000001
 20
-173.0
 30
0.0
 11
339.46962400000001
 21
-161.0
 31
0.0
  0
LINE
  5
28F
  8
SIZE
  6
CONTINUOUS
 62
    30
 10
339.46962400000001
 20
-212.0
 30
0.0
 11
339.46962400000001
 21
-224.0
 31
0.0
  0
LINE
  5
290
  8
SIZE
  6
CONTINUOUS
 62
    30
 10
339.46962400000001
 20
1.279509999999999
 30
0.0
 11
339.46962400000001
 21
-185.0
 31
0.0
  0
TEXT
  5
291
  8
SIZE
  6
CONTINUOUS
 62
    30
 10
314.46962400000001
 20
-106.0062041428571
 30
0.0
 40
64.0
  1
15
 50
90.0
 41
0.9
 72
     1
 11
314.46962400000001
 21
-64.86334699999999
 31
0.0
  0
LINE
  5
292
  8
SIZE
  6
CONTINUOUS
 62
    30
 10
339.46962400000001
 20
-185.0
 30
0.0
 11
339.46962400000001
 21
-200.0
 31
0.0
  0
LINE
  5
293
  8
SIZE
  6
CONTINUOUS
 62
    30
 10
339.46962400000001
 20
-185.0
 30
0.0
 11
339.46962400000001
 21
-200.0
 31
0.0
  0
CIRCLE
  5
294
  8
SIZE
  6
CONTINUOUS
 62
    30
 10
339.46962400000001
 20
-185.0
 30
0.0
 40
6.0
  0
LINE
  5
295
  8
SIZE
  6
CONTINUOUS
 62
    30
 10
339.46962400000001
 20
-185.0
 30
0.0
 11
339.46962400000001
 21
-173.0
 31
0.0
  0
CIRCLE
  5
296
  8
SIZE
  6
CONTINUOUS
 62
    30
 10
339.46962400000001
 20
-200.0
 30
0.0
 40
6.0
  0
LINE
  5
297
  8
SIZE
  6
CONTINUOUS
 62
    30
 10
339.46962400000001
 20
-200.0
 30
0.0
 11
339.46962400000001
 21
-212.0
 31
0.0
  0
LINE
  5
298
  8
SIZE
  6
CONTINUOUS
 62
    30
 10
-374.999999
 20
20.0
 30
0.0
 11
-374.999999
 21
416.67359599999992
 31
0.0
  0
LINE
  5
299
  8
SIZE
  6
CONTINUOUS
 62
    30
 10
-319.999999
 20
20.0
 30
0.0
 11
-319.999999
 21
416.67359599999992
 31
0.0
  0
LINE
  5
29A
  8
SIZE
  6
CONTINUOUS
 62
    30
 10
-386.999999
 20
396.67359599999992
 30
0.0
 11
-398.999999
 21
396.67359599999992
 31
0.0
  0
LINE
  5
29B
  8
SIZE
  6
CONTINUOUS
 62
    30
 10
-307.999999
 20
396.67359599999992
 30
0.0
 11
-295.999999
 21
396.67359599999992
 31
0.0
  0
LINE
  5
29C
  8
SIZE
  6
CONTINUOUS
 62
    30
 10
-542.52153099999975
 20
396.67359599999992
 30
0.0
 11
-374.999999
 21
396.67359599999992
 31
0.0
  0
TEXT
  5
29D
  8
SIZE
  6
CONTINUOUS
 62
    30
 10
-517.52153142857105
 20
421.67359599999992
 30
0.0
 40
64.0
  1
55
 41
0.9
 72
     1
 11
-470.89295999999968
 21
421.67359599999992
 31
0.0
  0
LINE
  5
29E
  8
SIZE
  6
CONTINUOUS
 62
    30
 10
-374.999999
 20
396.67359599999992
 30
0.0
 11
-319.999999
 21
396.67359599999992
 31
0.0
  0
LINE
  5
29F
  8
SIZE
  6
CONTINUOUS
 62
    30
 10
-374.999999
 20
396.67359599999992
 30
0.0
 11
-319.999999
 21
396.67359599999992
 31
0.0
  0
CIRCLE
  5
2A0
  8
SIZE
  6
CONTINUOUS
 62
    30
 10
-374.999999
 20
396.67359599999992
 30
0.0
 40
6.0
  0
LINE
  5
2A1
  8
SIZE
  6
CONTINUOUS
 62
    30
 10
-374.999999
 20
396.67359599999992
 30
0.0
 11
-386.999999
 21
396.67359599999992
 31
0.0
  0
CIRCLE
  5
2A2
  8
SIZE
  6
CONTINUOUS
 62
    30
 10
-319.999999
 20
396.67359599999992
 30
0.0
 40
6.0
  0
LINE
  5
2A3
  8
SIZE
  6
CONTINUOUS
 62
    30
 10
-319.999999
 20
396.67359599999992
 30
0.0
 11
-307.999999
 21
396.67359599999992
 31
0.0
  0
LINE
  5
2A4
  8
SIZE
  6
CONTINUOUS
 62
    30
 10
-374.999999
 20
20.0
 30
0.0
 11
-374.999999
 21
534.49375299999997
 31
0.0
  0
LINE
  5
2A5
  8
SIZE
  6
CONTINUOUS
 62
    30
 10
0.000001
 20
-180.0
 30
0.0
 11
0.000001
 21
534.49375299999997
 31
0.0
  0
LINE
  5
2A6
  8
SIZE
  6
CONTINUOUS
 62
    30
 10
-374.999999
 20
514.49375299999986
 30
0.0
 11
0.000001
 21
514.49375299999986
 31
0.0
  0
CIRCLE
  5
2A7
  8
SIZE
  6
CONTINUOUS
 62
    30
 10
-374.999999
 20
514.49375299999986
 30
0.0
 40
6.0
  0
CIRCLE
  5
2A8
  8
SIZE
  6
CONTINUOUS
 62
    30
 10
0.000001
 20
514.49375299999986
 30
0.0
 40
6.0
  0
TEXT
  5
2A9
  8
SIZE
  6
CONTINUOUS
 62
    30
 10
-378.4028561428571
 20
539.49375299999986
 30
0.0
 40
64.0
  1
350～400
 41
0.9
 72
     1
 11
-187.499999
 21
539.49375299999986
 31
0.0
  0
LINE
  5
2AA
  8
SIZE
  6
CONTINUOUS
 62
    30
 10
-137.9999989999998
 20
-89.121418000000006
 30
0.0
 11
-137.9999989999998
 21
176.9524829999998
 31
0.0
  0
LINE
  5
2AB
  8
SIZE
  6
CONTINUOUS
 62
    30
 10
-151.999999
 20
-89.121418000000006
 30
0.0
 11
-151.999999
 21
176.9524829999998
 31
0.0
  0
LINE
  5
2AC
  8
SIZE
  6
CONTINUOUS
 62
    30
 10
-125.999999
 20
156.9524829999998
 30
0.0
 11
-113.9999989999999
 21
156.9524829999998
 31
0.0
  0
LINE
  5
2AD
  8
SIZE
  6
CONTINUOUS
 62
    30
 10
-163.9999989999998
 20
156.9524829999998
 30
0.0
 11
-175.999999
 21
156.9524829999998
 31
0.0
  0
LINE
  5
2AE
  8
SIZE
  6
CONTINUOUS
 62
    30
 10
264.64683899999989
 20
156.9524829999998
 30
0.0
 11
-137.9999989999998
 21
156.9524829999998
 31
0.0
  0
TEXT
  5
2AF
  8
SIZE
  6
CONTINUOUS
 62
    30
 10
154.6182672857143
 20
181.9524829999998
 30
0.0
 40
64.0
  1
14
 41
0.9
 72
     1
 11
197.132553
 21
181.9524829999998
 31
0.0
  0
LINE
  5
2B0
  8
SIZE
  6
CONTINUOUS
 62
    30
 10
-137.9999989999998
 20
156.9524829999998
 30
0.0
 11
-151.999999
 21
156.9524829999998
 31
0.0
  0
LINE
  5
2B1
  8
SIZE
  6
CONTINUOUS
 62
    30
 10
-137.9999989999998
 20
156.9524829999998
 30
0.0
 11
-151.999999
 21
156.9524829999998
 31
0.0
  0
CIRCLE
  5
2B2
  8
SIZE
  6
CONTINUOUS
 62
    30
 10
-137.9999989999998
 20
156.9524829999998
 30
0.0
 40
6.0
  0
LINE
  5
2B3
  8
SIZE
  6
CONTINUOUS
 62
    30
 10
-137.9999989999998
 20
156.9524829999998
 30
0.0
 11
-125.999999
 21
156.9524829999998
 31
0.0
  0
CIRCLE
  5
2B4
  8
SIZE
  6
CONTINUOUS
 62
    30
 10
-151.999999
 20
156.9524829999998
 30
0.0
 40
6.0
  0
LINE
  5
2B5
  8
SIZE
  6
CONTINUOUS
 62
    30
 10
-151.999999
 20
156.9524829999998
 30
0.0
 11
-163.9999989999998
 21
156.9524829999998
 31
0.0
  0
LINE
  5
2B6
  8
SIZE
  6
CONTINUOUS
 62
    30
 39
50.0
 10
264.64683899999989
 20
156.9524829999998
 30
0.0
 11
563.33010200000001
 21
156.9524829999998
 31
0.0
  0
LINE
  5
2B7
  8
SIZE
  6
CONTINUOUS
 62
    30
 10
-70.999589999999998
 20
-125.0
 30
0.0
 11
-70.999589999999998
 21
419.97971399999989
 31
0.0
  0
LINE
  5
2B8
  8
SIZE
  6
CONTINUOUS
 62
    30
 10
-218.9995899999999
 20
-125.0
 30
0.0
 11
-218.9995899999999
 21
419.97971399999989
 31
0.0
  0
LINE
  5
2B9
  8
SIZE
  6
CONTINUOUS
 62
    30
 10
-82.999589999999984
 20
399.979714
 30
0.0
 11
-206.9995899999999
 21
399.979714
 31
0.0
  0
LINE
  5
2BA
  8
SIZE
  6
CONTINUOUS
 62
    30
 10
242.10399699999991
 20
399.979714
 30
0.0
 11
-70.999589999999998
 21
399.979714
 31
0.0
  0
TEXT
  5
2BB
  8
SIZE
  6
CONTINUOUS
 62
    30
 10
13.583996428571339
 20
424.97971399999989
 30
0.0
 40
64.0
  1
φ148
 41
0.9
 72
     1
 11
122.4754249999999
 21
424.97971399999989
 31
0.0
  0
CIRCLE
  5
2BC
  8
SIZE
  6
CONTINUOUS
 62
    30
 10
-70.999589999999998
 20
399.979714
 30
0.0
 40
6.0
  0
LINE
  5
2BD
  8
SIZE
  6
CONTINUOUS
 62
    30
 10
-70.999589999999998
 20
399.979714
 30
0.0
 11
-82.999589999999984
 21
399.979714
 31
0.0
  0
CIRCLE
  5
2BE
  8
SIZE
  6
CONTINUOUS
 62
    30
 10
-218.9995899999999
 20
399.979714
 30
0.0
 40
6.0
  0
LINE
  5
2BF
  8
SIZE
  6
CONTINUOUS
 62
    30
 10
-218.9995899999999
 20
399.979714
 30
0.0
 11
-206.9995899999999
 21
399.979714
 31
0.0
  0
LINE
  5
2C0
  8
SIZE
  6
CONTINUOUS
 62
    30
 10
0.000001
 20
-180.0
 30
0.0
 11
0.000001
 21
306.60344900000001
 31
0.0
  0
LINE
  5
2C1
  8
SIZE
  6
CONTINUOUS
 62
    30
 10
-144.999999
 20
-81.086920999999975
 30
0.0
 11
-144.999999
 21
306.60344900000001
 31
0.0
  0
LINE
  5
2C2
  8
SIZE
  6
CONTINUOUS
 62
    30
 10
-11.999999000000001
 20
286.60344900000001
 30
0.0
 11
-132.999999
 21
286.60344900000001
 31
0.0
  0
LINE
  5
2C3
  8
SIZE
  6
CONTINUOUS
 62
    30
 10
213.39235599999989
 20
286.60344900000001
 30
0.0
 11
0.000001
 21
286.60344900000001
 31
0.0
  0
TEXT
  5
2C4
  8
SIZE
  6
CONTINUOUS
 62
    30
 10
51.24949942857134
 20
311.60344900000001
 30
0.0
 40
64.0
  1
145
 41
0.9
 72
     1
 11
119.8209279999999
 21
311.60344900000001
 31
0.0
  0
CIRCLE
  5
2C5
  8
SIZE
  6
CONTINUOUS
 62
    30
 10
0.000001
 20
286.60344900000001
 30
0.0
 40
6.0
  0
LINE
  5
2C6
  8
SIZE
  6
CONTINUOUS
 62
    30
 10
0.000001
 20
286.60344900000001
 30
0.0
 11
-11.999999000000001
 21
286.60344900000001
 31
0.0
  0
CIRCLE
  5
2C7
  8
SIZE
  6
CONTINUOUS
 62
    30
 10
-144.999999
 20
286.60344900000001
 30
0.0
 40
6.0
  0
LINE
  5
2C8
  8
SIZE
  6
CONTINUOUS
 62
    30
 10
-144.999999
 20
286.60344900000001
 30
0.0
 11
-132.999999
 21
286.60344900000001
 31
0.0
  0
LINE
  5
2C9
  8
DETAIL
  6
CONTINUOUS
 62
     5
 10
-219.00040799999999
 20
-183.97647000000001
 30
0.0
 11
-219.00040799999999
 21
-145.0
 31
0.0
  0
LINE
  5
2CA
  8
SIZE
  6
CONTINUOUS
 62
    30
 10
0.000001
 20
-620.0
 30
0.0
 11
0.000001
 21
-805.65455199999985
 31
0.0
  0
TEXT
  5
2CB
  8
ETC
  6
CONTINUOUS
 62
    61
 10
686.31239271020411
 20
384.6898154645778
 30
0.0
 40
50.0
  1
V-604KSW6
 41
0.9
  0
TEXT
  5
2CC
  8
ETC
  6
CONTINUOUS
 62
    61
 10
539.6165168193545
 20
551.72903334575744
 30
0.0
 40
64.0
  1
V-604KSW7_4
 41
0.9
  0
TEXT
  5
2CD
  8
ETC
  6
CONTINUOUS
 62
    61
 10
541.04611981935454
 20
454.8816643457572
 30
0.0
 40
64.0
  1
換気扇
 41
0.9
  0
LINE
  5
2CF
  8
OUTLINE
  6
CONTINOUS
 62
     3
 10
-414.35512499999987
 20
-200.0
 30
0.0
 11
-349.999999
 21
-200.0
 31
0.0
  0
ARC
  5
2D0
  8
OUTLINE
  6
CONTINOUS
 62
     3
 10
-334.5540759999999
 20
51.0
 30
0.0
 40
650.0
 50
248.35695200000001
 51
268.63835499999982
  0
LINE
  5
2D1
  8
OUTLINE
  6
CONTINOUS
 62
     3
 10
-596.21892700000001
 20
-459.31670100000002
 30
0.0
 11
-430.20377699999989
 21
-211.41966899999991
 31
0.0
  0
LINE
  5
2D2
  8
OUTLINE
  6
CONTINOUS
 62
     3
 10
-583.84268699999996
 20
-542.44387500000005
 30
0.0
 11
-599.999999
 21
-482.14396499999998
 31
0.0
  0
ARC
  5
2D3
  8
OUTLINE
  6
CONTINOUS
 62
     3
 10
-568.3878739999999
 20
-538.30277000000001
 30
0.0
 40
16.0
 50
195.0
 51
248.35695200000001
  0
ARC
  5
2D4
  8
OUTLINE
  6
CONTINOUS
 62
     3
 10
-572.95407599999987
 20
-474.89703200000002
 30
0.0
 40
28.0
 50
146.19001799999981
 51
195.0
  0
ARC
  5
2D5
  8
OUTLINE
  6
CONTINOUS
 62
     3
 10
-406.93892599999992
 20
-227.0
 30
0.0
 40
28.0
 50
105.358886
 51
146.19001799999981
  0
LINE
  5
2D6
  8
OUTLINE
  6
CONTINOUS
 62
     3
 10
0.0000010000001112
 20
-600.0
 30
0.0
 11
0.0000010000001112
 21
-200.0
 31
0.0
  0
LINE
  5
2D7
  8
OUTLINE
  6
CONTINOUS
 62
     3
 10
0.0000010000001112
 20
-600.0
 30
0.0
 11
-322.95429100000001
 21
-600.0
 31
0.0
  0
LINE
  5
2D8
  8
OUTLINE
  6
CONTINUOUS
 62
     3
 10
-322.95429100000001
 20
-600.0
 30
0.0
 11
-349.999999
 21
-598.81645400000002
 31
0.0
  0
LINE
  5
2D9
  8
OUTLINE
  6
CONTINOUS
 62
     3
 10
-374.999999
 20
-200.0
 30
0.0
 11
0.0000010000001112
 21
-200.0
 31
0.0
  0
LINE
  5
2DA
  8
OUTLINE
  6
CONTINOUS
 62
     3
 10
-374.999999
 20
-200.0
 30
0.0
 11
-374.999999
 21
0.0
 31
0.0
  0
LINE
  5
2DB
  8
OUTLINE
  6
CONTINOUS
 62
     3
 10
-319.999999
 20
-200.0
 30
0.0
 11
-319.999999
 21
0.0
 31
0.0
  0
LINE
  5
2DC
  8
OUTLINE
  6
CONTINOUS
 62
     3
 10
-374.999999
 20
0.0
 30
0.0
 11
-319.999999
 21
0.0
 31
0.0
  0
TEXT
  5
3B0
  8
ETC
  6
CONTINUOUS
 62
    61
 10
686.31239271020411
 20
292.75666152846952
 30
0.0
 40
50.0
  1
V-604KSW7
 41
0.9
  0
ENDSEC
  0
EOF
