  0
SECTION
  2
HEADER
  9
$ACADVER
  1
AC1009
  9
$DWGCODEPAGE
  3
ansi_932
  9
$INSBASE
 10
0.0
 20
0.0
 30
0.0
  9
$EXTMIN
 10
-1179.53889067106
 20
-1012.06074184504
 30
0.0
  9
$EXTMAX
 10
873.1830178103363
 20
653.027207931221
 30
50.0
  9
$LIMMIN
 10
-2970.0
 20
-2100.0
  9
$LIMMAX
 10
2970.0
 20
2100.0
  9
$ORTHOMODE
 70
     1
  9
$REGENMODE
 70
     0
  9
$FILLMODE
 70
     1
  9
$QTEXTMODE
 70
     0
  9
$MIRRTEXT
 70
     0
  9
$DRAGMODE
 70
     2
  9
$LTSCALE
 40
20.0
  9
$OSMODE
 70
    37
  9
$ATTMODE
 70
     1
  9
$TEXTSIZE
 40
64.0
  9
$TRACEWID
 40
0.05
  9
$TEXTSTYLE
  7
STANDARD
  9
$CLAYER
  8
ETC
  9
$CELTYPE
  6
CONTINUOUS
  9
$CECOLOR
 62
     3
  9
$DIMSCALE
 40
1.0
  9
$DIMASZ
 40
12.0
  9
$DIMEXO
 40
20.0
  9
$DIMDLI
 40
200.0
  9
$DIMRND
 40
0.0
  9
$DIMDLE
 40
0.0
  9
$DIMEXE
 40
20.0
  9
$DIMTP
 40
0.0
  9
$DIMTM
 40
0.0
  9
$DIMTXT
 40
64.0
  9
$DIMCEN
 40
0.09
  9
$DIMTSZ
 40
0.0
  9
$DIMTOL
 70
     0
  9
$DIMLIM
 70
     0
  9
$DIMTIH
 70
     0
  9
$DIMTOH
 70
     0
  9
$DIMSE1
 70
     0
  9
$DIMSE2
 70
     0
  9
$DIMTAD
 70
     1
  9
$DIMZIN
 70
     8
  9
$DIMBLK
  1
NONE
  9
$DIMASO
 70
     1
  9
$DIMSHO
 70
     0
  9
$DIMPOST
  1

  9
$DIMAPOST
  1

  9
$DIMALT
 70
     0
  9
$DIMALTD
 70
     2
  9
$DIMALTF
 40
25.4
  9
$DIMLFAC
 40
1.0
  9
$DIMTOFL
 70
     1
  9
$DIMTVP
 40
0.0
  9
$DIMTIX
 70
     1
  9
$DIMSOXD
 70
     0
  9
$DIMSAH
 70
     0
  9
$DIMBLK1
  1
NONE
  9
$DIMBLK2
  1
ORIGIN
  9
$DIMSTYLE
  2
STANDARD
  9
$DIMCLRD
 70
   256
  9
$DIMCLRE
 70
   256
  9
$DIMCLRT
 70
   256
  9
$DIMTFAC
 40
1.0
  9
$DIMGAP
 40
25.0
  9
$LUNITS
 70
     2
  9
$LUPREC
 70
     4
  9
$SKETCHINC
 40
0.1
  9
$FILLETRAD
 40
4.0
  9
$AUNITS
 70
     1
  9
$AUPREC
 70
     3
  9
$MENU
  1
ACAD
  9
$ELEVATION
 40
0.0
  9
$PELEVATION
 40
0.0
  9
$THICKNESS
 40
50.0
  9
$LIMCHECK
 70
     0
  9
$CHAMFERA
 40
0.0
  9
$CHAMFERB
 40
0.0
  9
$SKPOLY
 70
     0
  9
$TDCREATE
 40
2453090.679102697
  9
$TDUPDATE
 40
2457485.589570695
  9
$TDINDWG
 40
0.043462338
  9
$TDUSRTIMER
 40
0.043461794
  9
$USRTIMER
 70
     1
  9
$ANGBASE
 50
0.0
  9
$ANGDIR
 70
     0
  9
$PDMODE
 70
     3
  9
$PDSIZE
 40
-2.0
  9
$PLINEWID
 40
0.0
  9
$COORDS
 70
     1
  9
$SPLFRAME
 70
     0
  9
$SPLINETYPE
 70
     6
  9
$SPLINESEGS
 70
     8
  9
$ATTDIA
 70
     0
  9
$ATTREQ
 70
     1
  9
$HANDLING
 70
     1
  9
$HANDSEED
  5
617
  9
$SURFTAB1
 70
     6
  9
$SURFTAB2
 70
     6
  9
$SURFTYPE
 70
     6
  9
$SURFU
 70
     6
  9
$SURFV
 70
     6
  9
$UCSNAME
  2

  9
$UCSORG
 10
0.0
 20
0.0
 30
0.0
  9
$UCSXDIR
 10
1.0
 20
0.0
 30
0.0
  9
$UCSYDIR
 10
0.0
 20
1.0
 30
0.0
  9
$PUCSNAME
  2

  9
$PUCSORG
 10
0.0
 20
0.0
 30
0.0
  9
$PUCSXDIR
 10
1.0
 20
0.0
 30
0.0
  9
$PUCSYDIR
 10
0.0
 20
1.0
 30
0.0
  9
$USERI1
 70
     0
  9
$USERI2
 70
     0
  9
$USERI3
 70
     0
  9
$USERI4
 70
     0
  9
$USERI5
 70
     0
  9
$USERR1
 40
20.0
  9
$USERR2
 40
0.0
  9
$USERR3
 40
0.0
  9
$USERR4
 40
0.0
  9
$USERR5
 40
0.0
  9
$WORLDVIEW
 70
     1
  9
$SHADEDGE
 70
     3
  9
$SHADEDIF
 70
    70
  9
$TILEMODE
 70
     1
  9
$MAXACTVP
 70
    48
  9
$PLIMCHECK
 70
     0
  9
$PEXTMIN
 10
-1.000000000000000E+20
 20
-1.000000000000000E+20
 30
-1.000000000000000E+20
  9
$PEXTMAX
 10
1.000000000000000E+20
 20
1.000000000000000E+20
 30
1.000000000000000E+20
  9
$PLIMMIN
 10
0.0
 20
0.0
  9
$PLIMMAX
 10
12.0
 20
9.0
  9
$UNITMODE
 70
     0
  9
$VISRETAIN
 70
     0
  9
$PLINEGEN
 70
     0
  9
$PSLTSCALE
 70
     0
  0
ENDSEC
  0
SECTION
  2
TABLES
  0
TABLE
  2
VPORT
 70
     1
  0
VPORT
  2
*ACTIVE
 70
     0
 10
0.0
 20
0.0
 11
1.0
 21
1.0
 12
133.9987565755268
 22
-55.16512258641114
 13
0.0
 23
0.0
 14
1.0
 24
1.0
 15
0.0
 25
0.0
 16
0.0
 26
0.0
 36
1.0
 17
0.0
 27
0.0
 37
0.0
 40
1467.095688827388
 41
1.812051649928264
 42
50.0
 43
0.0
 44
0.0
 50
0.0
 51
0.0
 71
     0
 72
  1000
 73
     1
 74
     0
 75
     0
 76
     0
 77
     0
 78
     0
  0
ENDTAB
  0
TABLE
  2
LTYPE
 70
     3
  0
LTYPE
  2
CONTINUOUS
 70
     0
  3
実線
 72
    65
 73
     0
 40
0.0
  0
LTYPE
  2
DASHDOT
 70
     0
  3
____ _ ____ _ ____ _ ____ _ ____ _ ____ _ ____
 72
    65
 73
     4
 40
5.5
 49
4.0
 49
-0.6
 49
0.3
 49
-0.6
  0
LTYPE
  2
CONTINOUS
 70
     0
  3
Solid line
 72
    65
 73
     0
 40
0.0
  0
ENDTAB
  0
TABLE
  2
LAYER
 70
    12
  0
LAYER
  2
0
 70
     0
 62
     7
  6
CONTINUOUS
  0
LAYER
  2
OUTLINE
 70
     0
 62
     3
  6
CONTINUOUS
  0
LAYER
  2
SIZE
 70
     0
 62
    30
  6
CONTINUOUS
  0
LAYER
  2
BASIS
 70
     0
 62
     6
  6
DASHDOT
  0
LAYER
  2
DETAIL
 70
     0
 62
     5
  6
CONTINUOUS
  0
LAYER
  2
ARRANGE
 70
     0
 62
     1
  6
CONTINUOUS
  0
LAYER
  2
DEFPOINTS
 70
     0
 62
     7
  6
CONTINUOUS
  0
LAYER
  2
ETC
 70
     0
 62
    61
  6
CONTINUOUS
  0
LAYER
  2
FIX
 70
     0
 62
    11
  6
CONTINUOUS
  0
LAYER
  2
NOTE
 70
     0
 62
     4
  6
CONTINUOUS
  0
LAYER
  2
SERVICESPACE
 70
     0
 62
     2
  6
DASHDOT
  0
LAYER
  2
SYMBOLLINE
 70
     0
 62
    15
  6
CONTINUOUS
  0
ENDTAB
  0
TABLE
  2
STYLE
 70
     2
  0
STYLE
  2
STANDARD
 70
     0
 40
64.0
 41
0.9
 50
0.0
 71
     0
 42
64.0
  3
SIMPLEX.shx
  4
BIGFONT.shx
  0
STYLE
  2
ANNOTATIVE
 70
     0
 40
0.0
 41
1.0
 50
0.0
 71
     0
 42
0.2
  3
txt
  4

  0
ENDTAB
  0
TABLE
  2
VIEW
 70
     1
  0
VIEW
  2
ALL
 70
     0
 40
4282.619807999997
 10
0.0
 20
41.30990399999999
 41
5940.0
 11
0.0
 21
0.0
 31
1.0
 12
0.0
 22
0.0
 32
0.0
 42
50.0
 43
0.0
 44
0.0
 50
0.0
 71
     0
  0
ENDTAB
  0
TABLE
  2
UCS
 70
     0
  0
ENDTAB
  0
TABLE
  2
APPID
 70
     5
  0
APPID
  2
ACAD
 70
     0
  0
APPID
  2
ACADANNOTATIVE
 70
     0
  0
APPID
  2
ACAD_MLEADERVER
 70
     0
  0
APPID
  2
AUTOCAD_POSTSCRIPT_FIGURE
 70
     0
  0
APPID
  2
ACAD_EXEMPT_FROM_CAD_STAND
 70
     0
  0
ENDTAB
  0
TABLE
  2
DIMSTYLE
 70
     2
  0
DIMSTYLE
  2
STANDARD
 70
     0
  3

  4

  5

  6

  7

 40
1.0
 41
0.18
 42
0.0625
 43
0.38
 44
0.18
 45
0.0
 46
0.0
 47
0.0
 48
0.0
140
0.18
141
0.09
142
0.0
143
25.4
144
1.0
145
0.0
146
1.0
147
0.09
 71
     0
 72
     0
 73
     1
 74
     1
 75
     0
 76
     0
 77
     0
 78
     0
170
     0
171
     2
172
     0
173
     0
174
     0
175
     0
176
     7
177
     7
178
     7
  0
DIMSTYLE
  2
ANNOTATIVE
 70
     0
  3

  4

  5

  6

  7

 40
1.0
 41
0.18
 42
0.0625
 43
0.38
 44
0.18
 45
0.0
 46
0.0
 47
0.0
 48
0.0
140
0.18
141
0.09
142
0.0
143
25.4
144
1.0
145
0.0
146
1.0
147
0.09
 71
     0
 72
     0
 73
     1
 74
     1
 75
     0
 76
     0
 77
     0
 78
     0
170
     0
171
     2
172
     0
173
     0
174
     0
175
     0
176
     0
177
     0
178
     0
  0
ENDTAB
  0
ENDSEC
  0
SECTION
  2
BLOCKS
  0
BLOCK
  8
0
  2
$MODEL_SPACE
 70
     0
 10
0.0
 20
0.0
 30
0.0
  3
$MODEL_SPACE
  1

  0
ENDBLK
  5
529
  8
0
  0
BLOCK
 67
     1
  8
0
  2
$PAPER_SPACE
 70
     0
 10
0.0
 20
0.0
 30
0.0
  3
$PAPER_SPACE
  1

  0
ENDBLK
  5
525
 67
     1
  8
0
  0
BLOCK
  8
0
  2
DOT1
 70
     0
 10
0.0
 20
0.0
 30
0.0
  3
DOT1
  1

  0
CIRCLE
  5
351
  8
SIZE
  6
CONTINUOUS
 62
     7
 10
0.0
 20
0.0
 30
0.0
 40
3.0
  0
ENDBLK
  5
352
  8
0
  0
BLOCK
  8
0
  2
_ORIGIN
 70
     0
 10
0.0
 20
0.0
 30
0.0
  3
_ORIGIN
  1

  0
CIRCLE
  5
355
  8
0
  6
CONTINUOUS
 62
     7
 10
0.0
 20
0.0
 30
0.0
 40
0.5
  0
LINE
  5
356
  8
0
  6
CONTINUOUS
 62
     7
 10
0.0
 20
0.0
 30
0.0
 11
-1.0
 21
0.0
 31
0.0
  0
ENDBLK
  5
357
  8
0
  0
BLOCK
  8
0
  2
_NONE
 70
     0
 10
0.0
 20
0.0
 30
0.0
  3
_NONE
  1

  0
ENDBLK
  5
35A
  8
0
 62
    30
  0
BLOCK
  8
0
  2
_OPEN30
 70
     0
 10
0.0
 20
0.0
 30
0.0
  3
_OPEN30
  1

  0
LINE
  5
35D
  8
0
  6
BYBLOCK
 62
     0
 10
-1.0
 20
0.26794919
 30
0.0
 11
0.0
 21
0.0
 31
0.0
  0
LINE
  5
35E
  8
0
  6
BYBLOCK
 62
     0
 10
0.0
 20
0.0
 30
0.0
 11
-1.0
 21
-0.26794919
 31
0.0
  0
LINE
  5
35F
  8
0
  6
BYBLOCK
 62
     0
 10
0.0
 20
0.0
 30
0.0
 11
-1.0
 21
0.0
 31
0.0
  0
ENDBLK
  5
360
  8
0
 62
    30
  0
BLOCK
  8
0
  2
*D4
 70
     1
 10
0.0
 20
0.0
 30
0.0
  3
*D4
  1

  0
LINE
  5
363
  8
SIZE
  6
CONTINUOUS
 10
-532.5493646710602
 20
-176.6056518450404
 30
0.0
 11
-532.5493646710602
 21
190.5202557961301
 31
0.0
  0
LINE
  5
364
  8
SIZE
  6
CONTINUOUS
 10
-715.5493646710602
 20
3.394348154959513
 30
0.0
 11
-715.5493646710602
 21
190.5202557961301
 31
0.0
  0
LINE
  5
365
  8
SIZE
  6
CONTINUOUS
 10
-532.5493646710602
 20
170.52025579613
 30
0.0
 11
-715.5493646710602
 21
170.52025579613
 31
0.0
  0
LINE
  5
366
  8
SIZE
  6
CONTINUOUS
 10
-715.5493646710602
 20
170.52025579613
 30
0.0
 11
-914.6922218139168
 21
170.52025579613
 31
0.0
  0
TEXT
  5
367
  8
SIZE
  6
CONTINUOUS
 10
-889.6922218139168
 20
195.5202557961301
 30
0.0
 40
64.0
  1
183
 41
0.9
  0
POINT
  5
368
  8
DEFPOINTS
  6
CONTINUOUS
 62
     0
 10
-532.5493646710602
 20
-196.6056518450404
 30
0.0
  0
POINT
  5
369
  8
DEFPOINTS
  6
CONTINUOUS
 62
     0
 10
-715.5493646710602
 20
-16.60565184504048
 30
0.0
  0
POINT
  5
36A
  8
DEFPOINTS
  6
CONTINUOUS
 62
     0
 10
-715.5493646710602
 20
170.52025579613
 30
0.0
  0
ENDBLK
  5
36B
  8
0
 62
    30
  0
ENDSEC
  0
SECTION
  2
ENTITIES
  0
LINE
  5
36C
  8
DETAIL
  6
CONTINUOUS
 62
     5
 10
374.9999999999998
 20
-200.0
 30
0.0
 11
374.9999999999998
 21
0.0
 31
0.0
  0
LINE
  5
36D
  8
DETAIL
  6
CONTINUOUS
 62
     5
 10
-375.0000000000002
 20
0.0
 30
0.0
 11
374.9999999999998
 21
0.0
 31
0.0
  0
LINE
  5
36E
  8
BASIS
  6
DASHDOT
 62
     6
 10
0.0
 20
-671.9400679999998
 30
0.0
 11
0.0
 21
62.59974299999999
 31
0.0
  0
LINE
  5
36F
  8
DETAIL
  6
CONTINOUS
 62
     5
 10
374.9999999999998
 20
-599.9999999999998
 30
0.0
 11
374.9999999999998
 21
-200.0
 31
0.0
  0
LINE
  5
370
  8
DETAIL
  6
CONTINOUS
 62
     5
 10
374.9999999999998
 20
-200.0
 30
0.0
 11
-375.0000000000002
 21
-200.0
 31
0.0
  0
LINE
  5
371
  8
DETAIL
  6
CONTINOUS
 62
     5
 10
-375.0000000000002
 20
-599.9999999999998
 30
0.0
 11
-375.0000000000002
 21
0.0
 31
0.0
  0
LINE
  5
372
  8
DETAIL
  6
CONTINOUS
 62
     5
 10
374.9999999999998
 20
-599.9999999999998
 30
0.0
 11
-375.0000000000002
 21
-599.9999999999998
 31
0.0
  0
LINE
  5
373
  8
NOTE
  6
CONTINUOUS
 62
     4
 10
240.0000000000001
 20
-279.9999999999999
 30
0.0
 11
240.0000000000001
 21
-239.9999999999999
 31
0.0
  0
LINE
  5
374
  8
NOTE
  6
CONTINUOUS
 62
     4
 10
259.9999999999998
 20
-259.9999999999999
 30
0.0
 11
220.0
 21
-259.9999999999999
 31
0.0
  0
LINE
  5
375
  8
NOTE
  6
CONTINUOUS
 62
     4
 10
240.0000000000001
 20
-514.9999999999999
 30
0.0
 11
240.0000000000001
 21
-474.9999999999996
 31
0.0
  0
LINE
  5
376
  8
NOTE
  6
CONTINUOUS
 62
     4
 10
259.9999999999998
 20
-494.9999999999997
 30
0.0
 11
220.0
 21
-494.9999999999997
 31
0.0
  0
LINE
  5
377
  8
NOTE
  6
CONTINUOUS
 62
     4
 10
-239.9999999999999
 20
-279.9999999999999
 30
0.0
 11
-239.9999999999999
 21
-239.9999999999999
 31
0.0
  0
LINE
  5
378
  8
NOTE
  6
CONTINUOUS
 62
     4
 10
-260.0000000000001
 20
-259.9999999999999
 30
0.0
 11
-219.9999999999999
 21
-259.9999999999999
 31
0.0
  0
LINE
  5
379
  8
NOTE
  6
CONTINUOUS
 62
     4
 10
-239.9999999999999
 20
-514.9999999999999
 30
0.0
 11
-239.9999999999999
 21
-474.9999999999996
 31
0.0
  0
LINE
  5
37A
  8
NOTE
  6
CONTINUOUS
 62
     4
 10
-260.0000000000001
 20
-494.9999999999997
 30
0.0
 11
-219.9999999999999
 21
-494.9999999999997
 31
0.0
  0
CIRCLE
  5
37B
  8
FIX
  6
CONTINUOUS
 62
    11
 10
240.0000000000001
 20
-259.9999999999999
 30
0.0
 40
4.0
  0
CIRCLE
  5
37C
  8
FIX
  6
CONTINUOUS
 62
    11
 10
-239.9999999999999
 20
-259.9999999999999
 30
0.0
 40
4.0
  0
CIRCLE
  5
37D
  8
FIX
  6
CONTINUOUS
 62
    11
 10
240.0000000000001
 20
-494.9999999999997
 30
0.0
 40
4.0
  0
CIRCLE
  5
37E
  8
FIX
  6
CONTINUOUS
 62
    11
 10
-239.9999999999999
 20
-494.9999999999997
 30
0.0
 40
4.0
  0
LINE
  5
37F
  8
OUTLINE
  6
CONTINOUS
 62
     3
 10
374.9999999999998
 20
-599.9999999999998
 30
0.0
 11
-375.0000000000002
 21
-599.9999999999998
 31
0.0
  0
LINE
  5
380
  8
OUTLINE
  6
CONTINOUS
 62
     3
 10
374.9999999999998
 20
-599.9999999999998
 30
0.0
 11
374.9999999999998
 21
-200.0
 31
0.0
  0
LINE
  5
381
  8
OUTLINE
  6
CONTINUOUS
 62
     3
 10
374.9999999999998
 20
-200.0
 30
0.0
 11
374.9999999999998
 21
0.0
 31
0.0
  0
LINE
  5
382
  8
OUTLINE
  6
CONTINUOUS
 62
     3
 10
-375.0000000000002
 20
0.0
 30
0.0
 11
374.9999999999998
 21
0.0
 31
0.0
  0
LINE
  5
383
  8
OUTLINE
  6
CONTINOUS
 62
     3
 10
-375.0000000000002
 20
-599.9999999999998
 30
0.0
 11
-375.0000000000002
 21
0.0
 31
0.0
  0
LINE
  5
384
  8
NOTE
  6
CONTINUOUS
 62
     4
 10
240.0000000000001
 20
-219.9999999999997
 30
0.0
 11
240.0000000000001
 21
-179.9999999999999
 31
0.0
  0
LINE
  5
385
  8
NOTE
  6
CONTINUOUS
 62
     4
 10
259.9999999999998
 20
-200.0
 30
0.0
 11
220.0
 21
-200.0
 31
0.0
  0
CIRCLE
  5
386
  8
FIX
  6
CONTINUOUS
 62
    11
 10
240.0000000000001
 20
-200.0
 30
0.0
 40
12.5
  0
CIRCLE
  5
387
  8
FIX
  6
CONTINUOUS
 62
    11
 10
-239.9999999999999
 20
-200.0
 30
0.0
 40
12.5
  0
LINE
  5
388
  8
NOTE
  6
CONTINUOUS
 62
     4
 10
-239.9999999999999
 20
-219.9999999999997
 30
0.0
 11
-239.9999999999999
 21
-179.9999999999999
 31
0.0
  0
LINE
  5
389
  8
NOTE
  6
CONTINUOUS
 62
     4
 10
-260.0000000000001
 20
-200.0
 30
0.0
 11
-219.9999999999999
 21
-200.0
 31
0.0
  0
TEXT
  5
38A
  8
NOTE
  6
CONTINUOUS
 62
     4
 10
-46.87529500000011
 20
-120.5883959999998
 30
0.0
 40
64.0
  1
EA
 41
0.9
  0
LINE
  5
38B
  8
NOTE
  6
CONTINUOUS
 62
     4
 10
-210.0000000000001
 20
-200.0
 30
0.0
 11
-175.1783856073454
 21
-200.0
 31
0.0
  0
TEXT
  5
38C
  8
NOTE
  6
CONTINUOUS
 62
     4
 10
-248.2857519999999
 20
-397.2998119999997
 30
0.0
 40
64.0
  1
EL
 41
0.9
  0
LINE
  5
38D
  8
NOTE
  6
CONTINUOUS
 62
     4
 10
-116.5607899999999
 20
-426.4126839999999
 30
0.0
 11
-268.3945710000001
 21
-426.4126839999999
 31
0.0
  0
TEXT
  5
38E
  8
NOTE
  6
CONTINUOUS
 62
     4
 10
-713.0332350000001
 20
-732.8889410000002
 30
0.0
 40
64.0
  1
4-φ8
 41
0.9
  0
LINE
  5
38F
  8
NOTE
  6
CONTINUOUS
 62
     4
 10
-444.8060540000003
 20
-764.5469749999999
 30
0.0
 11
-738.3599499999991
 21
-764.5469749999999
 31
0.0
  0
TEXT
  5
390
  8
NOTE
  6
CONTINUOUS
 62
     4
 10
514.2667599999997
 20
122.678882
 30
0.0
 40
64.0
  1
AH 2×2-φ25
 41
0.9
  0
LINE
  5
391
  8
NOTE
  6
CONTINUOUS
 62
     4
 10
480.7467099999994
 20
86.47712899999999
 30
0.0
 11
1086.590666
 21
86.47712899999999
 31
0.0
  0
LINE
  5
392
  8
NOTE
  6
CONTINUOUS
 62
     4
 10
-192.5891928036727
 20
-200.0
 30
0.0
 11
-116.5607899999999
 21
-426.4126839999999
 31
0.0
  0
LINE
  5
393
  8
NOTE
  6
CONTINUOUS
 62
     4
 10
-189.9829865152289
 20
-238.9374956650408
 30
0.0
 11
-192.5891928036727
 21
-200.0
 31
0.0
  0
LINE
  5
394
  8
NOTE
  6
CONTINUOUS
 62
     4
 10
-192.5891928036727
 20
-200.0
 30
0.0
 11
-170.5032452349471
 21
-232.7064207842095
 31
0.0
  0
LINE
  5
395
  8
NOTE
  6
CONTINUOUS
 62
     4
 10
240.0000000000001
 20
-200.0
 30
0.0
 11
480.7467099999994
 21
86.47712899999999
 31
0.0
  0
LINE
  5
396
  8
NOTE
  6
CONTINUOUS
 62
     4
 10
256.9231369999998
 20
-163.7562769999999
 30
0.0
 11
240.0000000000001
 21
-200.0
 31
0.0
  0
LINE
  5
397
  8
NOTE
  6
CONTINUOUS
 62
     4
 10
240.0000000000001
 20
-200.0
 30
0.0
 11
272.7777279999999
 21
-177.0735839999999
 31
0.0
  0
POINT
  5
398
  8
ARRANGE
  6
CONTINUOUS
 62
     1
 10
0.0
 20
0.0
 30
0.0
  0
CIRCLE
  5
399
  8
ARRANGE
  6
CONTINUOUS
 62
     1
 10
0.0
 20
0.0
 30
0.0
 40
40.0
  0
CIRCLE
  5
39A
  8
DETAIL
  6
CONTINUOUS
 62
     5
 10
-239.9999999999999
 20
-259.9999999999999
 30
0.0
 40
4.0
  0
CIRCLE
  5
39B
  8
DETAIL
  6
CONTINUOUS
 62
     5
 10
-239.9999999999999
 20
-494.9999999999997
 30
0.0
 40
4.0
  0
CIRCLE
  5
39C
  8
DETAIL
  6
CONTINUOUS
 62
     5
 10
240.0000000000001
 20
-259.9999999999999
 30
0.0
 40
4.0
  0
CIRCLE
  5
39D
  8
DETAIL
  6
CONTINUOUS
 62
     5
 10
240.0000000000001
 20
-494.9999999999997
 30
0.0
 40
4.0
  0
LINE
  5
39E
  8
DETAIL
  6
CONTINOUS
 62
     5
 10
-355.0000000000002
 20
-200.0
 30
0.0
 11
0.0
 21
-200.0
 31
0.0
  0
LINE
  5
39F
  8
DETAIL
  6
CONTINOUS
 62
     5
 10
354.9999999999998
 20
-200.0
 30
0.0
 11
0.0
 21
-200.0
 31
0.0
  0
LINE
  5
3A0
  8
DETAIL
  6
CONTINOUS
 62
     5
 10
-360.0000000000001
 20
-200.0
 30
0.0
 11
-360.0000000000001
 21
0.0
 31
0.0
  0
LINE
  5
3A1
  8
DETAIL
  6
CONTINUOUS
 62
     5
 10
359.9999999999998
 20
-200.0
 30
0.0
 11
359.9999999999998
 21
0.0
 31
0.0
  0
LINE
  5
3A2
  8
DETAIL
  6
CONTINOUS
 62
     5
 10
354.9999999999998
 20
-599.9999999999998
 30
0.0
 11
354.9999999999998
 21
-200.0
 31
0.0
  0
LINE
  5
3A3
  8
DETAIL
  6
CONTINOUS
 62
     5
 10
-355.0000000000002
 20
-599.9999999999998
 30
0.0
 11
-355.0000000000002
 21
-200.0
 31
0.0
  0
LINE
  5
3A4
  8
NOTE
  6
CONTINUOUS
 62
     4
 10
-239.9999999999999
 20
-494.9999999999997
 30
0.0
 11
-444.8060540000003
 21
-764.5469749999999
 31
0.0
  0
LINE
  5
3A5
  8
NOTE
  6
CONTINUOUS
 62
     4
 10
-248.5019180000001
 20
-534.0860249999998
 30
0.0
 11
-239.9999999999999
 21
-494.9999999999997
 31
0.0
  0
LINE
  5
3A6
  8
NOTE
  6
CONTINUOUS
 62
     4
 10
-239.9999999999999
 20
-494.9999999999997
 30
0.0
 11
-266.9058899999999
 21
-524.5985319999999
 31
0.0
  0
LINE
  5
3A7
  8
DETAIL
  6
CONTINUOUS
 62
     5
 10
119.9999999999999
 20
-196.9999999999998
 30
0.0
 11
119.9999999999999
 21
-200.0
 31
0.0
  0
ARC
  5
3A8
  8
DETAIL
  6
CONTINUOUS
 62
     5
 10
-119.0
 20
-195.9999999999999
 30
0.0
 40
1.0
 50
90.0
 51
180.0
  0
LINE
  5
3A9
  8
DETAIL
  6
CONTINUOUS
 62
     5
 10
-73.99959099999967
 20
-144.9999999999999
 30
0.0
 11
74.00040899999988
 21
-144.9999999999999
 31
0.0
  0
LINE
  5
3AA
  8
DETAIL
  6
CONTINUOUS
 62
     5
 10
119.9999999999999
 20
-196.9999999999998
 30
0.0
 11
119.9999999999999
 21
-195.9999999999999
 31
0.0
  0
LINE
  5
3AB
  8
DETAIL
  6
CONTINUOUS
 62
     5
 10
118.9999999999999
 20
-194.9999999999997
 30
0.0
 11
-109.7150740000002
 21
-194.9999999999997
 31
0.0
  0
ARC
  5
3AC
  8
DETAIL
  6
CONTINUOUS
 62
     5
 10
118.9999999999999
 20
-195.9999999999999
 30
0.0
 40
1.0
 50
0.0
 51
90.0
  0
LINE
  5
3AD
  8
DETAIL
  6
CONTINUOUS
 62
     5
 10
77.00040899999988
 20
-189.3999999999999
 30
0.0
 11
77.00040899999988
 21
-186.647059
 31
0.0
  0
LINE
  5
3AE
  8
DETAIL
  6
CONTINUOUS
 62
     5
 10
74.00040899999988
 20
-183.9764709999999
 30
0.0
 11
74.00040899999988
 21
-144.9999999999999
 31
0.0
  0
LINE
  5
3AF
  8
DETAIL
  6
CONTINUOUS
 62
     5
 10
-73.99959099999967
 20
-184.9999999999999
 30
0.0
 11
75.12540899999988
 21
-184.9999999999999
 31
0.0
  0
LINE
  5
3B0
  8
DETAIL
  6
CONTINUOUS
 62
     5
 10
-119.9999999999999
 20
-200.0
 30
0.0
 11
-119.9999999999999
 21
-195.9999999999999
 31
0.0
  0
LINE
  5
3B1
  8
DETAIL
  6
CONTINUOUS
 62
     5
 10
-109.7150740000002
 20
-194.9999999999997
 30
0.0
 11
-119.0
 21
-194.9999999999997
 31
0.0
  0
ARC
  5
3B2
  8
DETAIL
  6
CONTINUOUS
 62
     5
 10
75.00040899999988
 20
-183.9764709999999
 30
0.0
 40
1.0
 50
180.0
 51
262.8473309999988
  0
ARC
  5
3B3
  8
DETAIL
  6
CONTINUOUS
 62
     5
 10
75.4004089999998
 20
-186.647059
 30
0.0
 40
1.6
 50
0.0
 51
82.84733100000093
  0
LINE
  5
3B4
  8
DETAIL
  6
CONTINUOUS
 62
     5
 10
74.87589500000001
 20
-184.968689
 30
0.0
 11
75.59962999999988
 21
-185.05951
 31
0.0
  0
ARC
  5
3B5
  8
DETAIL
  6
CONTINUOUS
 62
     5
 10
87.0004090000001
 20
-189.3999999999999
 30
0.0
 40
10.0
 50
180.0
 51
214.055798
  0
LINE
  5
3B6
  8
DETAIL
  6
CONTINUOUS
 62
     5
 10
-73.99959099999967
 20
-183.9764709999999
 30
0.0
 11
-73.99959099999967
 21
-144.9999999999999
 31
0.0
  0
LINE
  5
3B7
  8
DETAIL
  6
CONTINUOUS
 62
     5
 10
-74.8750780000002
 20
-184.968689
 30
0.0
 11
-75.598813
 21
-185.05951
 31
0.0
  0
ARC
  5
3B8
  8
DETAIL
  6
CONTINUOUS
 62
     5
 10
-74.99959100000018
 20
-183.9764709999999
 30
0.0
 40
1.0
 50
277.1526690000012
 51
0.0
  0
LINE
  5
3B9
  8
DETAIL
  6
CONTINUOUS
 62
     5
 10
-76.99959100000001
 20
-189.3999999999999
 30
0.0
 11
-76.99959100000001
 21
-186.647059
 31
0.0
  0
ARC
  5
3BA
  8
DETAIL
  6
CONTINUOUS
 62
     5
 10
-86.99959100000018
 20
-189.3999999999999
 30
0.0
 40
10.0
 50
325.944202
 51
0.0
  0
ARC
  5
3BB
  8
DETAIL
  6
CONTINUOUS
 62
     5
 10
-75.39959099999999
 20
-186.647059
 30
0.0
 40
1.6
 50
97.15266899999907
 51
180.0
  0
LINE
  5
3BC
  8
BASIS
  6
DASHDOT
 62
     6
 10
-10.0
 20
-227.605269
 30
0.0
 11
-10.0
 21
-106.6633669999999
 31
0.0
  0
LINE
  5
3BD
  8
BASIS
  6
DASHDOT
 62
     6
 10
10.00000000000011
 20
-227.605269
 30
0.0
 11
10.00000000000011
 21
-106.6633669999999
 31
0.0
  0
TEXT
  5
3BE
  8
NOTE
  6
CONTINUOUS
 62
     4
 10
-711.5702800000001
 20
312.1503109999997
 30
0.0
 40
64.0
  1
ダクト接続口可動寸法
 41
0.9
  0
LINE
  5
3BF
  8
SIZE
  6
CONTINUOUS
 62
    30
 10
374.9999999999998
 20
-619.9999999999998
 30
0.0
 11
374.9999999999998
 21
-995.4550899999995
 31
0.0
  0
LINE
  5
3C0
  8
SIZE
  6
CONTINUOUS
 62
    30
 10
-375.0000000000002
 20
-619.9999999999998
 30
0.0
 11
-375.0000000000002
 21
-995.4550899999995
 31
0.0
  0
LINE
  5
3C1
  8
SIZE
  6
CONTINUOUS
 62
    30
 10
362.9999999999998
 20
-975.4550899999998
 30
0.0
 11
-363.0000000000002
 21
-975.4550899999998
 31
0.0
  0
CIRCLE
  5
3C2
  8
SIZE
  6
CONTINUOUS
 62
    30
 10
374.9999999999998
 20
-975.4550899999998
 30
0.0
 40
6.0
  0
LINE
  5
3C3
  8
SIZE
  6
CONTINUOUS
 62
    30
 10
374.9999999999998
 20
-975.4550899999998
 30
0.0
 11
362.9999999999998
 21
-975.4550899999998
 31
0.0
  0
CIRCLE
  5
3C4
  8
SIZE
  6
CONTINUOUS
 62
    30
 10
-375.0000000000002
 20
-975.4550899999998
 30
0.0
 40
6.0
  0
LINE
  5
3C5
  8
SIZE
  6
CONTINUOUS
 62
    30
 10
-375.0000000000002
 20
-975.4550899999998
 30
0.0
 11
-363.0000000000002
 21
-975.4550899999998
 31
0.0
  0
TEXT
  5
3C6
  8
SIZE
  6
CONTINUOUS
 62
    30
 10
-82.28571428571429
 20
-950.4550899999998
 30
0.0
 40
64.0
  1
750
 41
0.9
 72
     1
 11
0.0
 21
-950.4550899999998
 31
0.0
  0
LINE
  5
3C7
  8
SIZE
  6
CONTINUOUS
 62
    30
 10
240.0000000000001
 20
-535.0
 30
0.0
 11
240.0000000000001
 21
-868.01834
 31
0.0
  0
LINE
  5
3C8
  8
SIZE
  6
CONTINUOUS
 62
    30
 10
-239.9999999999999
 20
-535.0
 30
0.0
 11
-239.9999999999999
 21
-868.01834
 31
0.0
  0
LINE
  5
3C9
  8
SIZE
  6
CONTINUOUS
 62
    30
 10
228.0
 20
-848.01834
 30
0.0
 11
-227.9999999999999
 21
-848.01834
 31
0.0
  0
CIRCLE
  5
3CA
  8
SIZE
  6
CONTINUOUS
 62
    30
 10
240.0000000000001
 20
-848.01834
 30
0.0
 40
6.0
  0
LINE
  5
3CB
  8
SIZE
  6
CONTINUOUS
 62
    30
 10
240.0000000000001
 20
-848.01834
 30
0.0
 11
228.0
 21
-848.01834
 31
0.0
  0
CIRCLE
  5
3CC
  8
SIZE
  6
CONTINUOUS
 62
    30
 10
-239.9999999999999
 20
-848.01834
 30
0.0
 40
6.0
  0
LINE
  5
3CD
  8
SIZE
  6
CONTINUOUS
 62
    30
 10
-239.9999999999999
 20
-848.01834
 30
0.0
 11
-227.9999999999999
 21
-848.01834
 31
0.0
  0
TEXT
  5
3CE
  8
SIZE
  6
CONTINUOUS
 62
    30
 10
-82.28571428571429
 20
-823.01834
 30
0.0
 40
64.0
  1
480
 41
0.9
 72
     1
 11
0.0
 21
-823.01834
 31
0.0
  0
LINE
  5
3CF
  8
SIZE
  6
CONTINUOUS
 62
    30
 10
279.9999999999998
 20
-259.9999999999999
 30
0.0
 11
890.3482799999999
 21
-259.9999999999999
 31
0.0
  0
LINE
  5
3D0
  8
SIZE
  6
CONTINUOUS
 62
    30
 10
394.9999999999998
 20
-599.9999999999998
 30
0.0
 11
890.3482799999999
 21
-599.9999999999998
 31
0.0
  0
LINE
  5
3D1
  8
SIZE
  6
CONTINUOUS
 62
    30
 10
870.3482799999999
 20
-271.9999999999999
 30
0.0
 11
870.3482799999999
 21
-588.0
 31
0.0
  0
CIRCLE
  5
3D2
  8
SIZE
  6
CONTINUOUS
 62
    30
 10
870.3482799999999
 20
-259.9999999999999
 30
0.0
 40
6.0
  0
LINE
  5
3D3
  8
SIZE
  6
CONTINUOUS
 62
    30
 10
870.3482799999999
 20
-259.9999999999999
 30
0.0
 11
870.3482799999999
 21
-271.9999999999999
 31
0.0
  0
CIRCLE
  5
3D4
  8
SIZE
  6
CONTINUOUS
 62
    30
 10
870.3482799999999
 20
-599.9999999999998
 30
0.0
 40
6.0
  0
LINE
  5
3D5
  8
SIZE
  6
CONTINUOUS
 62
    30
 10
870.3482799999999
 20
-599.9999999999998
 30
0.0
 11
870.3482799999999
 21
-588.0
 31
0.0
  0
TEXT
  5
3D6
  8
SIZE
  6
CONTINUOUS
 62
    30
 10
845.3482799999999
 20
-512.2857142857143
 30
0.0
 40
64.0
  1
340
 50
90.0
 41
0.9
 72
     1
 11
845.3482799999999
 21
-430.0
 31
0.0
  0
LINE
  5
3D7
  8
SIZE
  6
CONTINUOUS
 62
    30
 10
394.9999999999998
 20
-599.9999999999998
 30
0.0
 11
601.8573029999999
 21
-599.9999999999998
 31
0.0
  0
LINE
  5
3D8
  8
SIZE
  6
CONTINUOUS
 62
    30
 10
279.9999999999998
 20
-494.9999999999997
 30
0.0
 11
601.8573029999999
 21
-494.9999999999997
 31
0.0
  0
LINE
  5
3D9
  8
SIZE
  6
CONTINUOUS
 62
    30
 10
581.8573029999998
 20
-588.0
 30
0.0
 11
581.8573029999998
 21
-506.9999999999998
 31
0.0
  0
LINE
  5
3DA
  8
SIZE
  6
CONTINUOUS
 62
    30
 10
581.8573029999998
 20
-809.5720749999998
 30
0.0
 11
581.8573029999998
 21
-599.9999999999998
 31
0.0
  0
TEXT
  5
3DB
  8
SIZE
  6
CONTINUOUS
 62
    30
 10
556.8573029999998
 20
-802.4006459999999
 30
0.0
 40
64.0
  1
105
 50
90.0
 41
0.9
 72
     1
 11
556.8573029999998
 21
-716.000646
 31
0.0
  0
CIRCLE
  5
3DC
  8
SIZE
  6
CONTINUOUS
 62
    30
 10
581.8573029999998
 20
-599.9999999999998
 30
0.0
 40
6.0
  0
LINE
  5
3DD
  8
SIZE
  6
CONTINUOUS
 62
    30
 10
581.8573029999998
 20
-599.9999999999998
 30
0.0
 11
581.8573029999998
 21
-588.0
 31
0.0
  0
CIRCLE
  5
3DE
  8
SIZE
  6
CONTINUOUS
 62
    30
 10
581.8573029999998
 20
-494.9999999999997
 30
0.0
 40
6.0
  0
LINE
  5
3DF
  8
SIZE
  6
CONTINUOUS
 62
    30
 10
581.8573029999998
 20
-494.9999999999997
 30
0.0
 11
581.8573029999998
 21
-506.9999999999998
 31
0.0
  0
LINE
  5
3E0
  8
SIZE
  6
CONTINUOUS
 62
    30
 10
-394.9999999999998
 20
0.0
 30
0.0
 11
-769.9895260000001
 21
0.0
 31
0.0
  0
LINE
  5
3E1
  8
SIZE
  6
CONTINUOUS
 62
    30
 10
-394.9999999999998
 20
-599.9999999999998
 30
0.0
 11
-769.9895260000001
 21
-599.9999999999998
 31
0.0
  0
LINE
  5
3E2
  8
SIZE
  6
CONTINUOUS
 62
    30
 10
-749.9895260000001
 20
-12.0
 30
0.0
 11
-749.9895260000001
 21
-588.0
 31
0.0
  0
CIRCLE
  5
3E3
  8
SIZE
  6
CONTINUOUS
 62
    30
 10
-749.9895260000001
 20
0.0
 30
0.0
 40
6.0
  0
LINE
  5
3E4
  8
SIZE
  6
CONTINUOUS
 62
    30
 10
-749.9895260000001
 20
0.0
 30
0.0
 11
-749.9895260000001
 21
-12.0
 31
0.0
  0
CIRCLE
  5
3E5
  8
SIZE
  6
CONTINUOUS
 62
    30
 10
-749.9895260000001
 20
-599.9999999999998
 30
0.0
 40
6.0
  0
LINE
  5
3E6
  8
SIZE
  6
CONTINUOUS
 62
    30
 10
-749.9895260000001
 20
-599.9999999999998
 30
0.0
 11
-749.9895260000001
 21
-588.0
 31
0.0
  0
TEXT
  5
3E7
  8
SIZE
  6
CONTINUOUS
 62
    30
 10
-774.9895260000001
 20
-383.6571428571428
 30
0.0
 40
64.0
  1
600
 50
90.0
 41
0.9
 72
     1
 11
-774.9895260000001
 21
-300.0
 31
0.0
  0
LINE
  5
3E8
  8
SIZE
  6
CONTINUOUS
 62
    30
 10
394.9999999999998
 20
-599.9999999999998
 30
0.0
 11
734.0636609999997
 21
-599.9999999999998
 31
0.0
  0
LINE
  5
3E9
  8
SIZE
  6
CONTINUOUS
 62
    30
 10
394.9999999999998
 20
-200.0
 30
0.0
 11
734.0636609999997
 21
-200.0
 31
0.0
  0
LINE
  5
3EA
  8
SIZE
  6
CONTINUOUS
 62
    30
 10
714.0636609999995
 20
-588.0
 30
0.0
 11
714.0636609999995
 21
-211.9999999999999
 31
0.0
  0
CIRCLE
  5
3EB
  8
SIZE
  6
CONTINUOUS
 62
    30
 10
714.0636609999995
 20
-599.9999999999998
 30
0.0
 40
6.0
  0
LINE
  5
3EC
  8
SIZE
  6
CONTINUOUS
 62
    30
 10
714.0636609999995
 20
-599.9999999999998
 30
0.0
 11
714.0636609999995
 21
-588.0
 31
0.0
  0
CIRCLE
  5
3ED
  8
SIZE
  6
CONTINUOUS
 62
    30
 10
714.0636609999995
 20
-200.0
 30
0.0
 40
6.0
  0
LINE
  5
3EE
  8
SIZE
  6
CONTINUOUS
 62
    30
 10
714.0636609999995
 20
-200.0
 30
0.0
 11
714.0636609999995
 21
-211.9999999999999
 31
0.0
  0
TEXT
  5
3EF
  8
SIZE
  6
CONTINUOUS
 62
    30
 10
689.0636609999995
 20
-482.2857142857139
 30
0.0
 40
64.0
  1
400
 50
90.0
 41
0.9
 72
     1
 11
689.0636609999995
 21
-399.9999999999996
 31
0.0
  0
LINE
  5
3F0
  8
SIZE
  6
CONTINUOUS
 62
    30
 10
394.9999999999998
 20
-200.0
 30
0.0
 11
734.0636609999997
 21
-200.0
 31
0.0
  0
LINE
  5
3F1
  8
SIZE
  6
CONTINUOUS
 62
    30
 10
93.9995909999999
 20
-144.9999999999999
 30
0.0
 11
734.0636609999997
 21
-144.9999999999999
 31
0.0
  0
LINE
  5
3F2
  8
SIZE
  6
CONTINUOUS
 62
    30
 10
714.0636609999995
 20
-211.9999999999999
 30
0.0
 11
714.0636609999995
 21
-223.9999999999998
 31
0.0
  0
LINE
  5
3F3
  8
SIZE
  6
CONTINUOUS
 62
    30
 10
714.0636609999995
 20
-132.9999999999998
 30
0.0
 11
714.0636609999995
 21
-120.9999999999999
 31
0.0
  0
LINE
  5
3F4
  8
SIZE
  6
CONTINUOUS
 62
    30
 10
714.0636609999995
 20
33.05318299999998
 30
0.0
 11
714.0636609999995
 21
-144.9999999999999
 31
0.0
  0
TEXT
  5
3F5
  8
SIZE
  6
CONTINUOUS
 62
    30
 10
689.0636609999995
 20
-93.43253085714285
 30
0.0
 40
64.0
  1
55
 50
90.0
 41
0.9
 72
     1
 11
689.0636609999995
 21
-38.57538799999999
 31
0.0
  0
LINE
  5
3F6
  8
SIZE
  6
CONTINUOUS
 62
    30
 10
714.0636609999995
 20
-200.0
 30
0.0
 11
714.0636609999995
 21
-144.9999999999999
 31
0.0
  0
LINE
  5
3F7
  8
SIZE
  6
CONTINUOUS
 62
    30
 10
714.0636609999995
 20
-200.0
 30
0.0
 11
714.0636609999995
 21
-144.9999999999999
 31
0.0
  0
CIRCLE
  5
3F8
  8
SIZE
  6
CONTINUOUS
 62
    30
 10
714.0636609999995
 20
-200.0
 30
0.0
 40
6.0
  0
LINE
  5
3F9
  8
SIZE
  6
CONTINUOUS
 62
    30
 10
714.0636609999995
 20
-200.0
 30
0.0
 11
714.0636609999995
 21
-211.9999999999999
 31
0.0
  0
CIRCLE
  5
3FA
  8
SIZE
  6
CONTINUOUS
 62
    30
 10
714.0636609999995
 20
-144.9999999999999
 30
0.0
 40
6.0
  0
LINE
  5
3FB
  8
SIZE
  6
CONTINUOUS
 62
    30
 10
714.0636609999995
 20
-144.9999999999999
 30
0.0
 11
714.0636609999995
 21
-132.9999999999998
 31
0.0
  0
LINE
  5
3FC
  8
SIZE
  6
CONTINUOUS
 62
    30
 10
394.9999999999998
 20
-200.0
 30
0.0
 11
598.3176579999999
 21
-200.0
 31
0.0
  0
LINE
  5
3FD
  8
SIZE
  6
CONTINUOUS
 62
    30
 10
93.9995909999999
 20
-184.9999999999999
 30
0.0
 11
598.3176579999999
 21
-184.9999999999999
 31
0.0
  0
LINE
  5
3FE
  8
SIZE
  6
CONTINUOUS
 62
    30
 10
578.3176579999996
 20
-211.9999999999999
 30
0.0
 11
578.3176579999996
 21
-223.9999999999998
 31
0.0
  0
LINE
  5
3FF
  8
SIZE
  6
CONTINUOUS
 62
    30
 10
578.3176579999996
 20
-172.9999999999999
 30
0.0
 11
578.3176579999996
 21
-160.9999999999999
 31
0.0
  0
LINE
  5
400
  8
SIZE
  6
CONTINUOUS
 62
    30
 10
578.3176579999996
 20
-18.869566
 30
0.0
 11
578.3176579999996
 21
-184.9999999999999
 31
0.0
  0
TEXT
  5
401
  8
SIZE
  6
CONTINUOUS
 62
    30
 10
553.3176579999996
 20
-143.9838515714286
 30
0.0
 40
64.0
  1
15
 50
90.0
 41
0.9
 72
     1
 11
553.3176579999996
 21
-85.01242300000001
 31
0.0
  0
LINE
  5
402
  8
SIZE
  6
CONTINUOUS
 62
    30
 10
578.3176579999996
 20
-200.0
 30
0.0
 11
578.3176579999996
 21
-184.9999999999999
 31
0.0
  0
LINE
  5
403
  8
SIZE
  6
CONTINUOUS
 62
    30
 10
578.3176579999996
 20
-200.0
 30
0.0
 11
578.3176579999996
 21
-184.9999999999999
 31
0.0
  0
CIRCLE
  5
404
  8
SIZE
  6
CONTINUOUS
 62
    30
 10
578.3176579999996
 20
-200.0
 30
0.0
 40
6.0
  0
LINE
  5
405
  8
SIZE
  6
CONTINUOUS
 62
    30
 10
578.3176579999996
 20
-200.0
 30
0.0
 11
578.3176579999996
 21
-211.9999999999999
 31
0.0
  0
CIRCLE
  5
406
  8
SIZE
  6
CONTINUOUS
 62
    30
 10
578.3176579999996
 20
-184.9999999999999
 30
0.0
 40
6.0
  0
LINE
  5
407
  8
SIZE
  6
CONTINUOUS
 62
    30
 10
578.3176579999996
 20
-184.9999999999999
 30
0.0
 11
578.3176579999996
 21
-172.9999999999999
 31
0.0
  0
LINE
  5
408
  8
SIZE
  6
CONTINUOUS
 62
    30
 10
240.0000000000001
 20
-159.9999999999999
 30
0.0
 11
240.0000000000001
 21
500.4622349999999
 31
0.0
  0
LINE
  5
409
  8
SIZE
  6
CONTINUOUS
 62
    30
 10
-239.9999999999999
 20
-159.9999999999999
 30
0.0
 11
-239.9999999999999
 21
500.4622349999999
 31
0.0
  0
LINE
  5
40A
  8
SIZE
  6
CONTINUOUS
 62
    30
 10
228.0
 20
480.4622349999999
 30
0.0
 11
-227.9999999999999
 21
480.4622349999999
 31
0.0
  0
CIRCLE
  5
40B
  8
SIZE
  6
CONTINUOUS
 62
    30
 10
240.0000000000001
 20
480.4622349999999
 30
0.0
 40
6.0
  0
LINE
  5
40C
  8
SIZE
  6
CONTINUOUS
 62
    30
 10
240.0000000000001
 20
480.4622349999999
 30
0.0
 11
228.0
 21
480.4622349999999
 31
0.0
  0
CIRCLE
  5
40D
  8
SIZE
  6
CONTINUOUS
 62
    30
 10
-239.9999999999999
 20
480.4622349999999
 30
0.0
 40
6.0
  0
LINE
  5
40E
  8
SIZE
  6
CONTINUOUS
 62
    30
 10
-239.9999999999999
 20
480.4622349999999
 30
0.0
 11
-227.9999999999999
 21
480.4622349999999
 31
0.0
  0
TEXT
  5
40F
  8
SIZE
  6
CONTINUOUS
 62
    30
 10
-82.28571428571429
 20
505.4622349999999
 30
0.0
 40
64.0
  1
480
 41
0.9
 72
     1
 11
0.0
 21
505.4622349999999
 31
0.0
  0
LINE
  5
410
  8
SIZE
  6
CONTINUOUS
 62
    30
 10
10.00000000000011
 20
-86.66336699999982
 30
0.0
 11
10.00000000000011
 21
421.3919679999999
 31
0.0
  0
LINE
  5
411
  8
SIZE
  6
CONTINUOUS
 62
    30
 10
-10.0
 20
-86.66336699999982
 30
0.0
 11
-10.0
 21
421.3919679999999
 31
0.0
  0
LINE
  5
412
  8
SIZE
  6
CONTINUOUS
 62
    30
 10
22.0
 20
401.3919679999999
 30
0.0
 11
34.0
 21
401.3919679999999
 31
0.0
  0
LINE
  5
413
  8
SIZE
  6
CONTINUOUS
 62
    30
 10
-22.00000000000017
 20
401.3919679999999
 30
0.0
 11
-33.99999999999989
 21
401.3919679999999
 31
0.0
  0
LINE
  5
414
  8
SIZE
  6
CONTINUOUS
 62
    30
 10
-426.1580250000001
 20
401.3919679999999
 30
0.0
 11
-10.0
 21
401.3919679999999
 31
0.0
  0
TEXT
  5
415
  8
SIZE
  6
CONTINUOUS
 62
    30
 10
-409.3865968571429
 20
426.3919679999999
 30
0.0
 40
64.0
  1
20
 41
0.9
 72
     1
 11
-354.529454
 21
426.3919679999999
 31
0.0
  0
LINE
  5
416
  8
SIZE
  6
CONTINUOUS
 62
    30
 10
10.00000000000011
 20
401.3919679999999
 30
0.0
 11
-10.0
 21
401.3919679999999
 31
0.0
  0
LINE
  5
417
  8
SIZE
  6
CONTINUOUS
 62
    30
 10
10.00000000000011
 20
401.3919679999999
 30
0.0
 11
-10.0
 21
401.3919679999999
 31
0.0
  0
CIRCLE
  5
418
  8
SIZE
  6
CONTINUOUS
 62
    30
 10
10.00000000000011
 20
401.3919679999999
 30
0.0
 40
6.0
  0
LINE
  5
419
  8
SIZE
  6
CONTINUOUS
 62
    30
 10
10.00000000000011
 20
401.3919679999999
 30
0.0
 11
22.0
 21
401.3919679999999
 31
0.0
  0
CIRCLE
  5
41A
  8
SIZE
  6
CONTINUOUS
 62
    30
 10
-10.0
 20
401.3919679999999
 30
0.0
 40
6.0
  0
LINE
  5
41B
  8
SIZE
  6
CONTINUOUS
 62
    30
 10
-10.0
 20
401.3919679999999
 30
0.0
 11
-22.00000000000017
 21
401.3919679999999
 31
0.0
  0
LINE
  5
41C
  8
SIZE
  6
CONTINUOUS
 62
    30
 10
74.00040899999988
 20
-124.9999999999998
 30
0.0
 11
74.00040899999988
 21
294.703867
 31
0.0
  0
LINE
  5
41D
  8
SIZE
  6
CONTINUOUS
 62
    30
 10
-73.99959099999967
 20
-124.9999999999998
 30
0.0
 11
-73.99959099999967
 21
294.703867
 31
0.0
  0
LINE
  5
41E
  8
SIZE
  6
CONTINUOUS
 62
    30
 10
62.00040899999988
 20
274.703867
 30
0.0
 11
-61.99959100000001
 21
274.703867
 31
0.0
  0
LINE
  5
41F
  8
SIZE
  6
CONTINUOUS
 62
    30
 10
485.7648249999997
 20
274.703867
 30
0.0
 11
74.00040899999988
 21
274.703867
 31
0.0
  0
TEXT
  5
420
  8
SIZE
  6
CONTINUOUS
 62
    30
 10
259.1648254285712
 20
299.7038669999997
 30
0.0
 40
64.0
  1
φ148
 41
0.9
 72
     1
 11
366.1362539999998
 21
299.7038669999997
 31
0.0
  0
CIRCLE
  5
421
  8
SIZE
  6
CONTINUOUS
 62
    30
 10
74.00040899999988
 20
274.703867
 30
0.0
 40
6.0
  0
LINE
  5
422
  8
SIZE
  6
CONTINUOUS
 62
    30
 10
74.00040899999988
 20
274.703867
 30
0.0
 11
62.00040899999988
 21
274.703867
 31
0.0
  0
CIRCLE
  5
423
  8
SIZE
  6
CONTINUOUS
 62
    30
 10
-73.99959099999967
 20
274.703867
 30
0.0
 40
6.0
  0
LINE
  5
424
  8
SIZE
  6
CONTINUOUS
 62
    30
 10
-73.99959099999967
 20
274.703867
 30
0.0
 11
-61.99959100000001
 21
274.703867
 31
0.0
  0
LINE
  5
425
  8
SIZE
  6
CONTINUOUS
 62
    30
 39
50.0
 10
-426.1580250000001
 20
401.3919679999999
 30
0.0
 11
-712.1530289999992
 21
401.3919679999999
 31
0.0
  0
TEXT
  5
426
  8
ETC
  6
CONTINUOUS
 62
    61
 10
698.3881040528252
 20
508.7854917762613
 30
0.0
 40
64.0
  1
換気扇
 41
0.9
  0
TEXT
  5
427
  8
ETC
  6
CONTINUOUS
 62
    61
 10
706.3038110528249
 20
605.6328597762612
 30
0.0
 40
64.0
  1
V-754K7_3
 41
0.9
  0
TEXT
  5
428
  8
ETC
  6
CONTINUOUS
 62
    61
 10
847.9480760651106
 20
356.309886858864
 30
0.0
 40
50.0
  1
V-754KD6
 41
0.9
  0
TEXT
  5
429
  8
ETC
  6
CONTINUOUS
 62
    61
 10
847.1121616629591
 20
422.6862413332228
 30
0.0
 40
50.0
  1
V-754K6
 41
0.9
  0
LINE
  5
42A
  8
NOTE
  6
CONTINUOUS
 62
     4
 10
-192.0000000000002
 20
-219.9999999999997
 30
0.0
 11
-192.0000000000002
 21
-179.9999999999999
 31
0.0
  0
CIRCLE
  5
42B
  8
SIZE
  6
CONTINUOUS
 62
    30
 39
50.0
 10
-375.0000000000002
 20
187.1259076411705
 30
0.0
 40
6.0
  0
CIRCLE
  5
42C
  8
SIZE
  6
CONTINUOUS
 62
    30
 39
50.0
 10
-192.0000000000002
 20
187.1259076411705
 30
0.0
 40
6.0
  0
LINE
  5
42D
  8
SIZE
  6
CONTINUOUS
 10
-192.0000000000002
 20
-159.9999999999999
 30
0.0
 11
-192.0000000000002
 21
207.1259076411706
 31
0.0
  0
LINE
  5
42E
  8
SIZE
  6
CONTINUOUS
 10
-375.0000000000002
 20
19.99999999999999
 30
0.0
 11
-375.0000000000002
 21
207.1259076411706
 31
0.0
  0
LINE
  5
42F
  8
SIZE
  6
CONTINUOUS
 10
-192.0000000000002
 20
187.1259076411705
 30
0.0
 11
-375.0000000000002
 21
187.1259076411705
 31
0.0
  0
LINE
  5
430
  8
SIZE
  6
CONTINUOUS
 10
-375.0000000000002
 20
187.1259076411705
 30
0.0
 11
-574.1428571428569
 21
187.1259076411705
 31
0.0
  0
TEXT
  5
431
  8
SIZE
  6
CONTINUOUS
 10
-549.1428571428569
 20
212.1259076411706
 30
0.0
 40
64.0
  1
183
 41
0.9
  0
TEXT
  5
54C
  8
ETC
  6
CONTINUOUS
 62
    61
 10
847.9480760651106
 20
219.6892237559759
 30
0.0
 40
50.0
  1
V-754KD7
 41
0.9
  0
TEXT
  5
54D
  8
ETC
  6
CONTINUOUS
 62
    61
 10
847.1121616629591
 20
286.0655782303347
 30
0.0
 40
50.0
  1
V-754K7
 41
0.9
  0
ENDSEC
  0
EOF
