  0
SECTION
  2
HEADER
  9
$ACADVER
  1
AC1009
  9
$DWGCODEPAGE
  3
ansi_932
  9
$INSBASE
 10
0.0
 20
0.0
 30
0.0
  9
$EXTMIN
 10
-562.8570390316399
 20
-1281.097401377161
 30
-0.0015257624927045
  9
$EXTMAX
 10
1776.036084217525
 20
640.2282795638639
 30
50.00152599532333
  9
$LIMMIN
 10
-2970.0
 20
-2100.0
  9
$LIMMAX
 10
2970.0
 20
2100.0
  9
$ORTHOMODE
 70
     1
  9
$REGENMODE
 70
     0
  9
$FILLMODE
 70
     1
  9
$QTEXTMODE
 70
     0
  9
$MIRRTEXT
 70
     0
  9
$DRAGMODE
 70
     2
  9
$LTSCALE
 40
20.0
  9
$OSMODE
 70
    37
  9
$ATTMODE
 70
     1
  9
$TEXTSIZE
 40
64.0
  9
$TRACEWID
 40
0.05
  9
$TEXTSTYLE
  7
STANDARD
  9
$CLAYER
  8
ETC
  9
$CELTYPE
  6
CONTINUOUS
  9
$CECOLOR
 62
     4
  9
$DIMSCALE
 40
1.0
  9
$DIMASZ
 40
12.0
  9
$DIMEXO
 40
20.0
  9
$DIMDLI
 40
200.0
  9
$DIMRND
 40
0.0
  9
$DIMDLE
 40
0.0
  9
$DIMEXE
 40
20.0
  9
$DIMTP
 40
0.0
  9
$DIMTM
 40
0.0
  9
$DIMTXT
 40
64.0
  9
$DIMCEN
 40
0.09
  9
$DIMTSZ
 40
0.0
  9
$DIMTOL
 70
     0
  9
$DIMLIM
 70
     0
  9
$DIMTIH
 70
     0
  9
$DIMTOH
 70
     0
  9
$DIMSE1
 70
     0
  9
$DIMSE2
 70
     0
  9
$DIMTAD
 70
     1
  9
$DIMZIN
 70
     8
  9
$DIMBLK
  1
DOT1
  9
$DIMASO
 70
     1
  9
$DIMSHO
 70
     0
  9
$DIMPOST
  1

  9
$DIMAPOST
  1

  9
$DIMALT
 70
     0
  9
$DIMALTD
 70
     2
  9
$DIMALTF
 40
25.4
  9
$DIMLFAC
 40
1.0
  9
$DIMTOFL
 70
     1
  9
$DIMTVP
 40
0.0
  9
$DIMTIX
 70
     1
  9
$DIMSOXD
 70
     0
  9
$DIMSAH
 70
     1
  9
$DIMBLK1
  1
ORIGIN
  9
$DIMBLK2
  1
ORIGIN
  9
$DIMSTYLE
  2
STANDARD
  9
$DIMCLRD
 70
     7
  9
$DIMCLRE
 70
     7
  9
$DIMCLRT
 70
     7
  9
$DIMTFAC
 40
1.0
  9
$DIMGAP
 40
25.0
  9
$LUNITS
 70
     2
  9
$LUPREC
 70
     4
  9
$SKETCHINC
 40
0.1
  9
$FILLETRAD
 40
4.0
  9
$AUNITS
 70
     1
  9
$AUPREC
 70
     3
  9
$MENU
  1
ACAD
  9
$ELEVATION
 40
0.0
  9
$PELEVATION
 40
0.0
  9
$THICKNESS
 40
50.0
  9
$LIMCHECK
 70
     0
  9
$CHAMFERA
 40
0.0
  9
$CHAMFERB
 40
0.0
  9
$SKPOLY
 70
     0
  9
$TDCREATE
 40
2453091.670767118
  9
$TDUPDATE
 40
2457485.589573403
  9
$TDINDWG
 40
0.038416794
  9
$TDUSRTIMER
 40
0.038416794
  9
$USRTIMER
 70
     1
  9
$ANGBASE
 50
0.0
  9
$ANGDIR
 70
     0
  9
$PDMODE
 70
     3
  9
$PDSIZE
 40
-2.0
  9
$PLINEWID
 40
0.0
  9
$COORDS
 70
     1
  9
$SPLFRAME
 70
     0
  9
$SPLINETYPE
 70
     6
  9
$SPLINESEGS
 70
     8
  9
$ATTDIA
 70
     0
  9
$ATTREQ
 70
     1
  9
$HANDLING
 70
     1
  9
$HANDSEED
  5
36F
  9
$SURFTAB1
 70
     6
  9
$SURFTAB2
 70
     6
  9
$SURFTYPE
 70
     6
  9
$SURFU
 70
     6
  9
$SURFV
 70
     6
  9
$UCSNAME
  2

  9
$UCSORG
 10
0.0
 20
0.0
 30
0.0
  9
$UCSXDIR
 10
1.0
 20
0.0
 30
0.0
  9
$UCSYDIR
 10
0.0
 20
1.0
 30
0.0
  9
$PUCSNAME
  2

  9
$PUCSORG
 10
0.0
 20
0.0
 30
0.0
  9
$PUCSXDIR
 10
1.0
 20
0.0
 30
0.0
  9
$PUCSYDIR
 10
0.0
 20
1.0
 30
0.0
  9
$USERI1
 70
     0
  9
$USERI2
 70
     0
  9
$USERI3
 70
     0
  9
$USERI4
 70
     0
  9
$USERI5
 70
     0
  9
$USERR1
 40
20.0
  9
$USERR2
 40
0.0
  9
$USERR3
 40
0.0
  9
$USERR4
 40
0.0
  9
$USERR5
 40
0.0
  9
$WORLDVIEW
 70
     1
  9
$SHADEDGE
 70
     3
  9
$SHADEDIF
 70
    70
  9
$TILEMODE
 70
     1
  9
$MAXACTVP
 70
    48
  9
$PLIMCHECK
 70
     0
  9
$PEXTMIN
 10
-1.000000000000000E+20
 20
-1.000000000000000E+20
 30
-1.000000000000000E+20
  9
$PEXTMAX
 10
1.000000000000000E+20
 20
1.000000000000000E+20
 30
1.000000000000000E+20
  9
$PLIMMIN
 10
0.0
 20
0.0
  9
$PLIMMAX
 10
12.0
 20
9.0
  9
$UNITMODE
 70
     0
  9
$VISRETAIN
 70
     0
  9
$PLINEGEN
 70
     0
  9
$PSLTSCALE
 70
     0
  0
ENDSEC
  0
SECTION
  2
TABLES
  0
TABLE
  2
VPORT
 70
     1
  0
VPORT
  2
*ACTIVE
 70
     0
 10
0.0
 20
0.0
 11
1.0
 21
1.0
 12
663.3255422175991
 22
-383.3115216160488
 13
0.0
 23
0.0
 14
1.0
 24
1.0
 15
0.0
 25
0.0
 16
0.0
 26
0.0
 36
1.0
 17
0.0
 27
0.0
 37
0.0
 40
2174.885482553643
 41
1.812051649928264
 42
50.0
 43
0.0
 44
0.0
 50
0.0
 51
0.0
 71
     0
 72
  1000
 73
     1
 74
     0
 75
     0
 76
     0
 77
     0
 78
     0
  0
ENDTAB
  0
TABLE
  2
LTYPE
 70
     3
  0
LTYPE
  2
CONTINUOUS
 70
     0
  3
実線
 72
    65
 73
     0
 40
0.0
  0
LTYPE
  2
DASHDOT
 70
     0
  3
____ _ ____ _ ____ _ ____ _ ____ _ ____ _ ____
 72
    65
 73
     4
 40
5.5
 49
4.0
 49
-0.6
 49
0.3
 49
-0.6
  0
LTYPE
  2
CONTINOUS
 70
     0
  3
Solid line
 72
    65
 73
     0
 40
0.0
  0
ENDTAB
  0
TABLE
  2
LAYER
 70
    12
  0
LAYER
  2
0
 70
     0
 62
     7
  6
CONTINUOUS
  0
LAYER
  2
NOTE
 70
     0
 62
     4
  6
CONTINUOUS
  0
LAYER
  2
SIZE
 70
     0
 62
    30
  6
CONTINUOUS
  0
LAYER
  2
BASIS
 70
     0
 62
     6
  6
DASHDOT
  0
LAYER
  2
OUTLINE
 70
     0
 62
     3
  6
CONTINUOUS
  0
LAYER
  2
DETAIL
 70
     0
 62
     5
  6
CONTINUOUS
  0
LAYER
  2
ARRANGE
 70
     0
 62
     1
  6
CONTINUOUS
  0
LAYER
  2
DEFPOINTS
 70
     0
 62
     7
  6
CONTINUOUS
  0
LAYER
  2
ETC
 70
     0
 62
    61
  6
CONTINUOUS
  0
LAYER
  2
FIX
 70
     0
 62
    11
  6
CONTINUOUS
  0
LAYER
  2
SERVICESPACE
 70
     0
 62
     2
  6
DASHDOT
  0
LAYER
  2
SYMBOLLINE
 70
     0
 62
    15
  6
CONTINUOUS
  0
ENDTAB
  0
TABLE
  2
STYLE
 70
     2
  0
STYLE
  2
STANDARD
 70
     0
 40
64.0
 41
0.9
 50
0.0
 71
     0
 42
64.0
  3
SIMPLEX.shx
  4
BIGFONT.shx
  0
STYLE
  2
ANNOTATIVE
 70
     0
 40
0.0
 41
1.0
 50
0.0
 71
     0
 42
0.2
  3
txt
  4

  0
ENDTAB
  0
TABLE
  2
VIEW
 70
     1
  0
VIEW
  2
ALL
 70
     0
 40
4282.619807999998
 10
0.0
 20
41.30990399999999
 41
5940.0
 11
0.0
 21
0.0
 31
1.0
 12
0.0
 22
0.0
 32
0.0
 42
50.0
 43
0.0
 44
0.0
 50
0.0
 71
     0
  0
ENDTAB
  0
TABLE
  2
UCS
 70
     0
  0
ENDTAB
  0
TABLE
  2
APPID
 70
     5
  0
APPID
  2
ACAD
 70
     0
  0
APPID
  2
ACADANNOTATIVE
 70
     0
  0
APPID
  2
ACAD_MLEADERVER
 70
     0
  0
APPID
  2
AUTOCAD_POSTSCRIPT_FIGURE
 70
     0
  0
APPID
  2
ACAD_EXEMPT_FROM_CAD_STAND
 70
     0
  0
ENDTAB
  0
TABLE
  2
DIMSTYLE
 70
     2
  0
DIMSTYLE
  2
STANDARD
 70
     0
  3

  4

  5

  6

  7

 40
1.0
 41
0.18
 42
0.0625
 43
0.38
 44
0.18
 45
0.0
 46
0.0
 47
0.0
 48
0.0
140
0.18
141
0.09
142
0.0
143
25.4
144
1.0
145
0.0
146
1.0
147
0.09
 71
     0
 72
     0
 73
     1
 74
     1
 75
     0
 76
     0
 77
     0
 78
     0
170
     0
171
     2
172
     0
173
     0
174
     0
175
     0
176
     7
177
     7
178
     7
  0
DIMSTYLE
  2
ANNOTATIVE
 70
     0
  3

  4

  5

  6

  7

 40
1.0
 41
0.18
 42
0.0625
 43
0.38
 44
0.18
 45
0.0
 46
0.0
 47
0.0
 48
0.0
140
0.18
141
0.09
142
0.0
143
25.4
144
1.0
145
0.0
146
1.0
147
0.09
 71
     0
 72
     0
 73
     1
 74
     1
 75
     0
 76
     0
 77
     0
 78
     0
170
     0
171
     2
172
     0
173
     0
174
     0
175
     0
176
     0
177
     0
178
     0
  0
ENDTAB
  0
ENDSEC
  0
SECTION
  2
BLOCKS
  0
BLOCK
  8
0
  2
$MODEL_SPACE
 70
     0
 10
0.0
 20
0.0
 30
0.0
  3
$MODEL_SPACE
  1

  0
ENDBLK
  5
285
  8
0
  0
BLOCK
 67
     1
  8
0
  2
$PAPER_SPACE
 70
     0
 10
0.0
 20
0.0
 30
0.0
  3
$PAPER_SPACE
  1

  0
ENDBLK
  5
281
 67
     1
  8
0
  0
BLOCK
  8
0
  2
DOT1
 70
     0
 10
0.0
 20
0.0
 30
0.0
  3
DOT1
  1

  0
CIRCLE
  5
37
  8
SIZE
  6
CONTINUOUS
 62
     7
 10
0.0
 20
0.0
 30
0.0
 40
3.0
  0
ENDBLK
  5
38
  8
0
  0
BLOCK
  8
0
  2
_ORIGIN
 70
     0
 10
0.0
 20
0.0
 30
0.0
  3
_ORIGIN
  1

  0
CIRCLE
  5
3B
  8
0
  6
CONTINUOUS
 62
     7
 10
0.0
 20
0.0
 30
0.0
 40
0.5
  0
LINE
  5
3C
  8
0
  6
CONTINUOUS
 62
     7
 10
0.0
 20
0.0
 30
0.0
 11
-1.0
 21
0.0
 31
0.0
  0
ENDBLK
  5
3D
  8
0
  0
BLOCK
  8
0
  2
_NONE
 70
     0
 10
0.0
 20
0.0
 30
0.0
  3
_NONE
  1

  0
ENDBLK
  5
161
  8
0
 62
    30
  0
BLOCK
  8
0
  2
_OPEN30
 70
     0
 10
0.0
 20
0.0
 30
0.0
  3
_OPEN30
  1

  0
LINE
  5
163
  8
0
  6
BYBLOCK
 62
     0
 10
-1.0
 20
0.26794919
 30
0.0
 11
0.0
 21
0.0
 31
0.0
  0
LINE
  5
164
  8
0
  6
BYBLOCK
 62
     0
 10
0.0
 20
0.0
 30
0.0
 11
-1.0
 21
-0.26794919
 31
0.0
  0
LINE
  5
165
  8
0
  6
BYBLOCK
 62
     0
 10
0.0
 20
0.0
 30
0.0
 11
-1.0
 21
0.0
 31
0.0
  0
ENDBLK
  5
167
  8
0
 62
    30
  0
ENDSEC
  0
SECTION
  2
ENTITIES
  0
LINE
  5
40
  8
NOTE
  6
CONTINUOUS
 62
     4
 10
473.6905600000001
 20
76.09755499999999
 30
0.0
 11
289.999999
 21
-200.0
 31
0.0
  0
LINE
  5
41
  8
NOTE
  6
CONTINUOUS
 62
     4
 10
320.044152
 20
-173.592635
 30
0.0
 11
289.999999
 21
-200.0
 31
0.0
  0
LINE
  5
42
  8
NOTE
  6
CONTINUOUS
 62
     4
 10
289.999999
 20
-200.0
 30
0.0
 11
302.815317
 21
-162.108475
 31
0.0
  0
LINE
  5
43
  8
NOTE
  6
CONTINUOUS
 62
     4
 10
-149.744504
 20
-767.7748569999999
 30
0.0
 11
-414.1965069999999
 21
-767.7748569999999
 31
0.0
  0
TEXT
  5
44
  8
NOTE
  6
CONTINUOUS
 62
     4
 10
-399.6075289999999
 20
-745.856624
 30
0.0
 40
64.0
  1
4-φ8
 41
0.9
  0
POINT
  5
45
  8
ARRANGE
  6
CONTINUOUS
 62
     1
 10
0.0
 20
0.0
 30
0.0
  0
LINE
  5
46
  8
DETAIL
  6
CONTINUOUS
 62
     5
 10
219.999999
 20
-185.0
 30
0.0
 11
204.999999
 21
-185.0
 31
0.0
  0
TEXT
  5
47
  8
NOTE
  6
CONTINUOUS
 62
     4
 10
484.7999869999999
 20
109.275792
 30
0.0
 40
64.0
  1
AH 2×2-φ25
 41
0.9
  0
LINE
  5
48
  8
DETAIL
  6
CONTINOUS
 62
     5
 10
319.999999
 20
-599.9999999999999
 30
0.0
 11
319.999999
 21
-200.0
 31
0.0
  0
LINE
  5
49
  8
BASIS
  6
DASHDOT
 62
     6
 10
144.999999
 20
-220.650428
 30
0.0
 11
144.999999
 21
-109.121418
 31
0.0
  0
LINE
  5
4A
  8
DETAIL
  6
CONTINOUS
 62
     5
 10
319.999999
 20
-200.0
 30
0.0
 11
319.999999
 21
0.0
 31
0.0
  0
LINE
  5
4B
  8
DETAIL
  6
CONTINOUS
 62
     5
 10
374.9999989999999
 20
-200.0
 30
0.0
 11
374.9999989999999
 21
0.0
 31
0.0
  0
LINE
  5
4C
  8
DETAIL
  6
CONTINOUS
 62
     5
 10
374.9999989999999
 20
0.0
 30
0.0
 11
319.999999
 21
0.0
 31
0.0
  0
LINE
  5
4D
  8
DETAIL
  6
CONTINOUS
 62
     5
 10
414.3551249999999
 20
-200.0
 30
0.0
 11
-0.0000009999999975
 21
-200.0
 31
0.0
  0
LINE
  5
4E
  8
DETAIL
  6
CONTINOUS
 62
     5
 10
-0.0000009999999975
 20
-599.9999999999999
 30
0.0
 11
322.954291
 21
-599.9999999999999
 31
0.0
  0
LINE
  5
4F
  8
DETAIL
  6
CONTINOUS
 62
     5
 10
-0.0000009999999975
 20
-599.9999999999999
 30
0.0
 11
-0.0000009999999975
 21
-200.0
 31
0.0
  0
ARC
  5
50
  8
DETAIL
  6
CONTINOUS
 62
     5
 10
334.554076
 20
50.99999999999997
 30
0.0
 40
650.0
 50
271.361645
 51
291.643048
  0
LINE
  5
51
  8
DETAIL
  6
CONTINOUS
 62
     5
 10
596.218927
 20
-459.316701
 30
0.0
 11
430.2037769999999
 21
-211.419669
 31
0.0
  0
LINE
  5
52
  8
DETAIL
  6
CONTINOUS
 62
     5
 10
583.842687
 20
-542.4438749999998
 30
0.0
 11
599.9999989999999
 21
-482.143965
 31
0.0
  0
ARC
  5
53
  8
DETAIL
  6
CONTINOUS
 62
     5
 10
406.9389259999999
 20
-227.0
 30
0.0
 40
28.0
 50
33.80998199999992
 51
74.64111400000003
  0
ARC
  5
54
  8
DETAIL
  6
CONTINOUS
 62
     5
 10
572.9540759999998
 20
-474.8970320000001
 30
0.0
 40
28.0
 50
345.0
 51
33.80998199999992
  0
ARC
  5
55
  8
DETAIL
  6
CONTINOUS
 62
     5
 10
568.387874
 20
-538.30277
 30
0.0
 40
16.0
 50
291.643048
 51
345.0
  0
ARC
  5
56
  8
DETAIL
  6
CONTINUOUS
 62
     5
 10
232.99959
 20
-196.0
 30
0.0
 40
1.0
 50
0.0
 51
90.0
  0
LINE
  5
57
  8
DETAIL
  6
CONTINUOUS
 62
     5
 10
204.999999
 20
-195.0
 30
0.0
 11
223.714664
 21
-195.0
 31
0.0
  0
LINE
  5
58
  8
DETAIL
  6
CONTINUOUS
 62
     5
 10
233.99959
 20
-200.0
 30
0.0
 11
233.99959
 21
-196.0
 31
0.0
  0
LINE
  5
59
  8
DETAIL
  6
CONTINUOUS
 62
     5
 10
223.714664
 20
-195.0
 30
0.0
 11
232.99959
 21
-195.0
 31
0.0
  0
LINE
  5
5A
  8
DETAIL
  6
CONTINUOUS
 62
     5
 10
219.875077
 20
-184.968688
 30
0.0
 11
220.598812
 21
-185.0595099999999
 31
0.0
  0
ARC
  5
5B
  8
DETAIL
  6
CONTINUOUS
 62
     5
 10
219.99959
 20
-183.97647
 30
0.0
 40
1.0
 50
180.0
 51
262.8473309999988
  0
LINE
  5
5C
  8
DETAIL
  6
CONTINUOUS
 62
     5
 10
221.99959
 20
-189.4
 30
0.0
 11
221.99959
 21
-186.647059
 31
0.0
  0
ARC
  5
5D
  8
DETAIL
  6
CONTINUOUS
 62
     5
 10
231.99959
 20
-189.4
 30
0.0
 40
10.0
 50
180.0
 51
214.0557980000002
  0
ARC
  5
5E
  8
DETAIL
  6
CONTINUOUS
 62
     5
 10
220.39959
 20
-186.647059
 30
0.0
 40
1.6
 50
0.0
 51
82.84733100000093
  0
CIRCLE
  5
5F
  8
ARRANGE
  6
CONTINUOUS
 62
     1
 10
0.0
 20
0.0
 30
0.0
 40
40.0
  0
LINE
  5
6D
  8
NOTE
  6
CONTINUOUS
 62
     4
 10
-0.0000009999999975
 20
-280.0
 30
0.0
 11
-0.0000009999999975
 21
-240.0
 31
0.0
  0
LINE
  5
6E
  8
NOTE
  6
CONTINUOUS
 62
     4
 10
19.999999
 20
-260.0
 30
0.0
 11
-20.00000099999998
 21
-260.0
 31
0.0
  0
LINE
  5
6F
  8
NOTE
  6
CONTINUOUS
 62
     4
 10
-0.0000009999999975
 20
-514.9999999999998
 30
0.0
 11
-0.0000009999999975
 21
-474.9999999999999
 31
0.0
  0
LINE
  5
70
  8
NOTE
  6
CONTINUOUS
 62
     4
 10
19.999999
 20
-494.9999999999999
 30
0.0
 11
-20.00000099999998
 21
-494.9999999999999
 31
0.0
  0
LINE
  5
71
  8
NOTE
  6
CONTINUOUS
 62
     4
 10
254.999999
 20
-220.0
 30
0.0
 11
254.999999
 21
-180.0
 31
0.0
  0
LINE
  5
72
  8
NOTE
  6
CONTINUOUS
 62
     4
 10
274.999999
 20
-200.0
 30
0.0
 11
234.999999
 21
-200.0
 31
0.0
  0
LINE
  5
73
  8
NOTE
  6
CONTINUOUS
 62
     4
 10
289.999999
 20
-220.0
 30
0.0
 11
289.999999
 21
-180.0
 31
0.0
  0
LINE
  5
74
  8
NOTE
  6
CONTINUOUS
 62
     4
 10
309.9999989999999
 20
-200.0
 30
0.0
 11
269.999999
 21
-200.0
 31
0.0
  0
LINE
  5
76
  8
NOTE
  6
CONTINUOUS
 62
     4
 10
259.999999
 20
-200.0
 30
0.0
 11
233.5639020798808
 21
-200.0
 31
0.0
  0
LINE
  5
77
  8
NOTE
  6
CONTINUOUS
 62
     4
 10
473.6905600000001
 20
76.09755499999999
 30
0.0
 11
1057.622417999999
 21
76.09755499999999
 31
0.0
  0
CIRCLE
  5
78
  8
FIX
  6
CONTINUOUS
 62
    11
 10
-0.0000009999999975
 20
-260.0
 30
0.0
 40
4.0
  0
CIRCLE
  5
79
  8
FIX
  6
CONTINUOUS
 62
    11
 10
-0.0000009999999975
 20
-494.9999999999999
 30
0.0
 40
4.0
  0
CIRCLE
  5
7A
  8
FIX
  6
CONTINUOUS
 62
    11
 10
289.999999
 20
-200.0
 30
0.0
 40
12.5
  0
CIRCLE
  5
7B
  8
FIX
  6
CONTINUOUS
 62
    11
 10
254.999999
 20
-200.0
 30
0.0
 40
12.5
  0
LINE
  5
7C
  8
BASIS
  6
DASHDOT
 62
     6
 10
151.999999
 20
-213.652357
 30
0.0
 11
151.999999
 21
-109.121418
 31
0.0
  0
LINE
  5
7D
  8
BASIS
  6
DASHDOT
 62
     6
 10
144.999999
 20
-220.650428
 30
0.0
 11
144.999999
 21
-101.086921
 31
0.0
  0
LINE
  5
7E
  8
BASIS
  6
DASHDOT
 62
     6
 10
137.999999
 20
-213.652357
 30
0.0
 11
137.999999
 21
-109.121418
 31
0.0
  0
TEXT
  5
7F
  8
NOTE
  6
CONTINUOUS
 62
     4
 10
-547.7267
 20
53.18125199999994
 30
0.0
 40
64.0
  1
ダクト接続口可動寸法
 41
0.9
  0
TEXT
  5
80
  8
NOTE
  6
CONTINUOUS
 62
     4
 10
96.8185659999999
 20
-288.4751149999998
 30
0.0
 40
64.0
  1
EA
 41
0.9
  0
LINE
  5
82
  8
DETAIL
  6
CONTINUOUS
 62
     5
 10
322.954291
 20
-599.9999999999999
 30
0.0
 11
349.9999989999999
 21
-598.816454
 31
0.0
  0
ARC
  5
83
  8
DETAIL
  6
CONTINUOUS
 62
     5
 10
57.99959
 20
-189.4
 30
0.0
 40
10.0
 50
325.944202
 51
0.0
  0
LINE
  5
84
  8
DETAIL
  6
CONTINUOUS
 62
     5
 10
70.124104
 20
-184.968688
 30
0.0
 11
69.40036899999991
 21
-185.0595099999999
 31
0.0
  0
ARC
  5
85
  8
DETAIL
  6
CONTINUOUS
 62
     5
 10
69.5995899999999
 20
-186.647059
 30
0.0
 40
1.6
 50
97.15266900000009
 51
180.0
  0
ARC
  5
86
  8
DETAIL
  6
CONTINUOUS
 62
     5
 10
69.99958999999991
 20
-183.97647
 30
0.0
 40
1.0
 50
277.1526689999995
 51
0.0
  0
LINE
  5
87
  8
DETAIL
  6
CONTINUOUS
 62
     5
 10
70.99958999999991
 20
-183.97647
 30
0.0
 11
70.99958999999991
 21
-145.0
 31
0.0
  0
LINE
  5
88
  8
DETAIL
  6
CONTINUOUS
 62
     5
 10
67.99958999999991
 20
-189.4
 30
0.0
 11
67.99958999999991
 21
-186.647059
 31
0.0
  0
ARC
  5
89
  8
DETAIL
  6
CONTINUOUS
 62
     5
 10
56.49959
 20
-196.0
 30
0.0
 40
1.0
 50
90.0
 51
180.0
  0
LINE
  5
8A
  8
DETAIL
  6
CONTINUOUS
 62
     5
 10
56.49959
 20
-195.0
 30
0.0
 11
204.999999
 21
-195.0
 31
0.0
  0
LINE
  5
8B
  8
DETAIL
  6
CONTINUOUS
 62
     5
 10
55.49959
 20
-197.0
 30
0.0
 11
55.49959
 21
-196.0
 31
0.0
  0
LINE
  5
8C
  8
DETAIL
  6
CONTINUOUS
 62
     5
 10
219.000408
 20
-145.0
 30
0.0
 11
70.99958999999991
 21
-145.0
 31
0.0
  0
LINE
  5
8D
  8
DETAIL
  6
CONTINUOUS
 62
     5
 10
55.49959
 20
-197.0
 30
0.0
 11
55.49959
 21
-200.0
 31
0.0
  0
LINE
  5
8E
  8
DETAIL
  6
CONTINUOUS
 62
     5
 10
204.999999
 20
-185.0
 30
0.0
 11
69.99999899999999
 21
-185.0
 31
0.0
  0
LINE
  5
8F
  8
NOTE
  6
CONTINUOUS
 62
     4
 10
-0.0000009999999975
 20
-494.9999999999999
 30
0.0
 11
-149.744504
 21
-767.7748569999999
 31
0.0
  0
LINE
  5
90
  8
NOTE
  6
CONTINUOUS
 62
     4
 10
-27.73963899999995
 20
-523.8186130000001
 30
0.0
 11
-0.0000009999999975
 21
-494.9999999999999
 31
0.0
  0
LINE
  5
91
  8
NOTE
  6
CONTINUOUS
 62
     4
 10
-0.0000009999999975
 20
-494.9999999999999
 30
0.0
 11
-9.613924999999966
 21
-533.8274699999998
 31
0.0
  0
LINE
  5
92
  8
SIZE
  6
CONTINUOUS
 62
    30
 10
394.999999
 20
0.0
 30
0.0
 11
798.5559319999996
 21
0.0
 31
0.0
  0
LINE
  5
93
  8
SIZE
  6
CONTINUOUS
 62
    30
 10
342.954291
 20
-599.9999999999999
 30
0.0
 11
798.5559319999996
 21
-599.9999999999999
 31
0.0
  0
LINE
  5
94
  8
SIZE
  6
CONTINUOUS
 62
    30
 10
778.5559319999998
 20
-12.0
 30
0.0
 11
778.5559319999998
 21
-587.9999999999999
 31
0.0
  0
CIRCLE
  5
95
  8
SIZE
  6
CONTINUOUS
 62
    30
 10
778.5559319999998
 20
0.0
 30
0.0
 40
6.0
  0
LINE
  5
96
  8
SIZE
  6
CONTINUOUS
 62
    30
 10
778.5559319999998
 20
0.0
 30
0.0
 11
778.5559319999998
 21
-12.0
 31
0.0
  0
CIRCLE
  5
97
  8
SIZE
  6
CONTINUOUS
 62
    30
 10
778.5559319999998
 20
-599.9999999999999
 30
0.0
 40
6.0
  0
LINE
  5
98
  8
SIZE
  6
CONTINUOUS
 62
    30
 10
778.5559319999998
 20
-599.9999999999999
 30
0.0
 11
778.5559319999998
 21
-587.9999999999999
 31
0.0
  0
TEXT
  5
99
  8
SIZE
  6
CONTINUOUS
 62
    30
 10
753.5559319999998
 20
-383.6571428571427
 30
0.0
 40
64.0
  1
600
 50
90.0
 41
0.9
 72
     1
 11
753.5559319999998
 21
-299.9999999999999
 31
0.0
  0
LINE
  5
9D
  8
SIZE
  6
CONTINUOUS
 62
    30
 10
599.9999989999999
 20
-502.1439649999998
 30
0.0
 11
599.9999989999999
 21
-1163.090064435991
 31
0.0
  0
LINE
  5
9E
  8
SIZE
  6
CONTINUOUS
 62
    30
 10
-0.0000009999999975
 20
-620.0000000000001
 30
0.0
 11
-0.0000009999999975
 21
-1155.568986452033
 31
0.0
  0
LINE
  5
9F
  8
SIZE
  6
CONTINUOUS
 62
    30
 10
587.9999989999999
 20
-1135.673165456217
 30
0.0
 11
11.999999
 21
-1135.673165456217
 31
0.0
  0
CIRCLE
  5
A0
  8
SIZE
  6
CONTINUOUS
 62
    30
 10
599.9999989999999
 20
-1135.673165456217
 30
0.0
 40
6.0
  0
LINE
  5
A1
  8
SIZE
  6
CONTINUOUS
 62
    30
 10
599.9999989999999
 20
-1135.673165456217
 30
0.0
 11
587.9999989999999
 21
-1135.673165456217
 31
0.0
  0
CIRCLE
  5
A2
  8
SIZE
  6
CONTINUOUS
 62
    30
 10
-0.0000009999999975
 20
-1135.673165456217
 30
0.0
 40
6.0
  0
LINE
  5
A3
  8
SIZE
  6
CONTINUOUS
 62
    30
 10
-0.0000009999999975
 20
-1135.673165456217
 30
0.0
 11
11.999999
 21
-1135.673165456217
 31
0.0
  0
TEXT
  5
A4
  8
SIZE
  6
CONTINUOUS
 62
    30
 10
216.342856142857
 20
-1110.673165456217
 30
0.0
 40
64.0
  1
600
 41
0.9
 72
     1
 11
299.9999989999999
 21
-1110.673165456217
 31
0.0
  0
LINE
  5
A8
  8
SIZE
  6
CONTINUOUS
 62
    30
 10
-0.0000009999999975
 20
-620.0000000000001
 30
0.0
 11
-0.0000009999999975
 21
-1160.583039974556
 31
0.0
  0
LINE
  5
A9
  8
SIZE
  6
CONTINUOUS
 62
    30
 10
319.999999
 20
-620.0000000000001
 30
0.0
 11
319.999999
 21
-1025.203567268456
 31
0.0
  0
LINE
  5
AA
  8
SIZE
  6
CONTINUOUS
 62
    30
 10
11.999999
 20
-1003.756405456216
 30
0.0
 11
307.999999
 21
-1003.756405456216
 31
0.0
  0
CIRCLE
  5
AB
  8
SIZE
  6
CONTINUOUS
 62
    30
 10
-0.0000009999999975
 20
-1003.756405456216
 30
0.0
 40
6.0
  0
LINE
  5
AC
  8
SIZE
  6
CONTINUOUS
 62
    30
 10
-0.0000009999999975
 20
-1003.756405456216
 30
0.0
 11
11.999999
 21
-1003.756405456216
 31
0.0
  0
CIRCLE
  5
AD
  8
SIZE
  6
CONTINUOUS
 62
    30
 10
319.999999
 20
-1003.756405456216
 30
0.0
 40
6.0
  0
LINE
  5
AE
  8
SIZE
  6
CONTINUOUS
 62
    30
 10
319.999999
 20
-1003.756405456216
 30
0.0
 11
307.999999
 21
-1003.756405456216
 31
0.0
  0
TEXT
  5
AF
  8
SIZE
  6
CONTINUOUS
 62
    30
 10
77.71428471428571
 20
-978.7564054562165
 30
0.0
 40
64.0
  1
320
 41
0.9
 72
     1
 11
159.999999
 21
-978.7564054562165
 31
0.0
  0
LINE
  5
B3
  8
SIZE
  6
CONTINUOUS
 62
    30
 10
-0.0000009999999975
 20
-620.0000000000001
 30
0.0
 11
-0.0000009999999975
 21
-1048.854951
 31
0.0
  0
LINE
  5
B4
  8
SIZE
  6
CONTINUOUS
 62
    30
 10
289.999999
 20
-240.0
 30
0.0
 11
289.999999
 21
-902.3592306684966
 31
0.0
  0
LINE
  5
B5
  8
SIZE
  6
CONTINUOUS
 62
    30
 10
11.999999
 20
-877.2889584562171
 30
0.0
 11
277.999999
 21
-877.2889584562171
 31
0.0
  0
CIRCLE
  5
B6
  8
SIZE
  6
CONTINUOUS
 62
    30
 10
-0.0000009999999975
 20
-877.2889584562171
 30
0.0
 40
6.0
  0
LINE
  5
B7
  8
SIZE
  6
CONTINUOUS
 62
    30
 10
-0.0000009999999975
 20
-877.2889584562171
 30
0.0
 11
11.999999
 21
-877.2889584562171
 31
0.0
  0
CIRCLE
  5
B8
  8
SIZE
  6
CONTINUOUS
 62
    30
 10
289.999999
 20
-877.2889584562171
 30
0.0
 40
6.0
  0
LINE
  5
B9
  8
SIZE
  6
CONTINUOUS
 62
    30
 10
289.999999
 20
-877.2889584562171
 30
0.0
 11
277.999999
 21
-877.2889584562171
 31
0.0
  0
TEXT
  5
BA
  8
SIZE
  6
CONTINUOUS
 62
    30
 10
62.71428471428571
 20
-852.2889584562171
 30
0.0
 40
64.0
  1
290
 41
0.9
 72
     1
 11
144.999999
 21
-852.2889584562171
 31
0.0
  0
LINE
  5
BE
  8
SIZE
  6
CONTINUOUS
 62
    30
 10
-0.0000009999999975
 20
-620.0000000000001
 30
0.0
 11
-0.0000009999999975
 21
-937.5956169999995
 31
0.0
  0
LINE
  5
BF
  8
SIZE
  6
CONTINUOUS
 62
    30
 10
254.999999
 20
-240.0
 30
0.0
 11
254.999999
 21
-787.0359766521511
 31
0.0
  0
LINE
  5
C0
  8
SIZE
  6
CONTINUOUS
 62
    30
 10
11.999999
 20
-766.0296244562171
 30
0.0
 11
242.999999
 21
-766.0296244562171
 31
0.0
  0
CIRCLE
  5
C1
  8
SIZE
  6
CONTINUOUS
 62
    30
 10
-0.0000009999999975
 20
-766.0296244562171
 30
0.0
 40
6.0
  0
LINE
  5
C2
  8
SIZE
  6
CONTINUOUS
 62
    30
 10
-0.0000009999999975
 20
-766.0296244562171
 30
0.0
 11
11.999999
 21
-766.0296244562171
 31
0.0
  0
CIRCLE
  5
C3
  8
SIZE
  6
CONTINUOUS
 62
    30
 10
254.999999
 20
-766.0296244562171
 30
0.0
 40
6.0
  0
LINE
  5
C4
  8
SIZE
  6
CONTINUOUS
 62
    30
 10
254.999999
 20
-766.0296244562171
 30
0.0
 11
242.999999
 21
-766.0296244562171
 31
0.0
  0
TEXT
  5
C5
  8
SIZE
  6
CONTINUOUS
 62
    30
 10
45.2142847142857
 20
-741.0296244562171
 30
0.0
 40
64.0
  1
255
 41
0.9
 72
     1
 11
127.499999
 21
-741.0296244562171
 31
0.0
  0
LINE
  5
C9
  8
SIZE
  6
CONTINUOUS
 62
    30
 10
-20.00000099999998
 20
-599.9999999999999
 30
0.0
 11
-356.244316
 21
-599.9999999999999
 31
0.0
  0
LINE
  5
CA
  8
SIZE
  6
CONTINUOUS
 62
    30
 10
-40.00000099999995
 20
-494.9999999999999
 30
0.0
 11
-356.244316
 21
-494.9999999999999
 31
0.0
  0
LINE
  5
CB
  8
SIZE
  6
CONTINUOUS
 62
    30
 10
-336.2443159999998
 20
-587.9999999999999
 30
0.0
 11
-336.2443159999998
 21
-506.9999999999999
 31
0.0
  0
LINE
  5
CC
  8
SIZE
  6
CONTINUOUS
 62
    30
 10
-336.2443159999998
 20
-290.1094499999999
 30
0.0
 11
-336.2443159999998
 21
-494.9999999999999
 31
0.0
  0
TEXT
  5
CD
  8
SIZE
  6
CONTINUOUS
 62
    30
 10
-361.2443159999998
 20
-470.0808789999999
 30
0.0
 40
64.0
  1
105
 50
90.0
 41
0.9
 72
     1
 11
-361.2443159999998
 21
-383.6808789999999
 31
0.0
  0
CIRCLE
  5
CE
  8
SIZE
  6
CONTINUOUS
 62
    30
 10
-336.2443159999998
 20
-599.9999999999999
 30
0.0
 40
6.0
  0
LINE
  5
CF
  8
SIZE
  6
CONTINUOUS
 62
    30
 10
-336.2443159999998
 20
-599.9999999999999
 30
0.0
 11
-336.2443159999998
 21
-587.9999999999999
 31
0.0
  0
CIRCLE
  5
D0
  8
SIZE
  6
CONTINUOUS
 62
    30
 10
-336.2443159999998
 20
-494.9999999999999
 30
0.0
 40
6.0
  0
LINE
  5
D1
  8
SIZE
  6
CONTINUOUS
 62
    30
 10
-336.2443159999998
 20
-494.9999999999999
 30
0.0
 11
-336.2443159999998
 21
-506.9999999999999
 31
0.0
  0
LINE
  5
D5
  8
SIZE
  6
CONTINUOUS
 62
    30
 10
-20.00000099999998
 20
-599.9999999999999
 30
0.0
 11
-477.1899019999999
 21
-599.9999999999999
 31
0.0
  0
LINE
  5
D6
  8
SIZE
  6
CONTINUOUS
 62
    30
 10
-40.00000099999995
 20
-260.0
 30
0.0
 11
-477.1899019999999
 21
-260.0
 31
0.0
  0
LINE
  5
D7
  8
SIZE
  6
CONTINUOUS
 62
    30
 10
-457.189902
 20
-587.9999999999999
 30
0.0
 11
-457.189902
 21
-272.0
 31
0.0
  0
CIRCLE
  5
D8
  8
SIZE
  6
CONTINUOUS
 62
    30
 10
-457.189902
 20
-599.9999999999999
 30
0.0
 40
6.0
  0
LINE
  5
D9
  8
SIZE
  6
CONTINUOUS
 62
    30
 10
-457.189902
 20
-599.9999999999999
 30
0.0
 11
-457.189902
 21
-587.9999999999999
 31
0.0
  0
CIRCLE
  5
DA
  8
SIZE
  6
CONTINUOUS
 62
    30
 10
-457.189902
 20
-260.0
 30
0.0
 40
6.0
  0
LINE
  5
DB
  8
SIZE
  6
CONTINUOUS
 62
    30
 10
-457.189902
 20
-260.0
 30
0.0
 11
-457.189902
 21
-272.0
 31
0.0
  0
TEXT
  5
DC
  8
SIZE
  6
CONTINUOUS
 62
    30
 10
-482.1899019999999
 20
-512.2857142857142
 30
0.0
 40
64.0
  1
340
 50
90.0
 41
0.9
 72
     1
 11
-482.1899019999999
 21
-429.9999999999999
 31
0.0
  0
LINE
  5
E0
  8
SIZE
  6
CONTINUOUS
 62
    30
 10
-20.00000099999998
 20
-599.9999999999999
 30
0.0
 11
-601.4361739999999
 21
-599.9999999999999
 31
0.0
  0
LINE
  5
E1
  8
SIZE
  6
CONTINUOUS
 62
    30
 10
-20.00000099999998
 20
-200.0
 30
0.0
 11
-601.4361739999999
 21
-200.0
 31
0.0
  0
LINE
  5
E2
  8
SIZE
  6
CONTINUOUS
 62
    30
 10
-581.4361739999999
 20
-587.9999999999999
 30
0.0
 11
-581.4361739999999
 21
-212.0
 31
0.0
  0
CIRCLE
  5
E3
  8
SIZE
  6
CONTINUOUS
 62
    30
 10
-581.4361739999999
 20
-599.9999999999999
 30
0.0
 40
6.0
  0
LINE
  5
E4
  8
SIZE
  6
CONTINUOUS
 62
    30
 10
-581.4361739999999
 20
-599.9999999999999
 30
0.0
 11
-581.4361739999999
 21
-587.9999999999999
 31
0.0
  0
CIRCLE
  5
E5
  8
SIZE
  6
CONTINUOUS
 62
    30
 10
-581.4361739999999
 20
-200.0
 30
0.0
 40
6.0
  0
LINE
  5
E6
  8
SIZE
  6
CONTINUOUS
 62
    30
 10
-581.4361739999999
 20
-200.0
 30
0.0
 11
-581.4361739999999
 21
-212.0
 31
0.0
  0
TEXT
  5
E7
  8
SIZE
  6
CONTINUOUS
 62
    30
 10
-606.4361739999999
 20
-482.2857142857142
 30
0.0
 40
64.0
  1
400
 50
90.0
 41
0.9
 72
     1
 11
-606.4361739999999
 21
-399.9999999999999
 31
0.0
  0
LINE
  5
EB
  8
SIZE
  6
CONTINUOUS
 62
    30
 10
-20.00000099999998
 20
-200.0
 30
0.0
 11
-476.565049
 21
-200.0
 31
0.0
  0
LINE
  5
EC
  8
SIZE
  6
CONTINUOUS
 62
    30
 10
50.99959
 20
-145.0
 30
0.0
 11
-476.565049
 21
-145.0
 31
0.0
  0
LINE
  5
ED
  8
SIZE
  6
CONTINUOUS
 62
    30
 10
-456.565049
 20
-212.0
 30
0.0
 11
-456.565049
 21
-224.0
 31
0.0
  0
LINE
  5
EE
  8
SIZE
  6
CONTINUOUS
 62
    30
 10
-456.565049
 20
-133.0
 30
0.0
 11
-456.565049
 21
-121.0
 31
0.0
  0
LINE
  5
EF
  8
SIZE
  6
CONTINUOUS
 62
    30
 10
-456.565049
 20
28.45221799999999
 30
0.0
 11
-456.565049
 21
-145.0
 31
0.0
  0
TEXT
  5
F0
  8
SIZE
  6
CONTINUOUS
 62
    30
 10
-481.565049
 20
-98.03349585714287
 30
0.0
 40
64.0
  1
55
 50
90.0
 41
0.9
 72
     1
 11
-481.565049
 21
-43.17635300000001
 31
0.0
  0
LINE
  5
F1
  8
SIZE
  6
CONTINUOUS
 62
    30
 10
-456.565049
 20
-200.0
 30
0.0
 11
-456.565049
 21
-145.0
 31
0.0
  0
LINE
  5
F2
  8
SIZE
  6
CONTINUOUS
 62
    30
 10
-456.565049
 20
-200.0
 30
0.0
 11
-456.565049
 21
-145.0
 31
0.0
  0
CIRCLE
  5
F3
  8
SIZE
  6
CONTINUOUS
 62
    30
 10
-456.565049
 20
-200.0
 30
0.0
 40
6.0
  0
LINE
  5
F4
  8
SIZE
  6
CONTINUOUS
 62
    30
 10
-456.565049
 20
-200.0
 30
0.0
 11
-456.565049
 21
-212.0
 31
0.0
  0
CIRCLE
  5
F5
  8
SIZE
  6
CONTINUOUS
 62
    30
 10
-456.565049
 20
-145.0
 30
0.0
 40
6.0
  0
LINE
  5
F6
  8
SIZE
  6
CONTINUOUS
 62
    30
 10
-456.565049
 20
-145.0
 30
0.0
 11
-456.565049
 21
-133.0
 31
0.0
  0
LINE
  5
FA
  8
SIZE
  6
CONTINUOUS
 62
    30
 10
49.99999899999999
 20
-185.0
 30
0.0
 11
-359.469624
 21
-185.0
 31
0.0
  0
LINE
  5
FB
  8
SIZE
  6
CONTINUOUS
 62
    30
 10
-20.00000099999998
 20
-200.0
 30
0.0
 11
-359.469624
 21
-200.0
 31
0.0
  0
LINE
  5
FC
  8
SIZE
  6
CONTINUOUS
 62
    30
 10
-339.469624
 20
-173.0
 30
0.0
 11
-339.469624
 21
-161.0
 31
0.0
  0
LINE
  5
FD
  8
SIZE
  6
CONTINUOUS
 62
    30
 10
-339.469624
 20
-212.0
 30
0.0
 11
-339.469624
 21
-224.0
 31
0.0
  0
LINE
  5
FE
  8
SIZE
  6
CONTINUOUS
 62
    30
 10
-339.469624
 20
1.279510000000002
 30
0.0
 11
-339.469624
 21
-185.0
 31
0.0
  0
TEXT
  5
FF
  8
SIZE
  6
CONTINUOUS
 62
    30
 10
-364.4696240000001
 20
-123.8347755714286
 30
0.0
 40
64.0
  1
15
 50
90.0
 41
0.9
 72
     1
 11
-364.4696240000001
 21
-64.863347
 31
0.0
  0
LINE
  5
100
  8
SIZE
  6
CONTINUOUS
 62
    30
 10
-339.469624
 20
-185.0
 30
0.0
 11
-339.469624
 21
-200.0
 31
0.0
  0
LINE
  5
101
  8
SIZE
  6
CONTINUOUS
 62
    30
 10
-339.469624
 20
-185.0
 30
0.0
 11
-339.469624
 21
-200.0
 31
0.0
  0
CIRCLE
  5
102
  8
SIZE
  6
CONTINUOUS
 62
    30
 10
-339.469624
 20
-185.0
 30
0.0
 40
6.0
  0
LINE
  5
103
  8
SIZE
  6
CONTINUOUS
 62
    30
 10
-339.469624
 20
-185.0
 30
0.0
 11
-339.469624
 21
-173.0
 31
0.0
  0
CIRCLE
  5
104
  8
SIZE
  6
CONTINUOUS
 62
    30
 10
-339.469624
 20
-200.0
 30
0.0
 40
6.0
  0
LINE
  5
105
  8
SIZE
  6
CONTINUOUS
 62
    30
 10
-339.469624
 20
-200.0
 30
0.0
 11
-339.469624
 21
-212.0
 31
0.0
  0
LINE
  5
109
  8
SIZE
  6
CONTINUOUS
 62
    30
 10
374.9999989999999
 20
19.99999999999997
 30
0.0
 11
374.9999989999999
 21
416.673596
 31
0.0
  0
LINE
  5
10A
  8
SIZE
  6
CONTINUOUS
 62
    30
 10
319.999999
 20
19.99999999999997
 30
0.0
 11
319.999999
 21
416.673596
 31
0.0
  0
LINE
  5
10B
  8
SIZE
  6
CONTINUOUS
 62
    30
 10
386.999999
 20
396.6735959999999
 30
0.0
 11
398.999999
 21
396.6735959999999
 31
0.0
  0
LINE
  5
10C
  8
SIZE
  6
CONTINUOUS
 62
    30
 10
307.999999
 20
396.6735959999999
 30
0.0
 11
295.9999989999999
 21
396.6735959999999
 31
0.0
  0
LINE
  5
10D
  8
SIZE
  6
CONTINUOUS
 62
    30
 10
542.5215309999999
 20
396.6735959999999
 30
0.0
 11
374.9999989999999
 21
396.6735959999999
 31
0.0
  0
TEXT
  5
10E
  8
SIZE
  6
CONTINUOUS
 62
    30
 10
416.0358171428571
 20
421.6735959999999
 30
0.0
 40
64.0
  1
55
 41
0.9
 72
     1
 11
470.89296
 21
421.6735959999999
 31
0.0
  0
LINE
  5
10F
  8
SIZE
  6
CONTINUOUS
 62
    30
 10
374.9999989999999
 20
396.6735959999999
 30
0.0
 11
319.999999
 21
396.6735959999999
 31
0.0
  0
LINE
  5
110
  8
SIZE
  6
CONTINUOUS
 62
    30
 10
374.9999989999999
 20
396.6735959999999
 30
0.0
 11
319.999999
 21
396.6735959999999
 31
0.0
  0
CIRCLE
  5
111
  8
SIZE
  6
CONTINUOUS
 62
    30
 10
374.9999989999999
 20
396.6735959999999
 30
0.0
 40
6.0
  0
LINE
  5
112
  8
SIZE
  6
CONTINUOUS
 62
    30
 10
374.9999989999999
 20
396.6735959999999
 30
0.0
 11
386.999999
 21
396.6735959999999
 31
0.0
  0
CIRCLE
  5
113
  8
SIZE
  6
CONTINUOUS
 62
    30
 10
319.999999
 20
396.6735959999999
 30
0.0
 40
6.0
  0
LINE
  5
114
  8
SIZE
  6
CONTINUOUS
 62
    30
 10
319.999999
 20
396.6735959999999
 30
0.0
 11
307.999999
 21
396.6735959999999
 31
0.0
  0
LINE
  5
118
  8
SIZE
  6
CONTINUOUS
 62
    30
 10
374.9999989999999
 20
19.99999999999997
 30
0.0
 11
374.9999989999999
 21
534.4937529999999
 31
0.0
  0
LINE
  5
119
  8
SIZE
  6
CONTINUOUS
 62
    30
 10
-0.0000009999999975
 20
-180.0
 30
0.0
 11
-0.0000009999999975
 21
534.4937529999999
 31
0.0
  0
LINE
  5
11C
  8
SIZE
  6
CONTINUOUS
 62
    30
 10
374.9999989999999
 20
514.4937529999999
 30
0.0
 11
-0.0000009999999975
 21
514.4937529999999
 31
0.0
  0
CIRCLE
  5
11D
  8
SIZE
  6
CONTINUOUS
 62
    30
 10
374.9999989999999
 20
514.4937529999999
 30
0.0
 40
6.0
  0
CIRCLE
  5
11F
  8
SIZE
  6
CONTINUOUS
 62
    30
 10
-0.0000009999999975
 20
514.4937529999999
 30
0.0
 40
6.0
  0
TEXT
  5
121
  8
SIZE
  6
CONTINUOUS
 62
    30
 10
-1.757143857142864
 20
539.4937529999999
 30
0.0
 40
64.0
  1
350～400
 41
0.9
 72
     1
 11
187.499999
 21
539.4937529999999
 31
0.0
  0
LINE
  5
125
  8
SIZE
  6
CONTINUOUS
 62
    30
 10
137.999999
 20
-89.121418
 30
0.0
 11
137.999999
 21
176.952483
 31
0.0
  0
LINE
  5
126
  8
SIZE
  6
CONTINUOUS
 62
    30
 10
151.999999
 20
-89.121418
 30
0.0
 11
151.999999
 21
176.952483
 31
0.0
  0
LINE
  5
127
  8
SIZE
  6
CONTINUOUS
 62
    30
 10
125.999999
 20
156.952483
 30
0.0
 11
113.999999
 21
156.952483
 31
0.0
  0
LINE
  5
128
  8
SIZE
  6
CONTINUOUS
 62
    30
 10
163.999999
 20
156.952483
 30
0.0
 11
175.999999
 21
156.952483
 31
0.0
  0
LINE
  5
129
  8
SIZE
  6
CONTINUOUS
 62
    30
 10
-264.6468389999999
 20
156.952483
 30
0.0
 11
137.999999
 21
156.952483
 31
0.0
  0
TEXT
  5
12A
  8
SIZE
  6
CONTINUOUS
 62
    30
 10
-257.4754101428571
 20
181.952483
 30
0.0
 40
64.0
  1
14
 41
0.9
 72
     1
 11
-197.132553
 21
181.952483
 31
0.0
  0
LINE
  5
12B
  8
SIZE
  6
CONTINUOUS
 62
    30
 10
137.999999
 20
156.952483
 30
0.0
 11
151.999999
 21
156.952483
 31
0.0
  0
LINE
  5
12C
  8
SIZE
  6
CONTINUOUS
 62
    30
 10
137.999999
 20
156.952483
 30
0.0
 11
151.999999
 21
156.952483
 31
0.0
  0
CIRCLE
  5
12D
  8
SIZE
  6
CONTINUOUS
 62
    30
 10
137.999999
 20
156.952483
 30
0.0
 40
6.0
  0
LINE
  5
12E
  8
SIZE
  6
CONTINUOUS
 62
    30
 10
137.999999
 20
156.952483
 30
0.0
 11
125.999999
 21
156.952483
 31
0.0
  0
CIRCLE
  5
12F
  8
SIZE
  6
CONTINUOUS
 62
    30
 10
151.999999
 20
156.952483
 30
0.0
 40
6.0
  0
LINE
  5
130
  8
SIZE
  6
CONTINUOUS
 62
    30
 10
151.999999
 20
156.952483
 30
0.0
 11
163.999999
 21
156.952483
 31
0.0
  0
LINE
  5
134
  8
SIZE
  6
CONTINUOUS
 62
    30
 39
50.0
 10
-264.6468389999999
 20
156.952483
 30
0.0
 11
-563.3301019999998
 21
156.952483
 31
0.0
  0
LINE
  5
135
  8
SIZE
  6
CONTINUOUS
 62
    30
 10
70.99958999999991
 20
-125.0
 30
0.0
 11
70.99958999999991
 21
419.9797139999998
 31
0.0
  0
LINE
  5
136
  8
SIZE
  6
CONTINUOUS
 62
    30
 10
218.99959
 20
-125.0
 30
0.0
 11
218.99959
 21
419.9797139999998
 31
0.0
  0
LINE
  5
137
  8
SIZE
  6
CONTINUOUS
 62
    30
 10
82.99959
 20
399.9797140000001
 30
0.0
 11
206.99959
 21
399.9797140000001
 31
0.0
  0
LINE
  5
138
  8
SIZE
  6
CONTINUOUS
 62
    30
 10
-242.103997
 20
399.9797140000001
 30
0.0
 11
70.99958999999991
 21
399.9797140000001
 31
0.0
  0
TEXT
  5
139
  8
SIZE
  6
CONTINUOUS
 62
    30
 10
-229.4468535714285
 20
424.9797139999999
 30
0.0
 40
64.0
  1
φ148
 41
0.9
 72
     1
 11
-122.4754249999999
 21
424.9797139999999
 31
0.0
  0
CIRCLE
  5
13A
  8
SIZE
  6
CONTINUOUS
 62
    30
 10
70.99958999999991
 20
399.9797140000001
 30
0.0
 40
6.0
  0
LINE
  5
13B
  8
SIZE
  6
CONTINUOUS
 62
    30
 10
70.99958999999991
 20
399.9797140000001
 30
0.0
 11
82.99959
 21
399.9797140000001
 31
0.0
  0
CIRCLE
  5
13C
  8
SIZE
  6
CONTINUOUS
 62
    30
 10
218.99959
 20
399.9797140000001
 30
0.0
 40
6.0
  0
LINE
  5
13D
  8
SIZE
  6
CONTINUOUS
 62
    30
 10
218.99959
 20
399.9797140000001
 30
0.0
 11
206.99959
 21
399.9797140000001
 31
0.0
  0
LINE
  5
141
  8
SIZE
  6
CONTINUOUS
 62
    30
 10
-0.0000009999999975
 20
-180.0
 30
0.0
 11
-0.0000009999999975
 21
306.6034489999998
 31
0.0
  0
LINE
  5
142
  8
SIZE
  6
CONTINUOUS
 62
    30
 10
144.999999
 20
-81.08692099999999
 30
0.0
 11
144.999999
 21
306.6034489999998
 31
0.0
  0
LINE
  5
143
  8
SIZE
  6
CONTINUOUS
 62
    30
 10
11.999999
 20
286.6034489999998
 30
0.0
 11
132.999999
 21
286.6034489999998
 31
0.0
  0
LINE
  5
144
  8
SIZE
  6
CONTINUOUS
 62
    30
 10
-213.392356
 20
286.6034489999998
 30
0.0
 11
-0.0000009999999975
 21
286.6034489999998
 31
0.0
  0
TEXT
  5
145
  8
SIZE
  6
CONTINUOUS
 62
    30
 10
-206.220928
 20
311.6034489999998
 30
0.0
 40
64.0
  1
145
 41
0.9
 72
     1
 11
-119.8209279999999
 21
311.6034489999998
 31
0.0
  0
CIRCLE
  5
146
  8
SIZE
  6
CONTINUOUS
 62
    30
 10
-0.0000009999999975
 20
286.6034489999998
 30
0.0
 40
6.0
  0
LINE
  5
147
  8
SIZE
  6
CONTINUOUS
 62
    30
 10
-0.0000009999999975
 20
286.6034489999998
 30
0.0
 11
11.999999
 21
286.6034489999998
 31
0.0
  0
CIRCLE
  5
148
  8
SIZE
  6
CONTINUOUS
 62
    30
 10
144.999999
 20
286.6034489999998
 30
0.0
 40
6.0
  0
LINE
  5
149
  8
SIZE
  6
CONTINUOUS
 62
    30
 10
144.999999
 20
286.6034489999998
 30
0.0
 11
132.999999
 21
286.6034489999998
 31
0.0
  0
LINE
  5
14D
  8
DETAIL
  6
CONTINUOUS
 62
     5
 10
219.000408
 20
-183.97647
 30
0.0
 11
219.000408
 21
-145.0
 31
0.0
  0
LINE
  5
14E
  8
SIZE
  6
CONTINUOUS
 62
    30
 10
-0.0000009999999975
 20
-620.0000000000001
 30
0.0
 11
-0.0000009999999975
 21
-797.232645
 31
0.0
  0
LINE
  5
15A
  8
NOTE
  6
CONTINUOUS
 62
     4
 10
419.8852339061442
 20
240.261318
 30
0.0
 11
1610.241462999998
 21
240.261318
 31
0.0
  0
TEXT
  5
15B
  8
NOTE
  6
CONTINUOUS
 62
     4
 10
510.3223039999999
 20
273.439556
 30
0.0
 40
64.0
  1
電動給気シャッター連動出力コード
 41
0.9
  0
LINE
  5
15C
  8
NOTE
  6
CONTINUOUS
 62
     4
 10
229.3440834228641
 20
-172.5493948259036
 30
0.0
 11
251.999999
 21
-200.0
 31
0.0
  0
LINE
  5
15D
  8
NOTE
  6
CONTINUOUS
 62
     4
 10
251.999999
 20
-200.0
 30
0.0
 11
246.872575771332
 21
-166.0599048383493
 31
0.0
  0
TEXT
  5
170
  8
ETC
  6
CONTINUOUS
 62
    61
 10
719.8750809149991
 20
597.03662468202
 30
0.0
 40
64.0
  1
換気扇
 41
0.9
  0
TEXT
  5
171
  8
ETC
  6
CONTINUOUS
 62
    61
 10
727.7907879150001
 20
693.88399268202
 30
0.0
 40
64.0
  1
V-754K7_5
 41
0.9
  0
TEXT
  5
172
  8
ETC
  6
CONTINUOUS
 62
    61
 10
869.4350529272851
 20
444.5610197646228
 30
0.0
 40
50.0
  1
V-754KD6
 41
0.9
  0
TEXT
  5
173
  8
ETC
  6
CONTINUOUS
 62
    61
 10
868.5991385251344
 20
510.9373742389815
 30
0.0
 40
50.0
  1
V-754K6
 41
0.9
  0
LINE
  5
174
  8
OUTLINE
  6
CONTINOUS
 62
     3
 10
-0.000000999999898
 20
-599.9999999999999
 30
0.0
 11
-0.000000999999898
 21
-200.0
 31
0.0
  0
LINE
  5
175
  8
OUTLINE
  6
CONTINOUS
 62
     3
 10
583.8426869999998
 20
-542.4438749999998
 30
0.0
 11
599.9999989999999
 21
-482.143965
 31
0.0
  0
LINE
  5
176
  8
OUTLINE
  6
CONTINOUS
 62
     3
 10
-0.000000999999898
 20
-599.9999999999999
 30
0.0
 11
322.954291
 21
-599.9999999999999
 31
0.0
  0
ARC
  5
177
  8
OUTLINE
  6
CONTINOUS
 62
     3
 10
334.5540759999999
 20
50.99999999999997
 30
0.0
 40
650.0
 50
271.361645
 51
291.643048
  0
LINE
  5
178
  8
OUTLINE
  6
CONTINUOUS
 62
     3
 10
322.954291
 20
-599.9999999999999
 30
0.0
 11
349.999999
 21
-598.816454
 31
0.0
  0
ARC
  5
179
  8
OUTLINE
  6
CONTINOUS
 62
     3
 10
568.387874
 20
-538.30277
 30
0.0
 40
16.0
 50
291.643048
 51
345.0
  0
LINE
  5
17A
  8
OUTLINE
  6
CONTINOUS
 62
     3
 10
374.999999
 20
-200.0
 30
0.0
 11
-0.000000999999898
 21
-200.0
 31
0.0
  0
ARC
  5
17B
  8
OUTLINE
  6
CONTINOUS
 62
     3
 10
406.9389259999999
 20
-227.0
 30
0.0
 40
28.0
 50
33.80998199999992
 51
74.64111400000003
  0
LINE
  5
17C
  8
OUTLINE
  6
CONTINOUS
 62
     3
 10
596.2189269999999
 20
-459.316701
 30
0.0
 11
430.2037769999999
 21
-211.419669
 31
0.0
  0
ARC
  5
17D
  8
OUTLINE
  6
CONTINOUS
 62
     3
 10
572.9540759999998
 20
-474.8970320000001
 30
0.0
 40
28.0
 50
345.0
 51
33.80998199999992
  0
LINE
  5
17E
  8
OUTLINE
  6
CONTINOUS
 62
     3
 10
374.999999
 20
-200.0
 30
0.0
 11
374.999999
 21
0.0
 31
0.0
  0
LINE
  5
17F
  8
OUTLINE
  6
CONTINOUS
 62
     3
 10
319.9999990000001
 20
-200.0
 30
0.0
 11
319.9999990000001
 21
0.0
 31
0.0
  0
LINE
  5
180
  8
OUTLINE
  6
CONTINOUS
 62
     3
 10
414.3551249999999
 20
-200.0
 30
0.0
 11
349.999999
 21
-200.0
 31
0.0
  0
LINE
  5
181
  8
OUTLINE
  6
CONTINOUS
 62
     3
 10
374.999999
 20
0.0
 30
0.0
 11
319.9999990000001
 21
0.0
 31
0.0
  0
LINE
  5
182
  8
NOTE
  6
CONTINUOUS
 62
     4
 10
251.999999
 20
-220.0
 30
0.0
 11
251.999999
 21
-180.0
 31
0.0
  0
LINE
  5
186
  8
NOTE
  6
CONTINUOUS
 62
     4
 39
50.0
 10
419.8852339061442
 20
240.261318
 30
0.0
 11
192.0148932884905
 21
-69.6910355589124
 31
0.0
  0
LINE
  5
187
  8
NOTE
  6
CONTINUOUS
 62
     4
 39
50.0
 10
192.0148932884905
 20
-69.6910355589124
 30
0.0
 11
251.999999
 21
-200.0
 31
0.0
  0
TEXT
  5
189
  8
NOTE
  6
CONTINUOUS
 62
     4
 10
1134.008802953418
 20
158.9848000519368
 30
0.0
 40
64.0
  1
接続用コネクター
 41
0.9
  0
TEXT
  5
2A8
  8
ETC
  6
CONTINUOUS
 62
    61
 10
1243.590890382651
 20
444.5610197646228
 30
0.0
 40
50.0
  1
V-754KD7
 41
0.9
  0
TEXT
  5
2A9
  8
ETC
  6
CONTINUOUS
 62
    61
 10
1242.7549759805
 20
510.9373742389815
 30
0.0
 40
50.0
  1
V-754K7
 41
0.9
  0
ENDSEC
  0
EOF
