  0
SECTION
  2
HEADER
  9
$ACADVER
  1
AC1009
  9
$INSBASE
 10
0.0
 20
0.0
 30
0.0
  9
$EXTMIN
 10
-1071.331771068895
 20
-884.39940286846831
 30
-0.0015257624927045
  9
$EXTMAX
 10
1174.6582148650871
 20
721.61866051798995
 30
50.001525995323327
  9
$LIMMIN
 10
-2970.0
 20
-2100.0
  9
$LIMMAX
 10
2970.0
 20
2100.0
  9
$ORTHOMODE
 70
     1
  9
$REGENMODE
 70
     0
  9
$FILLMODE
 70
     1
  9
$QTEXTMODE
 70
     0
  9
$MIRRTEXT
 70
     0
  9
$DRAGMODE
 70
     2
  9
$LTSCALE
 40
20.0
  9
$OSMODE
 70
    32
  9
$ATTMODE
 70
     1
  9
$TEXTSIZE
 40
64.0
  9
$TRACEWID
 40
0.05
  9
$TEXTSTYLE
  7
STANDARD
  9
$CLAYER
  8
ETC
  9
$CELTYPE
  6
CONTINUOUS
  9
$CECOLOR
 62
     3
  9
$DIMSCALE
 40
1.0
  9
$DIMASZ
 40
12.0
  9
$DIMEXO
 40
20.0
  9
$DIMDLI
 40
200.0
  9
$DIMRND
 40
0.0
  9
$DIMDLE
 40
0.0
  9
$DIMEXE
 40
20.0
  9
$DIMTP
 40
0.0
  9
$DIMTM
 40
0.0
  9
$DIMTXT
 40
64.0
  9
$DIMCEN
 40
0.09
  9
$DIMTSZ
 40
0.0
  9
$DIMTOL
 70
     0
  9
$DIMLIM
 70
     0
  9
$DIMTIH
 70
     0
  9
$DIMTOH
 70
     0
  9
$DIMSE1
 70
     0
  9
$DIMSE2
 70
     0
  9
$DIMTAD
 70
     1
  9
$DIMZIN
 70
     8
  9
$DIMBLK
  1
DOT1
  9
$DIMASO
 70
     1
  9
$DIMSHO
 70
     0
  9
$DIMPOST
  1

  9
$DIMAPOST
  1

  9
$DIMALT
 70
     0
  9
$DIMALTD
 70
     2
  9
$DIMALTF
 40
25.399999999999999
  9
$DIMLFAC
 40
1.0
  9
$DIMTOFL
 70
     1
  9
$DIMTVP
 40
0.0
  9
$DIMTIX
 70
     1
  9
$DIMSOXD
 70
     0
  9
$DIMSAH
 70
     1
  9
$DIMBLK1
  1
ORIGIN
  9
$DIMBLK2
  1
ORIGIN
  9
$DIMSTYLE
  2
STANDARD
  9
$DIMCLRD
 70
     7
  9
$DIMCLRE
 70
     7
  9
$DIMCLRT
 70
     7
  9
$DIMTFAC
 40
1.0
  9
$DIMGAP
 40
25.0
  9
$LUNITS
 70
     2
  9
$LUPREC
 70
     4
  9
$SKETCHINC
 40
0.1
  9
$FILLETRAD
 40
4.0
  9
$AUNITS
 70
     1
  9
$AUPREC
 70
     3
  9
$MENU
  1
ACAD
  9
$ELEVATION
 40
0.0
  9
$PELEVATION
 40
0.0
  9
$THICKNESS
 40
50.0
  9
$LIMCHECK
 70
     0
  9
$BLIPMODE
 70
     0
  9
$CHAMFERA
 40
0.0
  9
$CHAMFERB
 40
0.0
  9
$SKPOLY
 70
     0
  9
$TDCREATE
 40
2453095.550511342
  9
$TDUPDATE
 40
2454743.7501899772
  9
$TDINDWG
 40
0.0307231134
  9
$TDUSRTIMER
 40
0.0307229282
  9
$USRTIMER
 70
     1
  9
$ANGBASE
 50
0.0
  9
$ANGDIR
 70
     0
  9
$PDMODE
 70
     3
  9
$PDSIZE
 40
-2.0
  9
$PLINEWID
 40
0.0
  9
$COORDS
 70
     1
  9
$SPLFRAME
 70
     0
  9
$SPLINETYPE
 70
     6
  9
$SPLINESEGS
 70
     8
  9
$ATTDIA
 70
     0
  9
$ATTREQ
 70
     1
  9
$HANDLING
 70
     1
  9
$HANDSEED
  5
AD6
  9
$SURFTAB1
 70
     6
  9
$SURFTAB2
 70
     6
  9
$SURFTYPE
 70
     6
  9
$SURFU
 70
     6
  9
$SURFV
 70
     6
  9
$UCSNAME
  2

  9
$UCSORG
 10
0.0
 20
0.0
 30
0.0
  9
$UCSXDIR
 10
1.0
 20
0.0
 30
0.0
  9
$UCSYDIR
 10
0.0
 20
1.0
 30
0.0
  9
$PUCSNAME
  2

  9
$PUCSORG
 10
0.0
 20
0.0
 30
0.0
  9
$PUCSXDIR
 10
1.0
 20
0.0
 30
0.0
  9
$PUCSYDIR
 10
0.0
 20
1.0
 30
0.0
  9
$USERI1
 70
     0
  9
$USERI2
 70
     0
  9
$USERI3
 70
     0
  9
$USERI4
 70
     0
  9
$USERI5
 70
     0
  9
$USERR1
 40
20.0
  9
$USERR2
 40
0.0
  9
$USERR3
 40
0.0
  9
$USERR4
 40
0.0
  9
$USERR5
 40
0.0
  9
$WORLDVIEW
 70
     1
  9
$SHADEDGE
 70
     3
  9
$SHADEDIF
 70
    70
  9
$TILEMODE
 70
     1
  9
$MAXACTVP
 70
    48
  9
$PLIMCHECK
 70
     0
  9
$PEXTMIN
 10
-1.0000000000000000E+020
 20
-1.0000000000000000E+020
 30
-1.0000000000000000E+020
  9
$PEXTMAX
 10
1.0000000000000000E+020
 20
1.0000000000000000E+020
 30
1.0000000000000000E+020
  9
$PLIMMIN
 10
0.0
 20
0.0
  9
$PLIMMAX
 10
12.0
 20
9.0
  9
$UNITMODE
 70
     0
  9
$VISRETAIN
 70
     0
  9
$PLINEGEN
 70
     0
  9
$PSLTSCALE
 70
     0
  0
ENDSEC
  0
SECTION
  2
TABLES
  0
TABLE
  2
VPORT
 70
     1
  0
VPORT
  2
*ACTIVE
 70
     0
 10
0.0
 20
0.0
 11
1.0
 21
1.0
 12
382.31961425924061
 22
-222.5508441494926
 13
0.0
 23
0.0
 14
1.0
 24
1.0
 15
0.0
 25
0.0
 16
0.0
 26
0.0
 36
1.0
 17
0.0
 27
0.0
 37
0.0
 40
2040.3468528394751
 41
1.812051649928264
 42
50.0
 43
0.0
 44
0.0
 50
0.0
 51
0.0
 71
     0
 72
  1000
 73
     1
 74
     0
 75
     0
 76
     0
 77
     0
 78
     0
  0
ENDTAB
  0
TABLE
  2
LTYPE
 70
     6
  0
LTYPE
  2
CONTINUOUS
 70
     0
  3
実線
 72
    65
 73
     0
 40
0.0
  0
LTYPE
  2
DASHDOT
 70
     0
  3
____ _ ____ _ ____ _ ____ _ ____ _ ____ _ ____
 72
    65
 73
     4
 40
5.5
 49
4.0
 49
-0.6
 49
0.3
 49
-0.6
  0
LTYPE
  2
DASHED
 70
     0
  3
-- -- -- -- -- -- -- -- -- -- -- -- -- -- --
 72
    65
 73
     2
 40
0.75
 49
0.5
 49
-0.25
  0
LTYPE
  2
CONTINOUS
 70
     0
  3
Solid line
 72
    65
 73
     0
 40
0.0
  0
LTYPE
  2
PHANTOM
 70
     0
  3
Phantom ______  __  __  ______  __  __  ______
 72
    65
 73
     6
 40
2.5
 49
1.25
 49
-0.25
 49
0.25
 49
-0.25
 49
0.25
 49
-0.25
  0
ENDTAB
  0
TABLE
  2
LAYER
 70
    12
  0
LAYER
  2
0
 70
     0
 62
     7
  6
CONTINUOUS
  0
LAYER
  2
OUTLINE
 70
     0
 62
     3
  6
CONTINUOUS
  0
LAYER
  2
SIZE
 70
     0
 62
    30
  6
CONTINUOUS
  0
LAYER
  2
BASIS
 70
     0
 62
     6
  6
DASHDOT
  0
LAYER
  2
DETAIL
 70
     0
 62
     5
  6
CONTINUOUS
  0
LAYER
  2
ARRANGE
 70
     0
 62
     1
  6
CONTINUOUS
  0
LAYER
  2
DEFPOINTS
 70
     0
 62
     7
  6
CONTINUOUS
  0
LAYER
  2
ETC
 70
     0
 62
    61
  6
CONTINUOUS
  0
LAYER
  2
NOTE
 70
     0
 62
     4
  6
CONTINUOUS
  0
LAYER
  2
FIX
 70
     0
 62
    11
  6
CONTINUOUS
  0
LAYER
  2
SERVICESPACE
 70
     0
 62
     2
  6
DASHDOT
  0
LAYER
  2
SYMBOLLINE
 70
     0
 62
    15
  6
CONTINUOUS
  0
ENDTAB
  0
TABLE
  2
STYLE
 70
     3
  0
STYLE
  2
STANDARD
 70
     0
 40
64.0
 41
0.9
 50
0.0
 71
     0
 42
64.0
  3
SIMPLEX.shx
  4
BIGFONT.shx
  0
STYLE
  2
ANNOTATIVE
 70
     0
 40
0.0
 41
1.0
 50
0.0
 71
     0
 42
0.2
  3
txt
  4

  0
STYLE
  2

 70
     1
 40
0.0
 41
1.0
 50
0.0
 71
     0
 42
64.0
  3
ltypeshp.shx
  4

  0
ENDTAB
  0
TABLE
  2
VIEW
 70
     1
  0
VIEW
  2
ALL
 70
     0
 40
4282.6198079999967
 10
0.0
 20
41.309903999999989
 41
5940.0
 11
0.0
 21
0.0
 31
1.0
 12
0.0
 22
0.0
 32
0.0
 42
50.0
 43
0.0
 44
0.0
 50
0.0
 71
     0
  0
ENDTAB
  0
TABLE
  2
UCS
 70
     0
  0
ENDTAB
  0
TABLE
  2
APPID
 70
     5
  0
APPID
  2
ACAD
 70
     0
  0
APPID
  2
ACADANNOTATIVE
 70
     0
  0
APPID
  2
ACAD_MLEADERVER
 70
     0
  0
APPID
  2
AUTOCAD_POSTSCRIPT_FIGURE
 70
     0
  0
APPID
  2
ACAD_EXEMPT_FROM_CAD_STANDARDS
 70
     0
  0
ENDTAB
  0
TABLE
  2
DIMSTYLE
 70
     2
  0
DIMSTYLE
  2
STANDARD
 70
     0
  3

  4

  5

  6

  7

 40
1.0
 41
0.18
 42
0.0625
 43
0.38
 44
0.18
 45
0.0
 46
0.0
 47
0.0
 48
0.0
140
0.18
141
0.09
142
0.0
143
25.399999999999999
144
1.0
145
0.0
146
1.0
147
0.09
 71
     0
 72
     0
 73
     1
 74
     1
 75
     0
 76
     0
 77
     0
 78
     0
170
     0
171
     2
172
     0
173
     0
174
     0
175
     0
176
     7
177
     7
178
     7
  0
DIMSTYLE
  2
ANNOTATIVE
 70
     0
  3

  4

  5

  6

  7

 40
1.0
 41
0.18
 42
0.0625
 43
0.38
 44
0.18
 45
0.0
 46
0.0
 47
0.0
 48
0.0
140
0.18
141
0.09
142
0.0
143
25.399999999999999
144
1.0
145
0.0
146
1.0
147
0.09
 71
     0
 72
     0
 73
     1
 74
     1
 75
     0
 76
     0
 77
     0
 78
     0
170
     0
171
     2
172
     0
173
     0
174
     0
175
     0
176
     0
177
     0
178
     0
  0
ENDTAB
  0
ENDSEC
  0
SECTION
  2
BLOCKS
  0
BLOCK
  8
0
  2
$MODEL_SPACE
 70
     0
 10
0.0
 20
0.0
 30
0.0
  3
$MODEL_SPACE
  1

  0
ENDBLK
  5
A76
  8
0
  0
BLOCK
 67
     1
  8
0
  2
$PAPER_SPACE
 70
     0
 10
0.0
 20
0.0
 30
0.0
  3
$PAPER_SPACE
  1

  0
ENDBLK
  5
A72
 67
     1
  8
0
  0
BLOCK
  8
0
  2
DOT1
 70
     0
 10
0.0
 20
0.0
 30
0.0
  3
DOT1
  1

  0
CIRCLE
  5
7E4
  8
SIZE
  6
CONTINUOUS
 62
     7
 10
0.0
 20
0.0
 30
0.0
 40
3.0
  0
ENDBLK
  5
7E5
  8
0
  0
BLOCK
  8
0
  2
_ORIGIN
 70
     0
 10
0.0
 20
0.0
 30
0.0
  3
_ORIGIN
  1

  0
CIRCLE
  5
7E8
  8
0
  6
CONTINUOUS
 62
     7
 10
0.0
 20
0.0
 30
0.0
 40
0.5
  0
LINE
  5
7E9
  8
0
  6
CONTINUOUS
 62
     7
 10
0.0
 20
0.0
 30
0.0
 11
-1.0
 21
0.0
 31
0.0
  0
ENDBLK
  5
7EA
  8
0
  0
BLOCK
  8
0
 62
    30
  2
_NONE
 70
     0
 10
0.0
 20
0.0
 30
0.0
  3
_NONE
  1

  0
ENDBLK
  5
7ED
  8
0
 62
    30
  0
BLOCK
  8
0
 62
    30
  2
_OPEN30
 70
     0
 10
0.0
 20
0.0
 30
0.0
  3
_OPEN30
  1

  0
LINE
  5
7F0
  8
0
  6
BYBLOCK
 62
     0
 10
-1.0
 20
0.26794919
 30
0.0
 11
0.0
 21
0.0
 31
0.0
  0
LINE
  5
7F1
  8
0
  6
BYBLOCK
 62
     0
 10
0.0
 20
0.0
 30
0.0
 11
-1.0
 21
-0.26794919
 31
0.0
  0
LINE
  5
7F2
  8
0
  6
BYBLOCK
 62
     0
 10
0.0
 20
0.0
 30
0.0
 11
-1.0
 21
0.0
 31
0.0
  0
ENDBLK
  5
7F3
  8
0
 62
    30
  0
ENDSEC
  0
SECTION
  2
ENTITIES
  0
LINE
  5
7F4
  8
SIZE
  6
CONTINUOUS
 62
    30
 10
395.0
 20
0.0
 30
0.0
 11
754.09560599999998
 21
0.0
 31
0.0
  0
LINE
  5
7F5
  8
SIZE
  6
CONTINUOUS
 62
    30
 10
395.0
 20
-600.0
 30
0.0
 11
754.09560599999998
 21
-600.0
 31
0.0
  0
LINE
  5
7F6
  8
SIZE
  6
CONTINUOUS
 62
    30
 10
734.09560599999986
 20
-12.0
 30
0.0
 11
734.09560599999986
 21
-588.0
 31
0.0
  0
TEXT
  5
7F7
  8
SIZE
  6
CONTINUOUS
 62
    30
 10
709.15786900000001
 20
-374.05714285714282
 30
0.0
 40
64.0
  1
600
 50
90.0
 41
0.9
 72
     1
 11
709.15786900000001
 21
-300.0
 31
0.0
  0
CIRCLE
  5
7F8
  8
SIZE
  6
CONTINUOUS
 62
    30
 10
734.09560599999986
 20
0.0
 30
0.0
 40
6.0
  0
LINE
  5
7F9
  8
SIZE
  6
CONTINUOUS
 62
    30
 10
734.09560599999986
 20
0.0
 30
0.0
 11
734.09560599999986
 21
-12.0
 31
0.0
  0
CIRCLE
  5
7FA
  8
SIZE
  6
CONTINUOUS
 62
    30
 10
734.09560599999986
 20
-600.0
 30
0.0
 40
6.0
  0
LINE
  5
7FB
  8
SIZE
  6
CONTINUOUS
 62
    30
 10
734.09560599999986
 20
-600.0
 30
0.0
 11
734.09560599999986
 21
-588.0
 31
0.0
  0
LINE
  5
7FC
  8
DETAIL
  6
CONTINUOUS
 62
     5
 10
-375.0
 20
-200.0
 30
0.0
 11
-375.0
 21
0.0
 31
0.0
  0
LINE
  5
7FD
  8
DETAIL
  6
CONTINUOUS
 62
     5
 10
375.0
 20
0.0
 30
0.0
 11
-375.0
 21
0.0
 31
0.0
  0
LINE
  5
7FE
  8
DETAIL
  6
CONTINOUS
 62
     5
 10
75.0
 20
-553.0
 30
0.0
 11
-355.0
 21
-553.0
 31
0.0
  0
LINE
  5
7FF
  8
DETAIL
  6
CONTINOUS
 62
     5
 10
75.0
 20
-470.0
 30
0.0
 11
-355.0
 21
-470.0
 31
0.0
  0
LINE
  5
800
  8
BASIS
  6
DASHDOT
 62
     6
 10
0.0
 20
-671.94006799999966
 30
0.0
 11
0.0
 21
91.970927000000003
 31
0.0
  0
LINE
  5
801
  8
DETAIL
  6
CONTINOUS
 62
     5
 10
-375.0
 20
-600.0
 30
0.0
 11
-375.0
 21
-200.0
 31
0.0
  0
LINE
  5
802
  8
DETAIL
  6
CONTINOUS
 62
     5
 10
75.0
 20
-553.0
 30
0.0
 11
355.0
 21
-553.0
 31
0.0
  0
LINE
  5
803
  8
DETAIL
  6
CONTINOUS
 62
     5
 10
75.0
 20
-470.0
 30
0.0
 11
355.0
 21
-470.0
 31
0.0
  0
LINE
  5
804
  8
DETAIL
  6
CONTINOUS
 62
     5
 10
-375.0
 20
-200.0
 30
0.0
 11
375.0
 21
-200.0
 31
0.0
  0
LINE
  5
805
  8
DETAIL
  6
CONTINOUS
 62
     5
 10
375.0
 20
-600.0
 30
0.0
 11
375.0
 21
0.0
 31
0.0
  0
LINE
  5
806
  8
DETAIL
  6
CONTINOUS
 62
     5
 10
-375.0
 20
-600.0
 30
0.0
 11
375.0
 21
-600.0
 31
0.0
  0
LINE
  5
807
  8
DETAIL
  6
CONTINOUS
 62
     5
 10
-355.0
 20
-600.0
 30
0.0
 11
-355.0
 21
-200.0
 31
0.0
  0
LINE
  5
808
  8
DETAIL
  6
CONTINOUS
 62
     5
 10
355.0
 20
-600.0
 30
0.0
 11
355.0
 21
-200.0
 31
0.0
  0
LINE
  5
809
  8
DETAIL
  6
CONTINUOUS
 62
     5
 10
74.0
 20
0.0
 30
0.0
 11
74.0
 21
37.0
 31
0.0
  0
LINE
  5
80A
  8
DETAIL
  6
CONTINUOUS
 62
     5
 10
-74.0
 20
0.0
 30
0.0
 11
-74.0
 21
37.0
 31
0.0
  0
LINE
  5
80B
  8
DETAIL
  6
CONTINUOUS
 62
     5
 10
74.0
 20
37.0
 30
0.0
 11
-74.0
 21
37.0
 31
0.0
  0
TEXT
  5
80C
  8
NOTE
  6
CONTINUOUS
 62
     4
 10
144.97840400000001
 20
53.274194000000001
 30
0.0
 40
64.0
  1
OA
 41
0.9
  0
LINE
  5
80D
  8
SIZE
  6
CONTINUOUS
 62
    30
 10
375.0
 20
-620.0
 30
0.0
 11
375.0
 21
-884.13889399999982
 31
0.0
  0
LINE
  5
80E
  8
SIZE
  6
CONTINUOUS
 62
    30
 10
-375.0
 20
-620.0
 30
0.0
 11
-375.0
 21
-884.13889399999982
 31
0.0
  0
LINE
  5
80F
  8
SIZE
  6
CONTINUOUS
 62
    30
 10
363.0
 20
-864.13889399999982
 30
0.0
 11
-363.0
 21
-864.13889399999982
 31
0.0
  0
TEXT
  5
810
  8
SIZE
  6
CONTINUOUS
 62
    30
 10
-74.057142857142864
 20
-843.41845099999989
 30
0.0
 40
64.0
  1
750
 41
0.9
 72
     1
 11
0.0
 21
-843.41845099999989
 31
0.0
  0
CIRCLE
  5
811
  8
SIZE
  6
CONTINUOUS
 62
    30
 10
375.0
 20
-864.13889399999982
 30
0.0
 40
6.0
  0
LINE
  5
812
  8
SIZE
  6
CONTINUOUS
 62
    30
 10
375.0
 20
-864.13889399999982
 30
0.0
 11
363.0
 21
-864.13889399999982
 31
0.0
  0
CIRCLE
  5
813
  8
SIZE
  6
CONTINUOUS
 62
    30
 10
-375.0
 20
-864.13889399999982
 30
0.0
 40
6.0
  0
LINE
  5
814
  8
SIZE
  6
CONTINUOUS
 62
    30
 10
-375.0
 20
-864.13889399999982
 30
0.0
 11
-363.0
 21
-864.13889399999982
 31
0.0
  0
POINT
  5
815
  8
ARRANGE
  6
CONTINUOUS
 62
     1
 10
0.0
 20
0.0
 30
0.0
  0
CIRCLE
  5
816
  8
ARRANGE
  6
CONTINUOUS
 62
     1
 10
0.0
 20
0.0
 30
0.0
 40
40.0
  0
LINE
  5
818
  8
OUTLINE
  6
CONTINOUS
 62
     3
 10
375.0
 20
-600.0
 30
0.0
 11
375.0
 21
0.0
 31
0.0
  0
LINE
  5
819
  8
OUTLINE
  6
CONTINOUS
 62
     3
 10
-375.0
 20
-600.0
 30
0.0
 11
375.0
 21
-600.0
 31
0.0
  0
LINE
  5
81A
  8
OUTLINE
  6
CONTINUOUS
 62
     3
 10
-375.0
 20
-600.0
 30
0.0
 11
-375.0
 21
0.0
 31
0.0
  0
LINE
  5
81B
  8
DETAIL
  6
PHANTOM
 62
     5
 10
-126.0
 20
0.0
 30
0.0
 11
-126.0
 21
45.0
 31
0.0
  0
LINE
  5
81C
  8
DETAIL
  6
PHANTOM
 62
     5
 10
-126.0
 20
45.0
 30
0.0
 11
-274.0
 21
45.0
 31
0.0
  0
LINE
  5
81D
  8
DETAIL
  6
PHANTOM
 62
     5
 10
-274.0
 20
0.0
 30
0.0
 11
-274.0
 21
45.0
 31
0.0
  0
LINE
  5
81E
  8
BASIS
  6
DASHDOT
 62
     6
 10
-200.0
 20
-33.590437000000001
 30
0.0
 11
-200.0
 21
75.513159999999985
 31
0.0
  0
TEXT
  5
81F
  8
NOTE
  6
CONTINUOUS
 62
     4
 10
-389.80576300000001
 20
373.33546799999999
 30
0.0
 40
64.0
  1
上部給気接続口移動寸法
 41
0.9
  0
LINE
  5
820
  8
NOTE
  6
CONTINUOUS
 62
     4
 10
-241.391369
 20
44.398487000000003
 30
0.0
 11
-429.21975999999989
 21
176.066123
 31
0.0
  0
LINE
  5
821
  8
NOTE
  6
CONTINUOUS
 62
     4
 10
-429.21975999999989
 20
176.066123
 30
0.0
 11
-89.500000000000014
 21
45.0
 31
0.0
  0
LINE
  5
822
  8
NOTE
  6
CONTINUOUS
 62
     4
 10
-278.54157700000002
 20
59.226233999999991
 30
0.0
 11
-241.391369
 21
44.398487000000003
 31
0.0
  0
LINE
  5
823
  8
NOTE
  6
CONTINUOUS
 62
     4
 10
-241.391369
 20
44.398487000000003
 30
0.0
 11
-266.15051899999992
 21
75.814796000000001
 31
0.0
  0
LINE
  5
824
  8
NOTE
  6
CONTINUOUS
 62
     4
 10
-128.88807800000001
 20
51.969889000000002
 30
0.0
 11
-89.500000000000014
 21
45.0
 31
0.0
  0
LINE
  5
825
  8
NOTE
  6
CONTINUOUS
 62
     4
 10
-89.500000000000014
 20
45.0
 30
0.0
 11
-120.126131
 21
70.73014000000002
 31
0.0
  0
LINE
  5
826
  8
DETAIL
  6
CONTINOUS
 62
     5
 10
-375.0
 20
-185.0
 30
0.0
 11
375.0
 21
-185.0
 31
0.0
  0
LINE
  5
827
  8
SIZE
  6
CONTINUOUS
 62
    30
 10
-395.0
 20
-200.0
 30
0.0
 11
-517.22278300000005
 21
-200.0
 31
0.0
  0
LINE
  5
828
  8
SIZE
  6
CONTINUOUS
 62
    30
 10
-395.0
 20
-185.0
 30
0.0
 11
-517.22278300000005
 21
-185.0
 31
0.0
  0
LINE
  5
829
  8
SIZE
  6
CONTINUOUS
 62
    30
 10
-497.22278299999999
 20
-212.0
 30
0.0
 11
-497.22278299999999
 21
-224.0
 31
0.0
  0
LINE
  5
82A
  8
SIZE
  6
CONTINUOUS
 62
    30
 10
-497.22278299999999
 20
-173.0
 30
0.0
 11
-497.22278299999999
 21
-161.0
 31
0.0
  0
LINE
  5
82B
  8
SIZE
  6
CONTINUOUS
 62
    30
 10
-497.22278299999999
 20
-363.814347
 30
0.0
 11
-497.22278299999999
 21
-200.0
 31
0.0
  0
TEXT
  5
82C
  8
SIZE
  6
CONTINUOUS
 62
    30
 10
-522.22278300000005
 20
-338.81434614285712
 30
0.0
 40
64.0
  1
15
 50
90.0
 41
0.9
 72
     1
 11
-522.22278300000005
 21
-297.67148900000001
 31
0.0
  0
LINE
  5
82D
  8
SIZE
  6
CONTINUOUS
 62
    30
 10
-497.22278299999999
 20
-200.0
 30
0.0
 11
-497.22278299999999
 21
-185.0
 31
0.0
  0
LINE
  5
82E
  8
SIZE
  6
CONTINUOUS
 62
    30
 10
-497.22278299999999
 20
-200.0
 30
0.0
 11
-497.22278299999999
 21
-185.0
 31
0.0
  0
CIRCLE
  5
82F
  8
SIZE
  6
CONTINUOUS
 62
    30
 10
-497.22278299999999
 20
-200.0
 30
0.0
 40
6.0
  0
LINE
  5
830
  8
SIZE
  6
CONTINUOUS
 62
    30
 10
-497.22278299999999
 20
-200.0
 30
0.0
 11
-497.22278299999999
 21
-212.0
 31
0.0
  0
CIRCLE
  5
831
  8
SIZE
  6
CONTINUOUS
 62
    30
 10
-497.22278299999999
 20
-185.0
 30
0.0
 40
6.0
  0
LINE
  5
832
  8
SIZE
  6
CONTINUOUS
 62
    30
 10
-497.22278299999999
 20
-185.0
 30
0.0
 11
-497.22278299999999
 21
-173.0
 31
0.0
  0
LINE
  5
833
  8
SIZE
  6
CONTINUOUS
 62
    30
 10
-395.0
 20
-185.0
 30
0.0
 11
-517.22278300000005
 21
-185.0
 31
0.0
  0
LINE
  5
834
  8
SIZE
  6
CONTINUOUS
 62
    30
 10
-395.0
 20
0.0
 30
0.0
 11
-517.22278300000005
 21
0.0
 31
0.0
  0
LINE
  5
835
  8
SIZE
  6
CONTINUOUS
 62
    30
 10
-497.22278299999999
 20
-197.0
 30
0.0
 11
-497.22278299999999
 21
-209.0
 31
0.0
  0
LINE
  5
836
  8
SIZE
  6
CONTINUOUS
 62
    30
 10
-497.22278299999999
 20
-185.0
 30
0.0
 11
-497.22278299999999
 21
0.0
 31
0.0
  0
CIRCLE
  5
837
  8
SIZE
  6
CONTINUOUS
 62
    30
 10
-497.22278299999999
 20
-185.0
 30
0.0
 40
6.0
  0
LINE
  5
838
  8
SIZE
  6
CONTINUOUS
 62
    30
 10
-497.22278299999999
 20
-185.0
 30
0.0
 11
-497.22278299999999
 21
-197.0
 31
0.0
  0
CIRCLE
  5
839
  8
SIZE
  6
CONTINUOUS
 62
    30
 10
-497.22278299999999
 20
0.0
 30
0.0
 40
6.0
  0
TEXT
  5
83A
  8
SIZE
  6
CONTINUOUS
 62
    30
 10
-522.22278300000005
 20
-161.0714285714285
 30
0.0
 40
64.0
  1
185
 50
90.0
 41
0.9
 72
     1
 11
-522.22278300000005
 21
-92.5
 31
0.0
  0
LINE
  5
83B
  8
BASIS
  6
DASHDOT
 62
     6
 10
200.0
 20
-33.590437000000001
 30
0.0
 11
200.0
 21
75.513159999999985
 31
0.0
  0
LINE
  5
83C
  8
DETAIL
  6
PHANTOM
 62
     5
 10
274.0
 20
0.0
 30
0.0
 11
274.0
 21
45.0
 31
0.0
  0
LINE
  5
83D
  8
DETAIL
  6
PHANTOM
 62
     5
 10
126.0
 20
0.0
 30
0.0
 11
126.0
 21
45.0
 31
0.0
  0
LINE
  5
83E
  8
DETAIL
  6
PHANTOM
 62
     5
 10
274.0
 20
45.0
 30
0.0
 11
126.0
 21
45.0
 31
0.0
  0
LINE
  5
83F
  8
DETAIL
  6
PHANTOM
 62
     5
 10
34.0
 20
37.0
 30
0.0
 11
34.0
 21
45.0
 31
0.0
  0
LINE
  5
840
  8
DETAIL
  6
PHANTOM
 62
     5
 10
-89.500000000000014
 20
0.0
 30
0.0
 11
-89.500000000000014
 21
45.0
 31
0.0
  0
LINE
  5
841
  8
DETAIL
  6
PHANTOM
 62
     5
 10
58.5
 20
45.0
 30
0.0
 11
-89.500000000000014
 21
45.0
 31
0.0
  0
LINE
  5
842
  8
BASIS
  6
DASHDOT
 62
     6
 10
-40.0
 20
-33.590437000000001
 30
0.0
 11
-40.0
 21
75.513159999999985
 31
0.0
  0
LINE
  5
843
  8
DETAIL
  6
PHANTOM
 62
     5
 10
89.500000000000014
 20
45.0
 30
0.0
 11
-58.5
 21
45.0
 31
0.0
  0
LINE
  5
844
  8
DETAIL
  6
PHANTOM
 62
     5
 10
89.500000000000014
 20
0.0
 30
0.0
 11
89.500000000000014
 21
45.0
 31
0.0
  0
LINE
  5
845
  8
BASIS
  6
DASHDOT
 62
     6
 10
40.0
 20
-33.590437000000001
 30
0.0
 11
40.0
 21
75.513159999999985
 31
0.0
  0
LINE
  5
846
  8
SIZE
  6
CONTINUOUS
 62
    30
 10
200.0
 20
95.513159999999985
 30
0.0
 11
200.0
 21
587.65982799999995
 31
0.0
  0
LINE
  5
847
  8
SIZE
  6
CONTINUOUS
 62
    30
 10
-200.0
 20
95.513159999999985
 30
0.0
 11
-200.0
 21
587.65982799999995
 31
0.0
  0
LINE
  5
848
  8
SIZE
  6
CONTINUOUS
 62
    30
 10
188.0
 20
567.65982799999995
 30
0.0
 11
-188.0
 21
567.65982799999995
 31
0.0
  0
CIRCLE
  5
849
  8
SIZE
  6
CONTINUOUS
 62
    30
 10
200.0
 20
567.65982799999995
 30
0.0
 40
6.0
  0
LINE
  5
84A
  8
SIZE
  6
CONTINUOUS
 62
    30
 10
200.0
 20
567.65982799999995
 30
0.0
 11
188.0
 21
567.65982799999995
 31
0.0
  0
CIRCLE
  5
84B
  8
SIZE
  6
CONTINUOUS
 62
    30
 10
-200.0
 20
567.65982799999995
 30
0.0
 40
6.0
  0
LINE
  5
84C
  8
SIZE
  6
CONTINUOUS
 62
    30
 10
-200.0
 20
567.65982799999995
 30
0.0
 11
-188.0
 21
567.65982799999995
 31
0.0
  0
TEXT
  5
84D
  8
SIZE
  6
CONTINUOUS
 62
    30
 10
-74.05714285714285
 20
592.65982799999995
 30
0.0
 40
64.0
  1
400
 41
0.9
 72
     1
 11
0.0
 21
592.65982799999995
 31
0.0
  0
LINE
  5
84E
  8
SIZE
  6
CONTINUOUS
 62
    30
 10
-200.0
 20
95.513159999999985
 30
0.0
 11
-200.0
 21
476.90498500000001
 31
0.0
  0
LINE
  5
84F
  8
SIZE
  6
CONTINUOUS
 62
    30
 10
-40.0
 20
95.513159999999985
 30
0.0
 11
-40.0
 21
476.90498500000001
 31
0.0
  0
LINE
  5
850
  8
SIZE
  6
CONTINUOUS
 62
    30
 10
-200.0
 20
456.90498499999978
 30
0.0
 11
-40.0
 21
456.90498499999978
 31
0.0
  0
CIRCLE
  5
851
  8
SIZE
  6
CONTINUOUS
 62
    30
 10
-200.0
 20
456.90498499999978
 30
0.0
 40
6.0
  0
CIRCLE
  5
852
  8
SIZE
  6
CONTINUOUS
 62
    30
 10
-40.0
 20
456.90498499999978
 30
0.0
 40
6.0
  0
TEXT
  5
853
  8
SIZE
  6
CONTINUOUS
 62
    30
 10
-188.5714285714285
 20
481.90498499999978
 30
0.0
 40
64.0
  1
160
 41
0.9
 72
     1
 11
-120.0
 21
481.90498499999978
 31
0.0
  0
LINE
  5
854
  8
SIZE
  6
CONTINUOUS
 62
    30
 10
40.0
 20
95.513159999999985
 30
0.0
 11
40.0
 21
476.90498500000001
 31
0.0
  0
LINE
  5
855
  8
SIZE
  6
CONTINUOUS
 62
    30
 10
200.0
 20
95.513159999999985
 30
0.0
 11
200.0
 21
476.90498500000001
 31
0.0
  0
LINE
  5
856
  8
SIZE
  6
CONTINUOUS
 62
    30
 10
40.0
 20
456.90498499999978
 30
0.0
 11
200.0
 21
456.90498499999978
 31
0.0
  0
CIRCLE
  5
857
  8
SIZE
  6
CONTINUOUS
 62
    30
 10
40.0
 20
456.90498499999978
 30
0.0
 40
6.0
  0
CIRCLE
  5
858
  8
SIZE
  6
CONTINUOUS
 62
    30
 10
200.0
 20
456.90498499999978
 30
0.0
 40
6.0
  0
TEXT
  5
859
  8
SIZE
  6
CONTINUOUS
 62
    30
 10
51.428571428571452
 20
481.90498499999978
 30
0.0
 40
64.0
  1
160
 41
0.9
 72
     1
 11
120.0
 21
481.90498499999978
 31
0.0
  0
LINE
  5
85A
  8
NOTE
  6
CONTINUOUS
 62
     4
 10
-1071.258597
 20
176.066123
 30
0.0
 11
-429.21975999999989
 21
176.066123
 31
0.0
  0
TEXT
  5
85B
  8
NOTE
  6
CONTINUOUS
 62
     4
 10
-1062.122683999999
 20
201.09354399999989
 30
0.0
 40
64.0
  1
上部左側給気接続口
 41
0.9
  0
LINE
  5
85C
  8
NOTE
  6
CONTINUOUS
 62
     4
 10
1122.1388910000001
 20
173.91923899999989
 30
0.0
 11
472.934169
 21
173.91923899999989
 31
0.0
  0
TEXT
  5
85D
  8
NOTE
  6
CONTINUOUS
 62
     4
 10
476.33358700000002
 20
204.07399099999981
 30
0.0
 40
64.0
  1
上部右側給気接続口
 41
0.9
  0
LINE
  5
85E
  8
BASIS
  6
DASHDOT
 62
     6
 10
-6.0
 20
-19.508880999999999
 30
0.0
 11
-6.0
 21
59.046615000000003
 31
0.0
  0
LINE
  5
85F
  8
BASIS
  6
DASHDOT
 62
     6
 10
6.0
 20
-19.508880999999999
 30
0.0
 11
6.0
 21
59.046615000000003
 31
0.0
  0
LINE
  5
860
  8
SIZE
  6
CONTINUOUS
 62
    30
 10
74.0
 20
-20.0
 30
0.0
 11
74.0
 21
-333.88860499999993
 31
0.0
  0
LINE
  5
861
  8
SIZE
  6
CONTINUOUS
 62
    30
 10
-74.0
 20
-20.0
 30
0.0
 11
-74.0
 21
-333.88860499999993
 31
0.0
  0
LINE
  5
862
  8
SIZE
  6
CONTINUOUS
 62
    30
 10
74.0
 20
-313.88860499999993
 30
0.0
 11
-74.0
 21
-313.88860499999993
 31
0.0
  0
CIRCLE
  5
863
  8
SIZE
  6
CONTINUOUS
 62
    30
 10
74.0
 20
-313.88860499999993
 30
0.0
 40
6.0
  0
CIRCLE
  5
864
  8
SIZE
  6
CONTINUOUS
 62
    30
 10
-74.0
 20
-313.88860499999993
 30
0.0
 40
6.0
  0
TEXT
  5
865
  8
SIZE
  6
CONTINUOUS
 62
    30
 10
-108.89142857142851
 20
-288.88860499999993
 30
0.0
 40
64.0
  1
φ148
 41
0.9
 72
     1
 11
0.0
 21
-288.88860499999993
 31
0.0
  0
LINE
  5
866
  8
SIZE
  6
CONTINUOUS
 62
    30
 10
6.0
 20
79.046615000000003
 30
0.0
 11
6.0
 21
256.54147499999982
 31
0.0
  0
LINE
  5
867
  8
SIZE
  6
CONTINUOUS
 62
    30
 10
-6.0
 20
79.046615000000003
 30
0.0
 11
-6.0
 21
256.54147499999982
 31
0.0
  0
LINE
  5
868
  8
SIZE
  6
CONTINUOUS
 62
    30
 10
18.0
 20
236.54147499999991
 30
0.0
 11
30.0
 21
236.54147499999991
 31
0.0
  0
LINE
  5
869
  8
SIZE
  6
CONTINUOUS
 62
    30
 10
-18.0
 20
236.54147499999991
 30
0.0
 11
-30.0
 21
236.54147499999991
 31
0.0
  0
LINE
  5
86A
  8
SIZE
  6
CONTINUOUS
 62
    30
 10
6.0
 20
236.54147499999991
 30
0.0
 11
-6.0
 21
236.54147499999991
 31
0.0
  0
CIRCLE
  5
86B
  8
SIZE
  6
CONTINUOUS
 62
    30
 10
6.0
 20
236.54147499999991
 30
0.0
 40
6.0
  0
LINE
  5
86C
  8
SIZE
  6
CONTINUOUS
 62
    30
 10
6.0
 20
236.54147499999991
 30
0.0
 11
18.0
 21
236.54147499999991
 31
0.0
  0
CIRCLE
  5
86D
  8
SIZE
  6
CONTINUOUS
 62
    30
 10
-6.0
 20
236.54147499999991
 30
0.0
 40
6.0
  0
LINE
  5
86E
  8
SIZE
  6
CONTINUOUS
 62
    30
 10
-6.0
 20
236.54147499999991
 30
0.0
 11
-18.0
 21
236.54147499999991
 31
0.0
  0
TEXT
  5
86F
  8
SIZE
  6
CONTINUOUS
 62
    30
 10
-41.142857142857132
 20
261.54147499999982
 30
0.0
 40
64.0
  1
12
 41
0.9
 72
     1
 11
0.0
 21
261.54147499999982
 31
0.0
  0
TEXT
  5
870
  8
NOTE
  6
CONTINUOUS
 62
     4
 10
-338.32855899999993
 20
156.73882800000001
 30
0.0
 40
64.0
  1
ダクト接続口可動寸法
 41
0.9
  0
TEXT
  5
871
  8
NOTE
  6
CONTINUOUS
 62
     4
 10
-44.986184999999999
 20
-47.313388000000003
 30
0.0
 40
64.0
  1
EA
 41
0.9
  0
LINE
  5
872
  8
NOTE
  6
CONTINUOUS
 62
     4
 39
50.0
 10
472.934169
 20
173.91923899999989
 30
0.0
 11
249.224672
 21
45.0
 31
0.0
  0
LINE
  5
873
  8
NOTE
  6
CONTINUOUS
 62
     4
 39
50.0
 10
472.934169
 20
173.91923899999989
 30
0.0
 11
89.500000000000014
 21
45.0
 31
0.0
  0
LINE
  5
874
  8
NOTE
  6
CONTINUOUS
 62
     4
 10
277.772535
 20
73.018199999999979
 30
0.0
 11
249.224672
 21
45.0
 31
0.0
  0
LINE
  5
875
  8
NOTE
  6
CONTINUOUS
 62
     4
 10
249.224672
 20
45.0
 30
0.0
 11
287.95694600000002
 21
54.990541
 31
0.0
  0
LINE
  5
876
  8
NOTE
  6
CONTINUOUS
 62
     4
 10
121.871409
 20
68.496634999999998
 30
0.0
 11
89.500000000000014
 21
45.0
 31
0.0
  0
LINE
  5
877
  8
NOTE
  6
CONTINUOUS
 62
     4
 10
89.500000000000014
 20
45.0
 30
0.0
 11
129.2827799999996
 21
49.162978000000003
 31
0.0
  0
LINE
  5
878
  8
SIZE
  6
CONTINUOUS
 62
    30
 10
395.0
 20
-600.0
 30
0.0
 11
625.06108200000017
 21
-600.0
 31
0.0
  0
LINE
  5
879
  8
SIZE
  6
CONTINUOUS
 62
    30
 10
395.0
 20
-200.0
 30
0.0
 11
625.06108200000017
 21
-200.0
 31
0.0
  0
LINE
  5
87A
  8
SIZE
  6
CONTINUOUS
 62
    30
 10
605.06108200000006
 20
-588.0
 30
0.0
 11
605.06108200000006
 21
-212.0
 31
0.0
  0
CIRCLE
  5
87B
  8
SIZE
  6
CONTINUOUS
 62
    30
 10
605.06108200000006
 20
-600.0
 30
0.0
 40
6.0
  0
LINE
  5
87C
  8
SIZE
  6
CONTINUOUS
 62
    30
 10
605.06108200000006
 20
-600.0
 30
0.0
 11
605.06108200000006
 21
-588.0
 31
0.0
  0
CIRCLE
  5
87D
  8
SIZE
  6
CONTINUOUS
 62
    30
 10
605.06108200000006
 20
-200.0
 30
0.0
 40
6.0
  0
LINE
  5
87E
  8
SIZE
  6
CONTINUOUS
 62
    30
 10
605.06108200000006
 20
-200.0
 30
0.0
 11
605.06108200000006
 21
-212.0
 31
0.0
  0
TEXT
  5
87F
  8
SIZE
  6
CONTINUOUS
 62
    30
 10
580.06108200000006
 20
-474.05714285714282
 30
0.0
 40
64.0
  1
400
 50
90.0
 41
0.9
 72
     1
 11
580.06108200000006
 21
-400.0
 31
0.0
  0
ARC
  5
880
  8
DETAIL
  6
CONTINOUS
 62
     5
 10
35.669301000000011
 20
-515.74780799999985
 30
0.0
 40
70.0
 50
346.07795600000009
 51
0.0
  0
CIRCLE
  5
881
  8
DETAIL
  6
CONTINOUS
 62
     5
 10
51.669301000000011
 20
-518.24780799999996
 30
0.0
 40
8.3000000000000007
  0
CIRCLE
  5
882
  8
DETAIL
  6
CONTINOUS
 62
     5
 10
51.669301000000011
 20
-518.24780799999996
 30
0.0
 40
6.5
  0
CIRCLE
  5
883
  8
DETAIL
  6
CONTINOUS
 62
     5
 10
8.6693009999999902
 20
-518.24780799999996
 30
0.0
 40
8.3000000000000007
  0
CIRCLE
  5
884
  8
DETAIL
  6
CONTINOUS
 62
     5
 10
8.6693009999999902
 20
-518.24780799999996
 30
0.0
 40
6.5
  0
CIRCLE
  5
885
  8
DETAIL
  6
CONTINOUS
 62
     5
 10
30.169301000000011
 20
-518.24780799999996
 30
0.0
 40
8.3000000000000007
  0
CIRCLE
  5
886
  8
DETAIL
  6
CONTINOUS
 62
     5
 10
30.169301000000011
 20
-518.24780799999996
 30
0.0
 40
6.5
  0
CIRCLE
  5
887
  8
DETAIL
  6
CONTINOUS
 62
     5
 10
-55.830698999999981
 20
-518.24780799999996
 30
0.0
 40
8.3000000000000007
  0
CIRCLE
  5
888
  8
DETAIL
  6
CONTINOUS
 62
     5
 10
-55.830698999999981
 20
-518.24780799999996
 30
0.0
 40
6.5
  0
CIRCLE
  5
889
  8
DETAIL
  6
CONTINOUS
 62
     5
 10
-34.330698999999981
 20
-518.24780799999996
 30
0.0
 40
6.5
  0
ARC
  5
88A
  8
DETAIL
  6
CONTINOUS
 62
     5
 10
-104.8306989999999
 20
-515.74780799999985
 30
0.0
 40
10.5
 50
90.0
 51
270.0
  0
ARC
  5
88B
  8
DETAIL
  6
CONTINOUS
 62
     5
 10
-104.8306989999999
 20
-515.74780799999985
 30
0.0
 40
19.5
 50
90.0
 51
270.0
  0
CIRCLE
  5
88C
  8
DETAIL
  6
CONTINOUS
 62
     5
 10
-34.330698999999981
 20
-518.24780799999996
 30
0.0
 40
8.3000000000000007
  0
LINE
  5
88D
  8
DETAIL
  6
CONTINOUS
 62
     5
 10
-104.8306989999999
 20
-526.55063700000005
 30
0.0
 11
104.8306989999999
 21
-526.55063700000005
 31
0.0
  0
LINE
  5
88E
  8
DETAIL
  6
CONTINOUS
 62
     5
 10
-104.8306989999999
 20
-535.24780799999996
 30
0.0
 11
100.2157959999999
 21
-535.24780799999996
 31
0.0
  0
ARC
  5
88F
  8
DETAIL
  6
CONTINOUS
 62
     5
 10
100.2157959999999
 20
-531.74780799999985
 30
0.0
 40
3.5
 50
270.0
 51
346.07795600000009
  0
LINE
  5
890
  8
DETAIL
  6
CONTINOUS
 62
     5
 10
-104.8306989999999
 20
-496.24780800000002
 30
0.0
 11
65.669301000000019
 21
-496.24780800000002
 31
0.0
  0
LINE
  5
891
  8
DETAIL
  6
CONTINOUS
 62
     5
 10
-104.8710869999996
 20
-505.231607
 30
0.0
 11
104.874861
 21
-505.231607
 31
0.0
  0
ARC
  5
892
  8
DETAIL
  6
CONTINOUS
 62
     5
 10
100.2157959999999
 20
-499.74780800000002
 30
0.0
 40
3.5
 50
13.922043999999991
 51
90.0
  0
LINE
  5
893
  8
DETAIL
  6
CONTINOUS
 62
     5
 10
65.669301000000019
 20
-496.24780800000002
 30
0.0
 11
100.813372
 21
-496.24780800000002
 31
0.0
  0
ARC
  5
894
  8
DETAIL
  6
CONTINOUS
 62
     5
 10
35.669301000000011
 20
-515.74780799999985
 30
0.0
 40
70.0
 50
0.0
 51
13.922043999999991
  0
LINE
  5
895
  8
DETAIL
  6
CONTINUOUS
 62
     5
 10
163.4999999999998
 20
-125.23105099999999
 30
0.0
 11
286.5
 21
-125.23105099999999
 31
0.0
  0
LINE
  5
896
  8
DETAIL
  6
CONTINUOUS
 62
     5
 10
163.0
 20
-123.03008899999971
 30
0.0
 11
287.0
 21
-123.03008899999971
 31
0.0
  0
LINE
  5
897
  8
DETAIL
  6
CONTINUOUS
 62
     5
 10
162.0
 20
-119.097076
 30
0.0
 11
288.0
 21
-119.097076
 31
0.0
  0
LINE
  5
898
  8
DETAIL
  6
CONTINUOUS
 62
     5
 10
163.4999999999998
 20
-114.2310509999997
 30
0.0
 11
286.5
 21
-114.2310509999997
 31
0.0
  0
LINE
  5
899
  8
DETAIL
  6
CONTINUOUS
 62
     5
 10
162.0
 20
-108.097076
 30
0.0
 11
288.0
 21
-108.097076
 31
0.0
  0
LINE
  5
89A
  8
DETAIL
  6
CONTINUOUS
 62
     5
 10
163.0
 20
-112.0300889999999
 30
0.0
 11
287.0
 21
-112.0300889999999
 31
0.0
  0
LINE
  5
89B
  8
DETAIL
  6
CONTINUOUS
 62
     5
 10
163.4999999999998
 20
-103.23105099999979
 30
0.0
 11
286.5
 21
-103.23105099999979
 31
0.0
  0
LINE
  5
89C
  8
DETAIL
  6
CONTINUOUS
 62
     5
 10
163.0
 20
-101.030089
 30
0.0
 11
287.0
 21
-101.030089
 31
0.0
  0
LINE
  5
89D
  8
DETAIL
  6
CONTINUOUS
 62
     5
 10
162.0
 20
-97.097076000000015
 30
0.0
 11
288.0
 21
-97.097076000000015
 31
0.0
  0
LINE
  5
89E
  8
DETAIL
  6
CONTINUOUS
 62
     5
 10
163.4999999999998
 20
-92.231050999999994
 30
0.0
 11
286.5
 21
-92.231050999999994
 31
0.0
  0
LINE
  5
89F
  8
DETAIL
  6
CONTINUOUS
 62
     5
 10
162.0
 20
-86.097076000000001
 30
0.0
 11
288.0
 21
-86.097076000000001
 31
0.0
  0
LINE
  5
8A0
  8
DETAIL
  6
CONTINUOUS
 62
     5
 10
163.0
 20
-90.030089000000004
 30
0.0
 11
287.0
 21
-90.030089000000004
 31
0.0
  0
LINE
  5
8A1
  8
DETAIL
  6
CONTINUOUS
 62
     5
 10
163.4999999999998
 20
-81.231050999999979
 30
0.0
 11
286.5
 21
-81.231050999999979
 31
0.0
  0
LINE
  5
8A2
  8
DETAIL
  6
CONTINUOUS
 62
     5
 10
162.0
 20
-75.097076000000001
 30
0.0
 11
288.0
 21
-75.097076000000001
 31
0.0
  0
LINE
  5
8A3
  8
DETAIL
  6
CONTINUOUS
 62
     5
 10
163.0
 20
-79.030089000000004
 30
0.0
 11
287.0
 21
-79.030089000000004
 31
0.0
  0
LINE
  5
8A4
  8
DETAIL
  6
CONTINUOUS
 62
     5
 10
163.4999999999998
 20
-59.231051000000001
 30
0.0
 11
286.5
 21
-59.231051000000001
 31
0.0
  0
LINE
  5
8A5
  8
DETAIL
  6
CONTINUOUS
 62
     5
 10
162.0
 20
-53.097076000000001
 30
0.0
 11
288.0
 21
-53.097076000000001
 31
0.0
  0
LINE
  5
8A6
  8
DETAIL
  6
CONTINUOUS
 62
     5
 10
163.0
 20
-57.030088999999997
 30
0.0
 11
287.0
 21
-57.030088999999997
 31
0.0
  0
LINE
  5
8A7
  8
DETAIL
  6
CONTINUOUS
 62
     5
 10
163.4999999999998
 20
-70.231051000000008
 30
0.0
 11
286.5
 21
-70.231051000000008
 31
0.0
  0
LINE
  5
8A8
  8
DETAIL
  6
CONTINUOUS
 62
     5
 10
162.0
 20
-64.097076000000001
 30
0.0
 11
288.0
 21
-64.097076000000001
 31
0.0
  0
LINE
  5
8A9
  8
DETAIL
  6
CONTINUOUS
 62
     5
 10
163.0
 20
-68.030089000000004
 30
0.0
 11
287.0
 21
-68.030089000000004
 31
0.0
  0
LINE
  5
8AA
  8
DETAIL
  6
CONTINUOUS
 62
     5
 10
75.0
 20
-68.030089000000004
 30
0.0
 11
13.0
 21
-68.030089000000004
 31
0.0
  0
LINE
  5
8AB
  8
DETAIL
  6
CONTINUOUS
 62
     5
 10
75.0
 20
-64.097076000000001
 30
0.0
 11
12.0
 21
-64.097076000000001
 31
0.0
  0
LINE
  5
8AC
  8
DETAIL
  6
CONTINUOUS
 62
     5
 10
75.0
 20
-70.231051000000008
 30
0.0
 11
13.5
 21
-70.231051000000008
 31
0.0
  0
LINE
  5
8AD
  8
DETAIL
  6
CONTINUOUS
 62
     5
 10
75.0
 20
-57.030088999999997
 30
0.0
 11
13.0
 21
-57.030088999999997
 31
0.0
  0
LINE
  5
8AE
  8
DETAIL
  6
CONTINUOUS
 62
     5
 10
75.0
 20
-53.097076000000001
 30
0.0
 11
12.0
 21
-53.097076000000001
 31
0.0
  0
LINE
  5
8AF
  8
DETAIL
  6
CONTINUOUS
 62
     5
 10
75.0
 20
-59.231051000000001
 30
0.0
 11
13.5
 21
-59.231051000000001
 31
0.0
  0
LINE
  5
8B0
  8
DETAIL
  6
CONTINUOUS
 62
     5
 10
75.0
 20
-79.030089000000004
 30
0.0
 11
13.0
 21
-79.030089000000004
 31
0.0
  0
LINE
  5
8B1
  8
DETAIL
  6
CONTINUOUS
 62
     5
 10
75.0
 20
-75.097076000000001
 30
0.0
 11
12.0
 21
-75.097076000000001
 31
0.0
  0
LINE
  5
8B2
  8
DETAIL
  6
CONTINUOUS
 62
     5
 10
75.0
 20
-81.231050999999979
 30
0.0
 11
13.5
 21
-81.231050999999979
 31
0.0
  0
LINE
  5
8B3
  8
DETAIL
  6
CONTINUOUS
 62
     5
 10
75.0
 20
-90.030089000000004
 30
0.0
 11
13.0
 21
-90.030089000000004
 31
0.0
  0
LINE
  5
8B4
  8
DETAIL
  6
CONTINUOUS
 62
     5
 10
75.0
 20
-86.097076000000001
 30
0.0
 11
12.0
 21
-86.097076000000001
 31
0.0
  0
LINE
  5
8B5
  8
DETAIL
  6
CONTINUOUS
 62
     5
 10
75.0
 20
-92.231050999999994
 30
0.0
 11
13.5
 21
-92.231050999999994
 31
0.0
  0
LINE
  5
8B6
  8
DETAIL
  6
CONTINUOUS
 62
     5
 10
75.0
 20
-97.097076000000015
 30
0.0
 11
12.0
 21
-97.097076000000015
 31
0.0
  0
LINE
  5
8B7
  8
DETAIL
  6
CONTINUOUS
 62
     5
 10
75.0
 20
-101.030089
 30
0.0
 11
13.0
 21
-101.030089
 31
0.0
  0
LINE
  5
8B8
  8
DETAIL
  6
CONTINUOUS
 62
     5
 10
75.0
 20
-103.23105099999979
 30
0.0
 11
13.5
 21
-103.23105099999979
 31
0.0
  0
LINE
  5
8B9
  8
DETAIL
  6
CONTINUOUS
 62
     5
 10
75.0
 20
-112.0300889999999
 30
0.0
 11
13.0
 21
-112.0300889999999
 31
0.0
  0
LINE
  5
8BA
  8
DETAIL
  6
CONTINUOUS
 62
     5
 10
75.0
 20
-108.097076
 30
0.0
 11
12.0
 21
-108.097076
 31
0.0
  0
LINE
  5
8BB
  8
DETAIL
  6
CONTINUOUS
 62
     5
 10
75.0
 20
-114.2310509999997
 30
0.0
 11
13.5
 21
-114.2310509999997
 31
0.0
  0
LINE
  5
8BC
  8
DETAIL
  6
CONTINUOUS
 62
     5
 10
75.0
 20
-119.097076
 30
0.0
 11
12.0
 21
-119.097076
 31
0.0
  0
LINE
  5
8BD
  8
DETAIL
  6
CONTINUOUS
 62
     5
 10
75.0
 20
-123.03008899999971
 30
0.0
 11
13.0
 21
-123.03008899999971
 31
0.0
  0
LINE
  5
8BE
  8
DETAIL
  6
CONTINUOUS
 62
     5
 10
75.0
 20
-125.23105099999999
 30
0.0
 11
13.5
 21
-125.23105099999999
 31
0.0
  0
ARC
  5
8BF
  8
DETAIL
  6
CONTINUOUS
 62
     5
 10
13.0
 20
-76.030089000000004
 30
0.0
 40
3.0
 50
180.0
 51
270.0
  0
LINE
  5
8C0
  8
DETAIL
  6
CONTINUOUS
 62
     5
 10
10.0
 20
-77.731050999999979
 30
0.0
 11
10.0
 21
-74.231050999999979
 31
0.0
  0
ARC
  5
8C1
  8
DETAIL
  6
CONTINUOUS
 62
     5
 10
13.5
 20
-77.731050999999979
 30
0.0
 40
3.5
 50
180.0
 51
270.0
  0
ARC
  5
8C2
  8
DETAIL
  6
CONTINUOUS
 62
     5
 10
13.0
 20
-87.030089000000004
 30
0.0
 40
3.0
 50
180.0
 51
270.0
  0
LINE
  5
8C3
  8
DETAIL
  6
CONTINUOUS
 62
     5
 10
10.0
 20
-88.731050999999979
 30
0.0
 11
10.0
 21
-85.231050999999979
 31
0.0
  0
ARC
  5
8C4
  8
DETAIL
  6
CONTINUOUS
 62
     5
 10
13.5
 20
-88.731050999999979
 30
0.0
 40
3.5
 50
180.0
 51
270.0
  0
ARC
  5
8C5
  8
DETAIL
  6
CONTINUOUS
 62
     5
 10
13.0
 20
-98.030089000000004
 30
0.0
 40
3.0
 50
180.0
 51
270.0
  0
LINE
  5
8C6
  8
DETAIL
  6
CONTINUOUS
 62
     5
 10
10.0
 20
-99.731050999999994
 30
0.0
 11
10.0
 21
-96.231050999999994
 31
0.0
  0
ARC
  5
8C7
  8
DETAIL
  6
CONTINUOUS
 62
     5
 10
13.5
 20
-99.731050999999994
 30
0.0
 40
3.5
 50
180.0
 51
270.0
  0
ARC
  5
8C8
  8
DETAIL
  6
CONTINUOUS
 62
     5
 10
13.5
 20
-110.73105099999999
 30
0.0
 40
3.5
 50
180.0
 51
270.0
  0
ARC
  5
8C9
  8
DETAIL
  6
CONTINUOUS
 62
     5
 10
13.5
 20
-121.7310509999997
 30
0.0
 40
3.5
 50
180.0
 51
270.0
  0
LINE
  5
8CA
  8
DETAIL
  6
CONTINUOUS
 62
     5
 10
10.0
 20
-121.7310509999997
 30
0.0
 11
10.0
 21
-118.2310509999997
 31
0.0
  0
ARC
  5
8CB
  8
DETAIL
  6
CONTINUOUS
 62
     5
 10
13.0
 20
-120.0300889999999
 30
0.0
 40
3.0
 50
180.0
 51
270.0
  0
ARC
  5
8CC
  8
DETAIL
  6
CONTINUOUS
 62
     5
 10
13.0
 20
-109.0300889999999
 30
0.0
 40
3.0
 50
180.0
 51
270.0
  0
LINE
  5
8CD
  8
DETAIL
  6
CONTINUOUS
 62
     5
 10
10.0
 20
-110.73105099999999
 30
0.0
 11
10.0
 21
-107.2310509999997
 31
0.0
  0
ARC
  5
8CE
  8
DETAIL
  6
CONTINUOUS
 62
     5
 10
13.0
 20
-54.03008899999999
 30
0.0
 40
3.0
 50
180.0
 51
270.0
  0
LINE
  5
8CF
  8
DETAIL
  6
CONTINUOUS
 62
     5
 10
10.0
 20
-55.731051000000001
 30
0.0
 11
10.0
 21
-52.231051000000001
 31
0.0
  0
ARC
  5
8D0
  8
DETAIL
  6
CONTINUOUS
 62
     5
 10
13.5
 20
-55.731051000000001
 30
0.0
 40
3.5
 50
180.0
 51
270.0
  0
ARC
  5
8D1
  8
DETAIL
  6
CONTINUOUS
 62
     5
 10
13.0
 20
-65.030089000000004
 30
0.0
 40
3.0
 50
180.0
 51
270.0
  0
LINE
  5
8D2
  8
DETAIL
  6
CONTINUOUS
 62
     5
 10
10.0
 20
-66.731050999999994
 30
0.0
 11
10.0
 21
-63.231051000000001
 31
0.0
  0
ARC
  5
8D3
  8
DETAIL
  6
CONTINUOUS
 62
     5
 10
13.5
 20
-66.731050999999994
 30
0.0
 40
3.5
 50
180.0
 51
270.0
  0
LINE
  5
8D4
  8
DETAIL
  6
CONTINUOUS
 62
     5
 10
75.0
 20
-125.23105099999999
 30
0.0
 11
136.4999999999996
 21
-125.23105099999999
 31
0.0
  0
LINE
  5
8D5
  8
DETAIL
  6
CONTINUOUS
 62
     5
 10
75.0
 20
-123.03008899999971
 30
0.0
 11
137.0
 21
-123.03008899999971
 31
0.0
  0
LINE
  5
8D6
  8
DETAIL
  6
CONTINUOUS
 62
     5
 10
75.0
 20
-119.097076
 30
0.0
 11
138.0
 21
-119.097076
 31
0.0
  0
LINE
  5
8D7
  8
DETAIL
  6
CONTINUOUS
 62
     5
 10
75.0
 20
-114.2310509999997
 30
0.0
 11
136.4999999999996
 21
-114.2310509999997
 31
0.0
  0
LINE
  5
8D8
  8
DETAIL
  6
CONTINUOUS
 62
     5
 10
75.0
 20
-108.097076
 30
0.0
 11
138.0
 21
-108.097076
 31
0.0
  0
LINE
  5
8D9
  8
DETAIL
  6
CONTINUOUS
 62
     5
 10
75.0
 20
-112.0300889999999
 30
0.0
 11
137.0
 21
-112.0300889999999
 31
0.0
  0
LINE
  5
8DA
  8
DETAIL
  6
CONTINUOUS
 62
     5
 10
75.0
 20
-103.23105099999979
 30
0.0
 11
136.4999999999996
 21
-103.23105099999979
 31
0.0
  0
LINE
  5
8DB
  8
DETAIL
  6
CONTINUOUS
 62
     5
 10
75.0
 20
-101.030089
 30
0.0
 11
137.0
 21
-101.030089
 31
0.0
  0
LINE
  5
8DC
  8
DETAIL
  6
CONTINUOUS
 62
     5
 10
75.0
 20
-97.097076000000015
 30
0.0
 11
138.0
 21
-97.097076000000015
 31
0.0
  0
LINE
  5
8DD
  8
DETAIL
  6
CONTINUOUS
 62
     5
 10
75.0
 20
-92.231050999999994
 30
0.0
 11
136.4999999999996
 21
-92.231050999999994
 31
0.0
  0
LINE
  5
8DE
  8
DETAIL
  6
CONTINUOUS
 62
     5
 10
75.0
 20
-86.097076000000001
 30
0.0
 11
138.0
 21
-86.097076000000001
 31
0.0
  0
LINE
  5
8DF
  8
DETAIL
  6
CONTINUOUS
 62
     5
 10
75.0
 20
-90.030089000000004
 30
0.0
 11
137.0
 21
-90.030089000000004
 31
0.0
  0
LINE
  5
8E0
  8
DETAIL
  6
CONTINUOUS
 62
     5
 10
75.0
 20
-81.231050999999979
 30
0.0
 11
136.4999999999996
 21
-81.231050999999979
 31
0.0
  0
LINE
  5
8E1
  8
DETAIL
  6
CONTINUOUS
 62
     5
 10
75.0
 20
-75.097076000000001
 30
0.0
 11
138.0
 21
-75.097076000000001
 31
0.0
  0
LINE
  5
8E2
  8
DETAIL
  6
CONTINUOUS
 62
     5
 10
75.0
 20
-79.030089000000004
 30
0.0
 11
137.0
 21
-79.030089000000004
 31
0.0
  0
ARC
  5
8E3
  8
DETAIL
  6
CONTINUOUS
 62
     5
 10
163.4999999999998
 20
-99.731050999999994
 30
0.0
 40
3.5
 50
180.0
 51
270.0
  0
LINE
  5
8E4
  8
DETAIL
  6
CONTINUOUS
 62
     5
 10
160.0
 20
-99.731050999999994
 30
0.0
 11
160.0
 21
-96.231050999999994
 31
0.0
  0
ARC
  5
8E5
  8
DETAIL
  6
CONTINUOUS
 62
     5
 10
163.0
 20
-98.030089000000004
 30
0.0
 40
3.0
 50
180.0
 51
270.0
  0
LINE
  5
8E6
  8
DETAIL
  6
CONTINUOUS
 62
     5
 10
160.0
 20
-88.731050999999979
 30
0.0
 11
160.0
 21
-85.231050999999979
 31
0.0
  0
ARC
  5
8E7
  8
DETAIL
  6
CONTINUOUS
 62
     5
 10
163.4999999999998
 20
-88.731050999999979
 30
0.0
 40
3.5
 50
180.0
 51
270.0
  0
ARC
  5
8E8
  8
DETAIL
  6
CONTINUOUS
 62
     5
 10
163.0
 20
-87.030089000000004
 30
0.0
 40
3.0
 50
180.0
 51
270.0
  0
LINE
  5
8E9
  8
DETAIL
  6
CONTINUOUS
 62
     5
 10
160.0
 20
-77.731050999999979
 30
0.0
 11
160.0
 21
-74.231050999999979
 31
0.0
  0
ARC
  5
8EA
  8
DETAIL
  6
CONTINUOUS
 62
     5
 10
163.4999999999998
 20
-77.731050999999979
 30
0.0
 40
3.5
 50
180.0
 51
270.0
  0
ARC
  5
8EB
  8
DETAIL
  6
CONTINUOUS
 62
     5
 10
163.0
 20
-76.030089000000004
 30
0.0
 40
3.0
 50
180.0
 51
270.0
  0
ARC
  5
8EC
  8
DETAIL
  6
CONTINUOUS
 62
     5
 10
136.4999999999996
 20
-99.731050999999994
 30
0.0
 40
3.5
 50
270.0
 51
0.0
  0
LINE
  5
8ED
  8
DETAIL
  6
CONTINUOUS
 62
     5
 10
140.0
 20
-99.731050999999994
 30
0.0
 11
140.0
 21
-96.231050999999994
 31
0.0
  0
ARC
  5
8EE
  8
DETAIL
  6
CONTINUOUS
 62
     5
 10
137.0
 20
-98.030089000000004
 30
0.0
 40
3.0
 50
270.0
 51
0.0
  0
ARC
  5
8EF
  8
DETAIL
  6
CONTINUOUS
 62
     5
 10
136.4999999999996
 20
-88.731050999999979
 30
0.0
 40
3.5
 50
270.0
 51
0.0
  0
LINE
  5
8F0
  8
DETAIL
  6
CONTINUOUS
 62
     5
 10
140.0
 20
-88.731050999999979
 30
0.0
 11
140.0
 21
-85.231050999999979
 31
0.0
  0
ARC
  5
8F1
  8
DETAIL
  6
CONTINUOUS
 62
     5
 10
137.0
 20
-87.030089000000004
 30
0.0
 40
3.0
 50
270.0
 51
0.0
  0
ARC
  5
8F2
  8
DETAIL
  6
CONTINUOUS
 62
     5
 10
136.4999999999996
 20
-77.731050999999979
 30
0.0
 40
3.5
 50
270.0
 51
0.0
  0
LINE
  5
8F3
  8
DETAIL
  6
CONTINUOUS
 62
     5
 10
140.0
 20
-77.731050999999979
 30
0.0
 11
140.0
 21
-74.231050999999979
 31
0.0
  0
ARC
  5
8F4
  8
DETAIL
  6
CONTINUOUS
 62
     5
 10
137.0
 20
-76.030089000000004
 30
0.0
 40
3.0
 50
270.0
 51
0.0
  0
ARC
  5
8F5
  8
DETAIL
  6
CONTINUOUS
 62
     5
 10
163.0
 20
-120.0300889999999
 30
0.0
 40
3.0
 50
180.0
 51
270.0
  0
ARC
  5
8F6
  8
DETAIL
  6
CONTINUOUS
 62
     5
 10
163.4999999999998
 20
-121.7310509999997
 30
0.0
 40
3.5
 50
180.0
 51
270.0
  0
LINE
  5
8F7
  8
DETAIL
  6
CONTINUOUS
 62
     5
 10
160.0
 20
-121.7310509999997
 30
0.0
 11
160.0
 21
-118.2310509999997
 31
0.0
  0
ARC
  5
8F8
  8
DETAIL
  6
CONTINUOUS
 62
     5
 10
163.4999999999998
 20
-110.73105099999999
 30
0.0
 40
3.5
 50
180.0
 51
270.0
  0
ARC
  5
8F9
  8
DETAIL
  6
CONTINUOUS
 62
     5
 10
137.0
 20
-120.0300889999999
 30
0.0
 40
3.0
 50
270.0
 51
0.0
  0
LINE
  5
8FA
  8
DETAIL
  6
CONTINUOUS
 62
     5
 10
140.0
 20
-121.7310509999997
 30
0.0
 11
140.0
 21
-118.2310509999997
 31
0.0
  0
ARC
  5
8FB
  8
DETAIL
  6
CONTINUOUS
 62
     5
 10
136.4999999999996
 20
-121.7310509999997
 30
0.0
 40
3.5
 50
270.0
 51
0.0
  0
ARC
  5
8FC
  8
DETAIL
  6
CONTINUOUS
 62
     5
 10
136.4999999999996
 20
-110.73105099999999
 30
0.0
 40
3.5
 50
270.0
 51
0.0
  0
LINE
  5
8FD
  8
DETAIL
  6
CONTINUOUS
 62
     5
 10
160.0
 20
-110.73105099999999
 30
0.0
 11
160.0
 21
-107.2310509999997
 31
0.0
  0
ARC
  5
8FE
  8
DETAIL
  6
CONTINUOUS
 62
     5
 10
163.0
 20
-109.0300889999999
 30
0.0
 40
3.0
 50
180.0
 51
270.0
  0
LINE
  5
8FF
  8
DETAIL
  6
CONTINUOUS
 62
     5
 10
140.0
 20
-110.73105099999999
 30
0.0
 11
140.0
 21
-107.2310509999997
 31
0.0
  0
ARC
  5
900
  8
DETAIL
  6
CONTINUOUS
 62
     5
 10
137.0
 20
-109.0300889999999
 30
0.0
 40
3.0
 50
270.0
 51
0.0
  0
LINE
  5
901
  8
DETAIL
  6
CONTINUOUS
 62
     5
 10
75.0
 20
-59.231051000000001
 30
0.0
 11
136.4999999999996
 21
-59.231051000000001
 31
0.0
  0
LINE
  5
902
  8
DETAIL
  6
CONTINUOUS
 62
     5
 10
75.0
 20
-53.097076000000001
 30
0.0
 11
138.0
 21
-53.097076000000001
 31
0.0
  0
LINE
  5
903
  8
DETAIL
  6
CONTINUOUS
 62
     5
 10
75.0
 20
-57.030088999999997
 30
0.0
 11
137.0
 21
-57.030088999999997
 31
0.0
  0
LINE
  5
904
  8
DETAIL
  6
CONTINUOUS
 62
     5
 10
75.0
 20
-70.231051000000008
 30
0.0
 11
136.4999999999996
 21
-70.231051000000008
 31
0.0
  0
LINE
  5
905
  8
DETAIL
  6
CONTINUOUS
 62
     5
 10
75.0
 20
-64.097076000000001
 30
0.0
 11
138.0
 21
-64.097076000000001
 31
0.0
  0
LINE
  5
906
  8
DETAIL
  6
CONTINUOUS
 62
     5
 10
75.0
 20
-68.030089000000004
 30
0.0
 11
137.0
 21
-68.030089000000004
 31
0.0
  0
LINE
  5
907
  8
DETAIL
  6
CONTINUOUS
 62
     5
 10
160.0
 20
-55.731051000000001
 30
0.0
 11
160.0
 21
-52.231051000000001
 31
0.0
  0
ARC
  5
908
  8
DETAIL
  6
CONTINUOUS
 62
     5
 10
163.4999999999998
 20
-55.731051000000001
 30
0.0
 40
3.5
 50
180.0
 51
270.0
  0
ARC
  5
909
  8
DETAIL
  6
CONTINUOUS
 62
     5
 10
163.0
 20
-54.03008899999999
 30
0.0
 40
3.0
 50
180.0
 51
270.0
  0
LINE
  5
90A
  8
DETAIL
  6
CONTINUOUS
 62
     5
 10
160.0
 20
-66.731050999999994
 30
0.0
 11
160.0
 21
-63.231051000000001
 31
0.0
  0
ARC
  5
90B
  8
DETAIL
  6
CONTINUOUS
 62
     5
 10
163.4999999999998
 20
-66.731050999999994
 30
0.0
 40
3.5
 50
180.0
 51
270.0
  0
ARC
  5
90C
  8
DETAIL
  6
CONTINUOUS
 62
     5
 10
163.0
 20
-65.030089000000004
 30
0.0
 40
3.0
 50
180.0
 51
270.0
  0
ARC
  5
90D
  8
DETAIL
  6
CONTINUOUS
 62
     5
 10
136.4999999999996
 20
-66.731050999999994
 30
0.0
 40
3.5
 50
270.0
 51
0.0
  0
LINE
  5
90E
  8
DETAIL
  6
CONTINUOUS
 62
     5
 10
140.0
 20
-66.731050999999994
 30
0.0
 11
140.0
 21
-63.231051000000001
 31
0.0
  0
ARC
  5
90F
  8
DETAIL
  6
CONTINUOUS
 62
     5
 10
137.0
 20
-65.030089000000004
 30
0.0
 40
3.0
 50
270.0
 51
0.0
  0
ARC
  5
910
  8
DETAIL
  6
CONTINUOUS
 62
     5
 10
136.4999999999996
 20
-55.731051000000001
 30
0.0
 40
3.5
 50
270.0
 51
0.0
  0
LINE
  5
911
  8
DETAIL
  6
CONTINUOUS
 62
     5
 10
140.0
 20
-55.731051000000001
 30
0.0
 11
140.0
 21
-52.231051000000001
 31
0.0
  0
ARC
  5
912
  8
DETAIL
  6
CONTINUOUS
 62
     5
 10
137.0
 20
-54.03008899999999
 30
0.0
 40
3.0
 50
270.0
 51
0.0
  0
ARC
  5
913
  8
DETAIL
  6
CONTINUOUS
 62
     5
 10
286.5
 20
-99.731050999999994
 30
0.0
 40
3.5
 50
270.0
 51
0.0
  0
LINE
  5
914
  8
DETAIL
  6
CONTINUOUS
 62
     5
 10
290.0
 20
-99.731050999999994
 30
0.0
 11
290.0
 21
-96.231050999999994
 31
0.0
  0
ARC
  5
915
  8
DETAIL
  6
CONTINUOUS
 62
     5
 10
287.0
 20
-98.030089000000004
 30
0.0
 40
3.0
 50
270.0
 51
0.0
  0
ARC
  5
916
  8
DETAIL
  6
CONTINUOUS
 62
     5
 10
286.5
 20
-88.731050999999979
 30
0.0
 40
3.5
 50
270.0
 51
0.0
  0
LINE
  5
917
  8
DETAIL
  6
CONTINUOUS
 62
     5
 10
290.0
 20
-88.731050999999979
 30
0.0
 11
290.0
 21
-85.231050999999979
 31
0.0
  0
ARC
  5
918
  8
DETAIL
  6
CONTINUOUS
 62
     5
 10
287.0
 20
-87.030089000000004
 30
0.0
 40
3.0
 50
270.0
 51
0.0
  0
ARC
  5
919
  8
DETAIL
  6
CONTINUOUS
 62
     5
 10
286.5
 20
-77.731050999999979
 30
0.0
 40
3.5
 50
270.0
 51
0.0
  0
LINE
  5
91A
  8
DETAIL
  6
CONTINUOUS
 62
     5
 10
290.0
 20
-77.731050999999979
 30
0.0
 11
290.0
 21
-74.231050999999979
 31
0.0
  0
ARC
  5
91B
  8
DETAIL
  6
CONTINUOUS
 62
     5
 10
287.0
 20
-76.030089000000004
 30
0.0
 40
3.0
 50
270.0
 51
0.0
  0
ARC
  5
91C
  8
DETAIL
  6
CONTINUOUS
 62
     5
 10
287.0
 20
-120.0300889999999
 30
0.0
 40
3.0
 50
270.0
 51
0.0
  0
LINE
  5
91D
  8
DETAIL
  6
CONTINUOUS
 62
     5
 10
290.0
 20
-121.7310509999997
 30
0.0
 11
290.0
 21
-118.2310509999997
 31
0.0
  0
ARC
  5
91E
  8
DETAIL
  6
CONTINUOUS
 62
     5
 10
286.5
 20
-121.7310509999997
 30
0.0
 40
3.5
 50
270.0
 51
0.0
  0
ARC
  5
91F
  8
DETAIL
  6
CONTINUOUS
 62
     5
 10
286.5
 20
-110.73105099999999
 30
0.0
 40
3.5
 50
270.0
 51
0.0
  0
LINE
  5
920
  8
DETAIL
  6
CONTINUOUS
 62
     5
 10
290.0
 20
-110.73105099999999
 30
0.0
 11
290.0
 21
-107.2310509999997
 31
0.0
  0
ARC
  5
921
  8
DETAIL
  6
CONTINUOUS
 62
     5
 10
287.0
 20
-109.0300889999999
 30
0.0
 40
3.0
 50
270.0
 51
0.0
  0
ARC
  5
922
  8
DETAIL
  6
CONTINUOUS
 62
     5
 10
286.5
 20
-66.731050999999994
 30
0.0
 40
3.5
 50
270.0
 51
0.0
  0
LINE
  5
923
  8
DETAIL
  6
CONTINUOUS
 62
     5
 10
290.0
 20
-66.731050999999994
 30
0.0
 11
290.0
 21
-63.231051000000001
 31
0.0
  0
ARC
  5
924
  8
DETAIL
  6
CONTINUOUS
 62
     5
 10
287.0
 20
-65.030089000000004
 30
0.0
 40
3.0
 50
270.0
 51
0.0
  0
ARC
  5
925
  8
DETAIL
  6
CONTINUOUS
 62
     5
 10
286.5
 20
-55.731051000000001
 30
0.0
 40
3.5
 50
270.0
 51
0.0
  0
LINE
  5
926
  8
DETAIL
  6
CONTINUOUS
 62
     5
 10
290.0
 20
-55.731051000000001
 30
0.0
 11
290.0
 21
-52.231051000000001
 31
0.0
  0
ARC
  5
927
  8
DETAIL
  6
CONTINUOUS
 62
     5
 10
287.0
 20
-54.03008899999999
 30
0.0
 40
3.0
 50
270.0
 51
0.0
  0
LINE
  5
928
  8
DETAIL
  6
CONTINUOUS
 62
     5
 10
-163.4999999999998
 20
-125.23105099999999
 30
0.0
 11
-286.5
 21
-125.23105099999999
 31
0.0
  0
LINE
  5
929
  8
DETAIL
  6
CONTINUOUS
 62
     5
 10
-163.0
 20
-123.03008899999971
 30
0.0
 11
-287.0
 21
-123.03008899999971
 31
0.0
  0
LINE
  5
92A
  8
DETAIL
  6
CONTINUOUS
 62
     5
 10
-162.0
 20
-119.097076
 30
0.0
 11
-288.0
 21
-119.097076
 31
0.0
  0
LINE
  5
92B
  8
DETAIL
  6
CONTINUOUS
 62
     5
 10
-163.4999999999998
 20
-114.2310509999997
 30
0.0
 11
-286.5
 21
-114.2310509999997
 31
0.0
  0
LINE
  5
92C
  8
DETAIL
  6
CONTINUOUS
 62
     5
 10
-162.0
 20
-108.097076
 30
0.0
 11
-288.0
 21
-108.097076
 31
0.0
  0
LINE
  5
92D
  8
DETAIL
  6
CONTINUOUS
 62
     5
 10
-163.0
 20
-112.0300889999999
 30
0.0
 11
-287.0
 21
-112.0300889999999
 31
0.0
  0
LINE
  5
92E
  8
DETAIL
  6
CONTINUOUS
 62
     5
 10
-163.4999999999998
 20
-103.23105099999979
 30
0.0
 11
-286.5
 21
-103.23105099999979
 31
0.0
  0
LINE
  5
92F
  8
DETAIL
  6
CONTINUOUS
 62
     5
 10
-163.0
 20
-101.030089
 30
0.0
 11
-287.0
 21
-101.030089
 31
0.0
  0
LINE
  5
930
  8
DETAIL
  6
CONTINUOUS
 62
     5
 10
-162.0
 20
-97.097076000000015
 30
0.0
 11
-288.0
 21
-97.097076000000015
 31
0.0
  0
LINE
  5
931
  8
DETAIL
  6
CONTINUOUS
 62
     5
 10
-163.4999999999998
 20
-92.231050999999994
 30
0.0
 11
-286.5
 21
-92.231050999999994
 31
0.0
  0
LINE
  5
932
  8
DETAIL
  6
CONTINUOUS
 62
     5
 10
-162.0
 20
-86.097076000000001
 30
0.0
 11
-288.0
 21
-86.097076000000001
 31
0.0
  0
LINE
  5
933
  8
DETAIL
  6
CONTINUOUS
 62
     5
 10
-163.0
 20
-90.030089000000004
 30
0.0
 11
-287.0
 21
-90.030089000000004
 31
0.0
  0
LINE
  5
934
  8
DETAIL
  6
CONTINUOUS
 62
     5
 10
-163.4999999999998
 20
-81.231050999999979
 30
0.0
 11
-286.5
 21
-81.231050999999979
 31
0.0
  0
LINE
  5
935
  8
DETAIL
  6
CONTINUOUS
 62
     5
 10
-162.0
 20
-75.097076000000001
 30
0.0
 11
-288.0
 21
-75.097076000000001
 31
0.0
  0
LINE
  5
936
  8
DETAIL
  6
CONTINUOUS
 62
     5
 10
-163.0
 20
-79.030089000000004
 30
0.0
 11
-287.0
 21
-79.030089000000004
 31
0.0
  0
LINE
  5
937
  8
DETAIL
  6
CONTINUOUS
 62
     5
 10
-163.4999999999998
 20
-59.231051000000001
 30
0.0
 11
-286.5
 21
-59.231051000000001
 31
0.0
  0
LINE
  5
938
  8
DETAIL
  6
CONTINUOUS
 62
     5
 10
-162.0
 20
-53.097076000000001
 30
0.0
 11
-288.0
 21
-53.097076000000001
 31
0.0
  0
LINE
  5
939
  8
DETAIL
  6
CONTINUOUS
 62
     5
 10
-163.0
 20
-57.030088999999997
 30
0.0
 11
-287.0
 21
-57.030088999999997
 31
0.0
  0
LINE
  5
93A
  8
DETAIL
  6
CONTINUOUS
 62
     5
 10
-163.4999999999998
 20
-70.231051000000008
 30
0.0
 11
-286.5
 21
-70.231051000000008
 31
0.0
  0
LINE
  5
93B
  8
DETAIL
  6
CONTINUOUS
 62
     5
 10
-162.0
 20
-64.097076000000001
 30
0.0
 11
-288.0
 21
-64.097076000000001
 31
0.0
  0
LINE
  5
93C
  8
DETAIL
  6
CONTINUOUS
 62
     5
 10
-163.0
 20
-68.030089000000004
 30
0.0
 11
-287.0
 21
-68.030089000000004
 31
0.0
  0
LINE
  5
93D
  8
DETAIL
  6
CONTINUOUS
 62
     5
 10
-75.0
 20
-125.23105099999999
 30
0.0
 11
-136.4999999999996
 21
-125.23105099999999
 31
0.0
  0
LINE
  5
93E
  8
DETAIL
  6
CONTINUOUS
 62
     5
 10
-75.0
 20
-123.03008899999971
 30
0.0
 11
-137.0
 21
-123.03008899999971
 31
0.0
  0
LINE
  5
93F
  8
DETAIL
  6
CONTINUOUS
 62
     5
 10
-75.0
 20
-119.097076
 30
0.0
 11
-138.0
 21
-119.097076
 31
0.0
  0
LINE
  5
940
  8
DETAIL
  6
CONTINUOUS
 62
     5
 10
-75.0
 20
-114.2310509999997
 30
0.0
 11
-136.4999999999996
 21
-114.2310509999997
 31
0.0
  0
LINE
  5
941
  8
DETAIL
  6
CONTINUOUS
 62
     5
 10
-75.0
 20
-108.097076
 30
0.0
 11
-138.0
 21
-108.097076
 31
0.0
  0
LINE
  5
942
  8
DETAIL
  6
CONTINUOUS
 62
     5
 10
-75.0
 20
-112.0300889999999
 30
0.0
 11
-137.0
 21
-112.0300889999999
 31
0.0
  0
LINE
  5
943
  8
DETAIL
  6
CONTINUOUS
 62
     5
 10
-75.0
 20
-103.23105099999979
 30
0.0
 11
-136.4999999999996
 21
-103.23105099999979
 31
0.0
  0
LINE
  5
944
  8
DETAIL
  6
CONTINUOUS
 62
     5
 10
-75.0
 20
-101.030089
 30
0.0
 11
-137.0
 21
-101.030089
 31
0.0
  0
LINE
  5
945
  8
DETAIL
  6
CONTINUOUS
 62
     5
 10
-75.0
 20
-97.097076000000015
 30
0.0
 11
-138.0
 21
-97.097076000000015
 31
0.0
  0
LINE
  5
946
  8
DETAIL
  6
CONTINUOUS
 62
     5
 10
-75.0
 20
-92.231050999999994
 30
0.0
 11
-136.4999999999996
 21
-92.231050999999994
 31
0.0
  0
LINE
  5
947
  8
DETAIL
  6
CONTINUOUS
 62
     5
 10
-75.0
 20
-86.097076000000001
 30
0.0
 11
-138.0
 21
-86.097076000000001
 31
0.0
  0
LINE
  5
948
  8
DETAIL
  6
CONTINUOUS
 62
     5
 10
-75.0
 20
-90.030089000000004
 30
0.0
 11
-137.0
 21
-90.030089000000004
 31
0.0
  0
LINE
  5
949
  8
DETAIL
  6
CONTINUOUS
 62
     5
 10
-75.0
 20
-81.231050999999979
 30
0.0
 11
-136.4999999999996
 21
-81.231050999999979
 31
0.0
  0
LINE
  5
94A
  8
DETAIL
  6
CONTINUOUS
 62
     5
 10
-75.0
 20
-75.097076000000001
 30
0.0
 11
-138.0
 21
-75.097076000000001
 31
0.0
  0
LINE
  5
94B
  8
DETAIL
  6
CONTINUOUS
 62
     5
 10
-75.0
 20
-79.030089000000004
 30
0.0
 11
-137.0
 21
-79.030089000000004
 31
0.0
  0
LINE
  5
94C
  8
DETAIL
  6
CONTINUOUS
 62
     5
 10
-75.0
 20
-59.231051000000001
 30
0.0
 11
-136.4999999999996
 21
-59.231051000000001
 31
0.0
  0
LINE
  5
94D
  8
DETAIL
  6
CONTINUOUS
 62
     5
 10
-75.0
 20
-53.097076000000001
 30
0.0
 11
-138.0
 21
-53.097076000000001
 31
0.0
  0
LINE
  5
94E
  8
DETAIL
  6
CONTINUOUS
 62
     5
 10
-75.0
 20
-57.030088999999997
 30
0.0
 11
-137.0
 21
-57.030088999999997
 31
0.0
  0
LINE
  5
94F
  8
DETAIL
  6
CONTINUOUS
 62
     5
 10
-75.0
 20
-70.231051000000008
 30
0.0
 11
-136.4999999999996
 21
-70.231051000000008
 31
0.0
  0
LINE
  5
950
  8
DETAIL
  6
CONTINUOUS
 62
     5
 10
-75.0
 20
-64.097076000000001
 30
0.0
 11
-138.0
 21
-64.097076000000001
 31
0.0
  0
LINE
  5
951
  8
DETAIL
  6
CONTINUOUS
 62
     5
 10
-75.0
 20
-68.030089000000004
 30
0.0
 11
-137.0
 21
-68.030089000000004
 31
0.0
  0
LINE
  5
952
  8
DETAIL
  6
CONTINUOUS
 62
     5
 10
-75.0
 20
-90.030089000000004
 30
0.0
 11
-13.0
 21
-90.030089000000004
 31
0.0
  0
LINE
  5
953
  8
DETAIL
  6
CONTINUOUS
 62
     5
 10
-75.0
 20
-86.097076000000001
 30
0.0
 11
-12.0
 21
-86.097076000000001
 31
0.0
  0
LINE
  5
954
  8
DETAIL
  6
CONTINUOUS
 62
     5
 10
-75.0
 20
-92.231050999999994
 30
0.0
 11
-13.5
 21
-92.231050999999994
 31
0.0
  0
LINE
  5
955
  8
DETAIL
  6
CONTINUOUS
 62
     5
 10
-75.0
 20
-97.097076000000015
 30
0.0
 11
-12.0
 21
-97.097076000000015
 31
0.0
  0
LINE
  5
956
  8
DETAIL
  6
CONTINUOUS
 62
     5
 10
-75.0
 20
-101.030089
 30
0.0
 11
-13.0
 21
-101.030089
 31
0.0
  0
LINE
  5
957
  8
DETAIL
  6
CONTINUOUS
 62
     5
 10
-75.0
 20
-103.23105099999979
 30
0.0
 11
-13.5
 21
-103.23105099999979
 31
0.0
  0
LINE
  5
958
  8
DETAIL
  6
CONTINUOUS
 62
     5
 10
-75.0
 20
-112.0300889999999
 30
0.0
 11
-13.0
 21
-112.0300889999999
 31
0.0
  0
LINE
  5
959
  8
DETAIL
  6
CONTINUOUS
 62
     5
 10
-75.0
 20
-108.097076
 30
0.0
 11
-12.0
 21
-108.097076
 31
0.0
  0
LINE
  5
95A
  8
DETAIL
  6
CONTINUOUS
 62
     5
 10
-75.0
 20
-114.2310509999997
 30
0.0
 11
-13.5
 21
-114.2310509999997
 31
0.0
  0
LINE
  5
95B
  8
DETAIL
  6
CONTINUOUS
 62
     5
 10
-75.0
 20
-119.097076
 30
0.0
 11
-12.0
 21
-119.097076
 31
0.0
  0
LINE
  5
95C
  8
DETAIL
  6
CONTINUOUS
 62
     5
 10
-75.0
 20
-123.03008899999971
 30
0.0
 11
-13.0
 21
-123.03008899999971
 31
0.0
  0
LINE
  5
95D
  8
DETAIL
  6
CONTINUOUS
 62
     5
 10
-75.0
 20
-125.23105099999999
 30
0.0
 11
-13.5
 21
-125.23105099999999
 31
0.0
  0
ARC
  5
95E
  8
DETAIL
  6
CONTINUOUS
 62
     5
 10
-13.0
 20
-87.030089000000004
 30
0.0
 40
3.0
 50
270.0
 51
0.0
  0
LINE
  5
95F
  8
DETAIL
  6
CONTINUOUS
 62
     5
 10
-10.0
 20
-88.731050999999979
 30
0.0
 11
-10.0
 21
-85.231050999999979
 31
0.0
  0
ARC
  5
960
  8
DETAIL
  6
CONTINUOUS
 62
     5
 10
-13.5
 20
-88.731050999999979
 30
0.0
 40
3.5
 50
270.0
 51
0.0
  0
ARC
  5
961
  8
DETAIL
  6
CONTINUOUS
 62
     5
 10
-13.0
 20
-98.030089000000004
 30
0.0
 40
3.0
 50
270.0
 51
0.0
  0
LINE
  5
962
  8
DETAIL
  6
CONTINUOUS
 62
     5
 10
-10.0
 20
-99.731050999999994
 30
0.0
 11
-10.0
 21
-96.231050999999994
 31
0.0
  0
ARC
  5
963
  8
DETAIL
  6
CONTINUOUS
 62
     5
 10
-13.5
 20
-99.731050999999994
 30
0.0
 40
3.5
 50
270.0
 51
0.0
  0
ARC
  5
964
  8
DETAIL
  6
CONTINUOUS
 62
     5
 10
-13.5
 20
-110.73105099999999
 30
0.0
 40
3.5
 50
270.0
 51
0.0
  0
ARC
  5
965
  8
DETAIL
  6
CONTINUOUS
 62
     5
 10
-13.5
 20
-121.7310509999997
 30
0.0
 40
3.5
 50
270.0
 51
0.0
  0
LINE
  5
966
  8
DETAIL
  6
CONTINUOUS
 62
     5
 10
-10.0
 20
-121.7310509999997
 30
0.0
 11
-10.0
 21
-118.2310509999997
 31
0.0
  0
ARC
  5
967
  8
DETAIL
  6
CONTINUOUS
 62
     5
 10
-13.0
 20
-120.0300889999999
 30
0.0
 40
3.0
 50
270.0
 51
0.0
  0
ARC
  5
968
  8
DETAIL
  6
CONTINUOUS
 62
     5
 10
-13.0
 20
-109.0300889999999
 30
0.0
 40
3.0
 50
270.0
 51
0.0
  0
LINE
  5
969
  8
DETAIL
  6
CONTINUOUS
 62
     5
 10
-10.0
 20
-110.73105099999999
 30
0.0
 11
-10.0
 21
-107.2310509999997
 31
0.0
  0
LINE
  5
96A
  8
DETAIL
  6
CONTINUOUS
 62
     5
 10
-75.0
 20
-68.030089000000004
 30
0.0
 11
-13.0
 21
-68.030089000000004
 31
0.0
  0
LINE
  5
96B
  8
DETAIL
  6
CONTINUOUS
 62
     5
 10
-75.0
 20
-64.097076000000001
 30
0.0
 11
-12.0
 21
-64.097076000000001
 31
0.0
  0
LINE
  5
96C
  8
DETAIL
  6
CONTINUOUS
 62
     5
 10
-75.0
 20
-70.231051000000008
 30
0.0
 11
-13.5
 21
-70.231051000000008
 31
0.0
  0
LINE
  5
96D
  8
DETAIL
  6
CONTINUOUS
 62
     5
 10
-75.0
 20
-57.030088999999997
 30
0.0
 11
-13.0
 21
-57.030088999999997
 31
0.0
  0
LINE
  5
96E
  8
DETAIL
  6
CONTINUOUS
 62
     5
 10
-75.0
 20
-53.097076000000001
 30
0.0
 11
-12.0
 21
-53.097076000000001
 31
0.0
  0
LINE
  5
96F
  8
DETAIL
  6
CONTINUOUS
 62
     5
 10
-75.0
 20
-59.231051000000001
 30
0.0
 11
-13.5
 21
-59.231051000000001
 31
0.0
  0
LINE
  5
970
  8
DETAIL
  6
CONTINUOUS
 62
     5
 10
-75.0
 20
-79.030089000000004
 30
0.0
 11
-13.0
 21
-79.030089000000004
 31
0.0
  0
LINE
  5
971
  8
DETAIL
  6
CONTINUOUS
 62
     5
 10
-75.0
 20
-75.097076000000001
 30
0.0
 11
-12.0
 21
-75.097076000000001
 31
0.0
  0
LINE
  5
972
  8
DETAIL
  6
CONTINUOUS
 62
     5
 10
-75.0
 20
-81.231050999999979
 30
0.0
 11
-13.5
 21
-81.231050999999979
 31
0.0
  0
ARC
  5
973
  8
DETAIL
  6
CONTINUOUS
 62
     5
 10
-13.0
 20
-76.030089000000004
 30
0.0
 40
3.0
 50
270.0
 51
0.0
  0
LINE
  5
974
  8
DETAIL
  6
CONTINUOUS
 62
     5
 10
-10.0
 20
-77.731050999999979
 30
0.0
 11
-10.0
 21
-74.231050999999979
 31
0.0
  0
ARC
  5
975
  8
DETAIL
  6
CONTINUOUS
 62
     5
 10
-13.5
 20
-77.731050999999979
 30
0.0
 40
3.5
 50
270.0
 51
0.0
  0
ARC
  5
976
  8
DETAIL
  6
CONTINUOUS
 62
     5
 10
-13.0
 20
-54.03008899999999
 30
0.0
 40
3.0
 50
270.0
 51
0.0
  0
LINE
  5
977
  8
DETAIL
  6
CONTINUOUS
 62
     5
 10
-10.0
 20
-55.731051000000001
 30
0.0
 11
-10.0
 21
-52.231051000000001
 31
0.0
  0
ARC
  5
978
  8
DETAIL
  6
CONTINUOUS
 62
     5
 10
-13.5
 20
-55.731051000000001
 30
0.0
 40
3.5
 50
270.0
 51
0.0
  0
ARC
  5
979
  8
DETAIL
  6
CONTINUOUS
 62
     5
 10
-13.0
 20
-65.030089000000004
 30
0.0
 40
3.0
 50
270.0
 51
0.0
  0
LINE
  5
97A
  8
DETAIL
  6
CONTINUOUS
 62
     5
 10
-10.0
 20
-66.731050999999994
 30
0.0
 11
-10.0
 21
-63.231051000000001
 31
0.0
  0
ARC
  5
97B
  8
DETAIL
  6
CONTINUOUS
 62
     5
 10
-13.5
 20
-66.731050999999994
 30
0.0
 40
3.5
 50
270.0
 51
0.0
  0
ARC
  5
97C
  8
DETAIL
  6
CONTINUOUS
 62
     5
 10
-163.4999999999998
 20
-99.731050999999994
 30
0.0
 40
3.5
 50
270.0
 51
0.0
  0
LINE
  5
97D
  8
DETAIL
  6
CONTINUOUS
 62
     5
 10
-160.0
 20
-99.731050999999994
 30
0.0
 11
-160.0
 21
-96.231050999999994
 31
0.0
  0
ARC
  5
97E
  8
DETAIL
  6
CONTINUOUS
 62
     5
 10
-163.0
 20
-98.030089000000004
 30
0.0
 40
3.0
 50
270.0
 51
0.0
  0
LINE
  5
97F
  8
DETAIL
  6
CONTINUOUS
 62
     5
 10
-160.0
 20
-88.731050999999979
 30
0.0
 11
-160.0
 21
-85.231050999999979
 31
0.0
  0
ARC
  5
980
  8
DETAIL
  6
CONTINUOUS
 62
     5
 10
-163.4999999999998
 20
-88.731050999999979
 30
0.0
 40
3.5
 50
270.0
 51
0.0
  0
ARC
  5
981
  8
DETAIL
  6
CONTINUOUS
 62
     5
 10
-163.0
 20
-87.030089000000004
 30
0.0
 40
3.0
 50
270.0
 51
0.0
  0
ARC
  5
982
  8
DETAIL
  6
CONTINUOUS
 62
     5
 10
-136.4999999999996
 20
-99.731050999999994
 30
0.0
 40
3.5
 50
180.0
 51
270.0
  0
LINE
  5
983
  8
DETAIL
  6
CONTINUOUS
 62
     5
 10
-140.0
 20
-99.731050999999994
 30
0.0
 11
-140.0
 21
-96.231050999999994
 31
0.0
  0
ARC
  5
984
  8
DETAIL
  6
CONTINUOUS
 62
     5
 10
-137.0
 20
-98.030089000000004
 30
0.0
 40
3.0
 50
180.0
 51
270.0
  0
ARC
  5
985
  8
DETAIL
  6
CONTINUOUS
 62
     5
 10
-136.4999999999996
 20
-88.731050999999979
 30
0.0
 40
3.5
 50
180.0
 51
270.0
  0
LINE
  5
986
  8
DETAIL
  6
CONTINUOUS
 62
     5
 10
-140.0
 20
-88.731050999999979
 30
0.0
 11
-140.0
 21
-85.231050999999979
 31
0.0
  0
ARC
  5
987
  8
DETAIL
  6
CONTINUOUS
 62
     5
 10
-137.0
 20
-87.030089000000004
 30
0.0
 40
3.0
 50
180.0
 51
270.0
  0
ARC
  5
988
  8
DETAIL
  6
CONTINUOUS
 62
     5
 10
-163.0
 20
-120.0300889999999
 30
0.0
 40
3.0
 50
270.0
 51
0.0
  0
ARC
  5
989
  8
DETAIL
  6
CONTINUOUS
 62
     5
 10
-163.4999999999998
 20
-121.7310509999997
 30
0.0
 40
3.5
 50
270.0
 51
0.0
  0
LINE
  5
98A
  8
DETAIL
  6
CONTINUOUS
 62
     5
 10
-160.0
 20
-121.7310509999997
 30
0.0
 11
-160.0
 21
-118.2310509999997
 31
0.0
  0
ARC
  5
98B
  8
DETAIL
  6
CONTINUOUS
 62
     5
 10
-163.4999999999998
 20
-110.73105099999999
 30
0.0
 40
3.5
 50
270.0
 51
0.0
  0
ARC
  5
98C
  8
DETAIL
  6
CONTINUOUS
 62
     5
 10
-137.0
 20
-120.0300889999999
 30
0.0
 40
3.0
 50
180.0
 51
270.0
  0
LINE
  5
98D
  8
DETAIL
  6
CONTINUOUS
 62
     5
 10
-140.0
 20
-121.7310509999997
 30
0.0
 11
-140.0
 21
-118.2310509999997
 31
0.0
  0
ARC
  5
98E
  8
DETAIL
  6
CONTINUOUS
 62
     5
 10
-136.4999999999996
 20
-121.7310509999997
 30
0.0
 40
3.5
 50
180.0
 51
270.0
  0
ARC
  5
98F
  8
DETAIL
  6
CONTINUOUS
 62
     5
 10
-136.4999999999996
 20
-110.73105099999999
 30
0.0
 40
3.5
 50
180.0
 51
270.0
  0
LINE
  5
990
  8
DETAIL
  6
CONTINUOUS
 62
     5
 10
-160.0
 20
-110.73105099999999
 30
0.0
 11
-160.0
 21
-107.2310509999997
 31
0.0
  0
ARC
  5
991
  8
DETAIL
  6
CONTINUOUS
 62
     5
 10
-163.0
 20
-109.0300889999999
 30
0.0
 40
3.0
 50
270.0
 51
0.0
  0
LINE
  5
992
  8
DETAIL
  6
CONTINUOUS
 62
     5
 10
-140.0
 20
-110.73105099999999
 30
0.0
 11
-140.0
 21
-107.2310509999997
 31
0.0
  0
ARC
  5
993
  8
DETAIL
  6
CONTINUOUS
 62
     5
 10
-137.0
 20
-109.0300889999999
 30
0.0
 40
3.0
 50
180.0
 51
270.0
  0
LINE
  5
994
  8
DETAIL
  6
CONTINUOUS
 62
     5
 10
-160.0
 20
-77.731050999999979
 30
0.0
 11
-160.0
 21
-74.231050999999979
 31
0.0
  0
ARC
  5
995
  8
DETAIL
  6
CONTINUOUS
 62
     5
 10
-163.4999999999998
 20
-77.731050999999979
 30
0.0
 40
3.5
 50
270.0
 51
0.0
  0
ARC
  5
996
  8
DETAIL
  6
CONTINUOUS
 62
     5
 10
-163.0
 20
-76.030089000000004
 30
0.0
 40
3.0
 50
270.0
 51
0.0
  0
ARC
  5
997
  8
DETAIL
  6
CONTINUOUS
 62
     5
 10
-136.4999999999996
 20
-77.731050999999979
 30
0.0
 40
3.5
 50
180.0
 51
270.0
  0
LINE
  5
998
  8
DETAIL
  6
CONTINUOUS
 62
     5
 10
-140.0
 20
-77.731050999999979
 30
0.0
 11
-140.0
 21
-74.231050999999979
 31
0.0
  0
ARC
  5
999
  8
DETAIL
  6
CONTINUOUS
 62
     5
 10
-137.0
 20
-76.030089000000004
 30
0.0
 40
3.0
 50
180.0
 51
270.0
  0
LINE
  5
99A
  8
DETAIL
  6
CONTINUOUS
 62
     5
 10
-160.0
 20
-55.731051000000001
 30
0.0
 11
-160.0
 21
-52.231051000000001
 31
0.0
  0
ARC
  5
99B
  8
DETAIL
  6
CONTINUOUS
 62
     5
 10
-163.4999999999998
 20
-55.731051000000001
 30
0.0
 40
3.5
 50
270.0
 51
0.0
  0
ARC
  5
99C
  8
DETAIL
  6
CONTINUOUS
 62
     5
 10
-163.0
 20
-54.03008899999999
 30
0.0
 40
3.0
 50
270.0
 51
0.0
  0
LINE
  5
99D
  8
DETAIL
  6
CONTINUOUS
 62
     5
 10
-160.0
 20
-66.731050999999994
 30
0.0
 11
-160.0
 21
-63.231051000000001
 31
0.0
  0
ARC
  5
99E
  8
DETAIL
  6
CONTINUOUS
 62
     5
 10
-163.4999999999998
 20
-66.731050999999994
 30
0.0
 40
3.5
 50
270.0
 51
0.0
  0
ARC
  5
99F
  8
DETAIL
  6
CONTINUOUS
 62
     5
 10
-163.0
 20
-65.030089000000004
 30
0.0
 40
3.0
 50
270.0
 51
0.0
  0
ARC
  5
9A0
  8
DETAIL
  6
CONTINUOUS
 62
     5
 10
-136.4999999999996
 20
-66.731050999999994
 30
0.0
 40
3.5
 50
180.0
 51
270.0
  0
LINE
  5
9A1
  8
DETAIL
  6
CONTINUOUS
 62
     5
 10
-140.0
 20
-66.731050999999994
 30
0.0
 11
-140.0
 21
-63.231051000000001
 31
0.0
  0
ARC
  5
9A2
  8
DETAIL
  6
CONTINUOUS
 62
     5
 10
-137.0
 20
-65.030089000000004
 30
0.0
 40
3.0
 50
180.0
 51
270.0
  0
ARC
  5
9A3
  8
DETAIL
  6
CONTINUOUS
 62
     5
 10
-136.4999999999996
 20
-55.731051000000001
 30
0.0
 40
3.5
 50
180.0
 51
270.0
  0
LINE
  5
9A4
  8
DETAIL
  6
CONTINUOUS
 62
     5
 10
-140.0
 20
-55.731051000000001
 30
0.0
 11
-140.0
 21
-52.231051000000001
 31
0.0
  0
ARC
  5
9A5
  8
DETAIL
  6
CONTINUOUS
 62
     5
 10
-137.0
 20
-54.03008899999999
 30
0.0
 40
3.0
 50
180.0
 51
270.0
  0
ARC
  5
9A6
  8
DETAIL
  6
CONTINUOUS
 62
     5
 10
-286.5
 20
-99.731050999999994
 30
0.0
 40
3.5
 50
180.0
 51
270.0
  0
ARC
  5
9A7
  8
DETAIL
  6
CONTINUOUS
 62
     5
 10
-287.0
 20
-98.030089000000004
 30
0.0
 40
3.0
 50
180.0
 51
270.0
  0
ARC
  5
9A8
  8
DETAIL
  6
CONTINUOUS
 62
     5
 10
-286.5
 20
-88.731050999999979
 30
0.0
 40
3.5
 50
180.0
 51
270.0
  0
ARC
  5
9A9
  8
DETAIL
  6
CONTINUOUS
 62
     5
 10
-287.0
 20
-87.030089000000004
 30
0.0
 40
3.0
 50
180.0
 51
270.0
  0
ARC
  5
9AA
  8
DETAIL
  6
CONTINUOUS
 62
     5
 10
-287.0
 20
-120.0300889999999
 30
0.0
 40
3.0
 50
180.0
 51
270.0
  0
ARC
  5
9AB
  8
DETAIL
  6
CONTINUOUS
 62
     5
 10
-286.5
 20
-121.7310509999997
 30
0.0
 40
3.5
 50
180.0
 51
270.0
  0
ARC
  5
9AC
  8
DETAIL
  6
CONTINUOUS
 62
     5
 10
-286.5
 20
-110.73105099999999
 30
0.0
 40
3.5
 50
180.0
 51
270.0
  0
ARC
  5
9AD
  8
DETAIL
  6
CONTINUOUS
 62
     5
 10
-287.0
 20
-109.0300889999999
 30
0.0
 40
3.0
 50
180.0
 51
270.0
  0
LINE
  5
9AE
  8
DETAIL
  6
CONTINUOUS
 62
     5
 10
-290.0
 20
-99.731050999999994
 30
0.0
 11
-290.0
 21
-96.231050999999994
 31
0.0
  0
LINE
  5
9AF
  8
DETAIL
  6
CONTINUOUS
 62
     5
 10
-290.0
 20
-88.731050999999979
 30
0.0
 11
-290.0
 21
-85.231050999999979
 31
0.0
  0
LINE
  5
9B0
  8
DETAIL
  6
CONTINUOUS
 62
     5
 10
-290.0
 20
-121.7310509999997
 30
0.0
 11
-290.0
 21
-118.2310509999997
 31
0.0
  0
LINE
  5
9B1
  8
DETAIL
  6
CONTINUOUS
 62
     5
 10
-290.0
 20
-110.73105099999999
 30
0.0
 11
-290.0
 21
-107.2310509999997
 31
0.0
  0
ARC
  5
9B2
  8
DETAIL
  6
CONTINUOUS
 62
     5
 10
-286.5
 20
-77.731050999999979
 30
0.0
 40
3.5
 50
180.0
 51
270.0
  0
ARC
  5
9B3
  8
DETAIL
  6
CONTINUOUS
 62
     5
 10
-287.0
 20
-76.030089000000004
 30
0.0
 40
3.0
 50
180.0
 51
270.0
  0
ARC
  5
9B4
  8
DETAIL
  6
CONTINUOUS
 62
     5
 10
-286.5
 20
-66.731050999999994
 30
0.0
 40
3.5
 50
180.0
 51
270.0
  0
ARC
  5
9B5
  8
DETAIL
  6
CONTINUOUS
 62
     5
 10
-287.0
 20
-65.030089000000004
 30
0.0
 40
3.0
 50
180.0
 51
270.0
  0
ARC
  5
9B6
  8
DETAIL
  6
CONTINUOUS
 62
     5
 10
-286.5
 20
-55.731051000000001
 30
0.0
 40
3.5
 50
180.0
 51
270.0
  0
ARC
  5
9B7
  8
DETAIL
  6
CONTINUOUS
 62
     5
 10
-287.0
 20
-54.03008899999999
 30
0.0
 40
3.0
 50
180.0
 51
270.0
  0
LINE
  5
9B8
  8
DETAIL
  6
CONTINUOUS
 62
     5
 10
-290.0
 20
-77.731050999999979
 30
0.0
 11
-290.0
 21
-74.231050999999979
 31
0.0
  0
LINE
  5
9B9
  8
DETAIL
  6
CONTINUOUS
 62
     5
 10
-290.0
 20
-66.731050999999994
 30
0.0
 11
-290.0
 21
-63.231051000000001
 31
0.0
  0
LINE
  5
9BA
  8
DETAIL
  6
CONTINUOUS
 62
     5
 10
-290.0
 20
-55.731051000000001
 30
0.0
 11
-290.0
 21
-52.231051000000001
 31
0.0
  0
TEXT
  5
9BB
  8
ETC
  6
CONTINUOUS
 62
    61
 10
554.70553363076283
 20
657.39836401959644
 30
0.0
 40
64.0
  1
V-754KQE7_2
 41
0.9
  0
TEXT
  5
9BC
  8
ETC
  6
CONTINUOUS
 62
    61
 10
550.48356663076322
 20
560.9075370195967
 30
0.0
 40
64.0
  1
換気扇
 41
0.9
  0
TEXT
  5
9BD
  8
ETC
  6
CONTINUOUS
 62
    61
 10
694.80030724920005
 20
473.7853091396837
 30
0.0
 40
50.0
  1
V-754KQE6
 41
0.9
  0
LINE
  5
9BF
  8
OUTLINE
  6
CONTINUOUS
 62
     3
 39
50.0
 10
-375.0
 20
0.0
 30
0.0
 11
375.0
 21
0.0
 31
0.0
  0
TEXT
  5
A9B
  8
ETC
  6
CONTINUOUS
 62
    61
 10
694.80030724920005
 20
398.65503684217862
 30
0.0
 40
50.0
  1
V-754KQE7
 41
0.9
  0
ENDSEC
  0
EOF
