  0
SECTION
  2
HEADER
  9
$ACADVER
  1
AC1009
  9
$DWGCODEPAGE
  3
dos932
  9
$INSBASE
 10
0.0
 20
0.0
 30
0.0
  9
$EXTMIN
 10
-1071.331771068895
 20
-884.39940286846831
 30
-0.0015258207003583
  9
$EXTMAX
 10
1174.6582148650871
 20
721.61866051799007
 30
0.0000000349246037
  9
$LIMMIN
 10
-2970.0
 20
-2100.0
  9
$LIMMAX
 10
2970.0
 20
2100.0
  9
$ORTHOMODE
 70
     1
  9
$REGENMODE
 70
     1
  9
$FILLMODE
 70
     1
  9
$QTEXTMODE
 70
     0
  9
$MIRRTEXT
 70
     0
  9
$LTSCALE
 40
20.0
  9
$ATTMODE
 70
     1
  9
$TEXTSIZE
 40
64.0
  9
$TRACEWID
 40
0.05
  9
$TEXTSTYLE
  7
STANDARD
  9
$CLAYER
  8
SIZE
  9
$CELTYPE
  6
CONTINUOUS
  9
$CECOLOR
 62
     7
  9
$DIMSCALE
 40
1.0
  9
$DIMASZ
 40
12.0
  9
$DIMEXO
 40
20.0
  9
$DIMDLI
 40
200.0
  9
$DIMRND
 40
0.0
  9
$DIMDLE
 40
0.0
  9
$DIMEXE
 40
20.0
  9
$DIMTP
 40
0.0
  9
$DIMTM
 40
0.0
  9
$DIMTXT
 40
64.0
  9
$DIMCEN
 40
0.09
  9
$DIMTSZ
 40
0.0
  9
$DIMTOL
 70
     0
  9
$DIMLIM
 70
     0
  9
$DIMTIH
 70
     0
  9
$DIMTOH
 70
     0
  9
$DIMSE1
 70
     0
  9
$DIMSE2
 70
     0
  9
$DIMTAD
 70
     1
  9
$DIMZIN
 70
     8
  9
$DIMBLK
  1

  9
$DIMASO
 70
     1
  9
$DIMSHO
 70
     0
  9
$DIMPOST
  1

  9
$DIMAPOST
  1

  9
$DIMALT
 70
     0
  9
$DIMALTD
 70
     2
  9
$DIMALTF
 40
25.399999999999999
  9
$DIMLFAC
 40
1.0
  9
$DIMTOFL
 70
     1
  9
$DIMTVP
 40
0.0
  9
$DIMTIX
 70
     1
  9
$DIMSOXD
 70
     0
  9
$DIMSAH
 70
     0
  9
$DIMBLK1
  1

  9
$DIMBLK2
  1

  9
$DIMSTYLE
  2
STANDARD
  9
$DIMCLRD
 70
     7
  9
$DIMCLRE
 70
     7
  9
$DIMCLRT
 70
     7
  9
$DIMTFAC
 40
1.0
  9
$DIMGAP
 40
25.0
  9
$LUNITS
 70
     2
  9
$LUPREC
 70
     4
  9
$SKETCHINC
 40
0.1
  9
$FILLETRAD
 40
3.0
  9
$AUNITS
 70
     1
  9
$AUPREC
 70
     3
  9
$MENU
  1
ACAD
  9
$ELEVATION
 40
0.0
  9
$PELEVATION
 40
0.0
  9
$THICKNESS
 40
0.0
  9
$LIMCHECK
 70
     0
  9
$CHAMFERA
 40
0.0
  9
$CHAMFERB
 40
0.0
  9
$SKPOLY
 70
     0
  9
$TDCREATE
 40
2453019.62301037
  9
$TDUPDATE
 40
2459025.593477916
  9
$TDINDWG
 40
1.7359534838
  9
$TDUSRTIMER
 40
1.7359534838
  9
$USRTIMER
 70
     1
  9
$ANGBASE
 50
0.0
  9
$ANGDIR
 70
     0
  9
$PDMODE
 70
     3
  9
$PDSIZE
 40
-2.0
  9
$PLINEWID
 40
0.0
  9
$SPLFRAME
 70
     0
  9
$SPLINETYPE
 70
     6
  9
$SPLINESEGS
 70
     8
  9
$SURFTAB1
 70
     6
  9
$SURFTAB2
 70
     6
  9
$SURFTYPE
 70
     6
  9
$SURFU
 70
     6
  9
$SURFV
 70
     6
  9
$UCSNAME
  2

  9
$UCSORG
 10
0.0
 20
0.0
 30
0.0
  9
$UCSXDIR
 10
1.0
 20
0.0
 30
0.0
  9
$UCSYDIR
 10
0.0
 20
1.0
 30
0.0
  9
$PUCSNAME
  2

  9
$PUCSORG
 10
0.0
 20
0.0
 30
0.0
  9
$PUCSXDIR
 10
1.0
 20
0.0
 30
0.0
  9
$PUCSYDIR
 10
0.0
 20
1.0
 30
0.0
  9
$USERI1
 70
     0
  9
$USERI2
 70
     0
  9
$USERI3
 70
     0
  9
$USERI4
 70
     0
  9
$USERI5
 70
     0
  9
$USERR1
 40
20.0
  9
$USERR2
 40
0.0
  9
$USERR3
 40
0.0
  9
$USERR4
 40
0.0
  9
$USERR5
 40
0.0
  9
$WORLDVIEW
 70
     1
  9
$SHADEDGE
 70
     3
  9
$SHADEDIF
 70
    70
  9
$TILEMODE
 70
     1
  9
$MAXACTVP
 70
    48
  9
$PINSBASE
 10
0.0
 20
0.0
 30
0.0
  9
$PLIMCHECK
 70
     0
  9
$PEXTMIN
 10
-100000000000000000000.0
 20
-100000000000000000000.0
 30
-100000000000000000000.0
  9
$PEXTMAX
 10
100000000000000000000.0
 20
100000000000000000000.0
 30
100000000000000000000.0
  9
$PLIMMIN
 10
0.0
 20
0.0
  9
$PLIMMAX
 10
12.0
 20
9.0
  9
$UNITMODE
 70
     0
  9
$VISRETAIN
 70
     0
  9
$PLINEGEN
 70
     0
  9
$PSLTSCALE
 70
     0
  9
$TREEDEPTH
 70
  3020
  9
$ATTDIA
 70
     0
  9
$ATTREQ
 70
     1
  9
$BLIPMODE
 70
     1
  9
$COORDS
 70
     1
  9
$DRAGMODE
 70
     2
  9
$OSMODE
 70
     0
  9
$HANDLING
 70
     0
  9
$HANDSEED
  5
F196
  0
ENDSEC
  0
SECTION
  2
TABLES
  0
TABLE
  2
LTYPE
 70
     4
  0
LTYPE
  2
CONTINUOUS
 70
     0
  3
実線
 72
    65
 73
     0
 40
0.0
  0
LTYPE
  2
DASHDOT
 70
     0
  3
____ _ ____ _ ____ _ ____ _ ____ _ ____ _ ____
 72
    65
 73
     4
 40
5.5
 49
4.0
 49
-0.6
 49
0.3
 49
-0.6
  0
LTYPE
  2
CONTINOUS
 70
     0
  3
Solid line
 72
    65
 73
     0
 40
0.0
  0
LTYPE
  2
PHANTOM
 70
     0
  3
Phantom ______  __  __  ______  __  __  ______
 72
    65
 73
     6
 40
2.5
 49
1.25
 49
-0.25
 49
0.25
 49
-0.25
 49
0.25
 49
-0.25
  0
ENDTAB
  0
TABLE
  2
LAYER
 70
    12
  0
LAYER
  2
0
 70
     0
 62
     7
  6
CONTINUOUS
  0
LAYER
  2
BASIS
 70
     0
 62
     6
  6
DASHDOT
  0
LAYER
  2
OUTLINE
 70
     0
 62
     3
  6
CONTINUOUS
  0
LAYER
  2
DETAIL
 70
     0
 62
     5
  6
CONTINUOUS
  0
LAYER
  2
SIZE
 70
     0
 62
    30
  6
CONTINUOUS
  0
LAYER
  2
ARRANGE
 70
     0
 62
     1
  6
CONTINUOUS
  0
LAYER
  2
ETC
 70
     0
 62
    61
  6
CONTINUOUS
  0
LAYER
  2
NOTE
 70
     0
 62
     4
  6
CONTINUOUS
  0
LAYER
  2
DEFPOINTS
 70
    64
 62
     7
  6
CONTINUOUS
  0
LAYER
  2
FIX
 70
    64
 62
    11
  6
CONTINUOUS
  0
LAYER
  2
SERVICESPACE
 70
    64
 62
     2
  6
DASHDOT
  0
LAYER
  2
SYMBOLLINE
 70
    64
 62
    15
  6
CONTINUOUS
  0
ENDTAB
  0
TABLE
  2
STYLE
 70
     1
  0
STYLE
  2
STANDARD
 70
     0
 40
64.0
 41
0.9
 50
0.0
 71
     0
 42
64.0
  3
SIMPLEX.shx
  4
BIGFONT.shx
  0
ENDTAB
  0
TABLE
  2
APPID
 70
    19
  0
APPID
  2
ACAD
 70
     0
  0
APPID
  2
AUTOCAD_POSTSCRIPT_FIGURE
 70
     0
  0
APPID
  2
ACAD_EXEMPT_FROM_CAD_STANDARDS
 70
     0
  0
APPID
  2
ACAD_PSEXT
 70
     0
  0
APPID
  2
ACAUTHENVIRON
 70
     0
  0
APPID
  2
GENIUS_GENOENT_13
 70
     0
  0
APPID
  2
GENIUS_GENCFG_13
 70
     0
  0
APPID
  2
GENIUS_GENCFG0_13
 70
     0
  0
APPID
  2
GENIUS_GENCFG1_13
 70
     0
  0
APPID
  2
GENIUS_GENCFG2_13
 70
     0
  0
APPID
  2
GENIUS_GENCFG3_13
 70
     0
  0
APPID
  2
GENIUS_GENCFG4_13
 70
     0
  0
APPID
  2
GENIUS_GEVCFG0_13
 70
     0
  0
APPID
  2
CONTENTBLOCKICON
 70
     0
  0
APPID
  2
CONTENTBLOCKDESCRIPTION
 70
     0
  0
APPID
  2
ACAD_NAV_VCDISPLAY
 70
     0
  0
APPID
  2
ACAD_MLEADERVER
 70
     0
  0
APPID
  2
ACDBDYNAMICBLOCKTRUENAME
 70
     0
  0
APPID
  2
ACDBDYNAMICBLOCKGUID
 70
     0
  0
ENDTAB
  0
TABLE
  2
DIMSTYLE
 70
     1
  0
DIMSTYLE
  2
STANDARD
 70
     0
  3

  4

  5
_ORIGIN
  6

  7

 40
1.0
 41
12.0
 42
20.0
 43
200.0
 44
20.0
 45
0.0
 46
0.0
 47
0.0
 48
0.0
140
64.0
141
0.09
142
0.0
143
25.399999999999999
144
1.0
145
0.0
146
1.0
147
25.0
 71
     0
 72
     0
 73
     0
 74
     0
 75
     0
 76
     0
 77
     1
 78
     8
170
     0
171
     2
172
     1
173
     0
174
     1
175
     0
176
     7
177
     7
178
     7
  0
ENDTAB
  0
TABLE
  2
VIEW
 70
     1
  0
VIEW
  2
ALL
 70
     0
 40
4282.6198079999986
 10
0.0
 20
41.309904000000003
 41
5940.0
 11
0.0
 21
0.0
 31
1.0
 12
0.0
 22
0.0
 32
0.0
 42
50.0
 43
0.0
 44
0.0
 50
0.0
 71
     0
  0
ENDTAB
  0
TABLE
  2
UCS
 70
     0
  0
ENDTAB
  0
TABLE
  2
VPORT
 70
     1
  0
VPORT
  2
*ACTIVE
 70
     0
 10
0.0
 20
0.0
 11
1.0
 21
1.0
 12
51.663221898095742
 22
-81.390371175239125
 13
0.0
 23
0.0
 14
1.0
 24
1.0
 15
0.0
 25
0.0
 16
0.0
 26
0.0
 36
1.0
 17
0.0
 27
0.0
 37
0.0
 40
1616.665696955871
 41
1.747787610619469
 42
50.0
 43
0.0
 44
0.0
 50
0.0
 51
0.0
 71
     0
 72
  1000
 73
     1
 74
     3
 75
     0
 76
     0
 77
     0
 78
     0
  0
ENDTAB
  0
ENDSEC
  0
SECTION
  2
BLOCKS
  0
BLOCK
  8
0
  2
_ORIGIN
 70
     0
 10
0.0
 20
0.0
 30
0.0
  3
_ORIGIN
  1
_ORIGIN
  0
CIRCLE
  8
0
  6
CONTINUOUS
 62
     7
 10
0.0
 20
0.0
 30
0.0
 40
0.5
  0
LINE
  8
0
  6
CONTINUOUS
 62
     7
 10
0.0
 20
0.0
 30
0.0
 11
-1.0
 21
0.0
 31
0.0
  0
ENDBLK
  8
0
  0
ENDSEC
  0
SECTION
  2
ENTITIES
  0
LINE
  8
SIZE
  6
CONTINUOUS
 62
    30
 10
395.0
 20
0.0
 30
0.0
 11
754.09560599999986
 21
0.0
 31
0.0
  0
LINE
  8
SIZE
  6
CONTINUOUS
 62
    30
 10
395.0
 20
-600.0
 30
0.0
 11
754.09560599999986
 21
-600.0
 31
0.0
  0
LINE
  8
SIZE
  6
CONTINUOUS
 62
    30
 10
734.09560599999986
 20
-12.0
 30
0.0
 11
734.09560599999986
 21
-588.0
 31
0.0
  0
TEXT
  8
SIZE
  6
CONTINUOUS
 62
    30
 10
709.15786900000012
 20
-374.05714285714282
 30
0.0
 40
64.0
  1
600
 50
90.0
 41
0.9
 72
     1
 11
709.15786900000012
 21
-300.0
 31
0.0
  0
CIRCLE
  8
SIZE
  6
CONTINUOUS
 62
    30
 10
734.09560599999986
 20
0.0
 30
0.0
 40
6.0
  0
LINE
  8
SIZE
  6
CONTINUOUS
 62
    30
 10
734.09560599999986
 20
0.0
 30
0.0
 11
734.09560599999986
 21
-12.0
 31
0.0
  0
CIRCLE
  8
SIZE
  6
CONTINUOUS
 62
    30
 10
734.09560599999986
 20
-600.0
 30
0.0
 40
6.0
  0
LINE
  8
SIZE
  6
CONTINUOUS
 62
    30
 10
734.09560599999986
 20
-600.0
 30
0.0
 11
734.09560599999986
 21
-588.0
 31
0.0
  0
LINE
  8
DETAIL
  6
CONTINUOUS
 62
     5
 10
-375.0
 20
-200.0
 30
0.0
 11
-375.0
 21
0.0
 31
0.0
  0
LINE
  8
DETAIL
  6
CONTINUOUS
 62
     5
 10
375.0
 20
0.0
 30
0.0
 11
-375.0
 21
0.0
 31
0.0
  0
LINE
  8
DETAIL
  6
CONTINOUS
 62
     5
 10
355.0
 20
-553.0
 30
0.0
 11
-355.0
 21
-553.0
 31
0.0
  0
LINE
  8
DETAIL
  6
CONTINOUS
 62
     5
 10
355.0
 20
-470.0
 30
0.0
 11
-355.0
 21
-470.0
 31
0.0
  0
LINE
  8
BASIS
  6
DASHDOT
 62
     6
 10
0.0
 20
-671.94006799999966
 30
0.0
 11
0.0
 21
91.970926999999961
 31
0.0
  0
LINE
  8
DETAIL
  6
CONTINOUS
 62
     5
 10
-375.0
 20
-600.0
 30
0.0
 11
-375.0
 21
-200.0
 31
0.0
  0
LINE
  8
DETAIL
  6
CONTINOUS
 62
     5
 10
-375.0
 20
-200.0
 30
0.0
 11
375.0
 21
-200.0
 31
0.0
  0
LINE
  8
DETAIL
  6
CONTINOUS
 62
     5
 10
375.0
 20
-600.0
 30
0.0
 11
375.0
 21
0.0
 31
0.0
  0
LINE
  8
DETAIL
  6
CONTINOUS
 62
     5
 10
-375.0
 20
-600.0
 30
0.0
 11
375.0
 21
-600.0
 31
0.0
  0
LINE
  8
DETAIL
  6
CONTINOUS
 62
     5
 10
-355.0
 20
-600.0
 30
0.0
 11
-355.0
 21
-200.0
 31
0.0
  0
LINE
  8
DETAIL
  6
CONTINOUS
 62
     5
 10
355.0
 20
-600.0
 30
0.0
 11
355.0
 21
-200.0
 31
0.0
  0
LINE
  8
DETAIL
  6
CONTINUOUS
 62
     5
 10
74.0
 20
0.0
 30
0.0
 11
74.0
 21
37.0
 31
0.0
  0
LINE
  8
DETAIL
  6
CONTINUOUS
 62
     5
 10
-74.0
 20
0.0
 30
0.0
 11
-74.0
 21
37.0
 31
0.0
  0
LINE
  8
DETAIL
  6
CONTINUOUS
 62
     5
 10
74.0
 20
37.0
 30
0.0
 11
-74.0
 21
37.0
 31
0.0
  0
TEXT
  8
NOTE
  6
CONTINUOUS
 62
     4
 10
144.97840400000001
 20
53.274193999999973
 30
0.0
 40
64.0
  1
OA
 41
0.9
  0
LINE
  8
SIZE
  6
CONTINUOUS
 62
    30
 10
375.0
 20
-620.0
 30
0.0
 11
375.0
 21
-884.13889399999971
 31
0.0
  0
LINE
  8
SIZE
  6
CONTINUOUS
 62
    30
 10
-375.0
 20
-620.0
 30
0.0
 11
-375.0
 21
-884.13889399999971
 31
0.0
  0
LINE
  8
SIZE
  6
CONTINUOUS
 62
    30
 10
363.0
 20
-864.13889399999982
 30
0.0
 11
-363.0
 21
-864.13889399999982
 31
0.0
  0
TEXT
  8
SIZE
  6
CONTINUOUS
 62
    30
 10
-74.057142857142864
 20
-843.418451
 30
0.0
 40
64.0
  1
750
 41
0.9
 72
     1
 11
0.0
 21
-843.418451
 31
0.0
  0
CIRCLE
  8
SIZE
  6
CONTINUOUS
 62
    30
 10
375.0
 20
-864.13889399999982
 30
0.0
 40
6.0
  0
LINE
  8
SIZE
  6
CONTINUOUS
 62
    30
 10
375.0
 20
-864.13889399999982
 30
0.0
 11
363.0
 21
-864.13889399999982
 31
0.0
  0
CIRCLE
  8
SIZE
  6
CONTINUOUS
 62
    30
 10
-375.0
 20
-864.13889399999982
 30
0.0
 40
6.0
  0
LINE
  8
SIZE
  6
CONTINUOUS
 62
    30
 10
-375.0
 20
-864.13889399999982
 30
0.0
 11
-363.0
 21
-864.13889399999982
 31
0.0
  0
POINT
  8
ARRANGE
  6
CONTINUOUS
 62
     1
 10
0.0
 20
0.0
 30
0.0
  0
CIRCLE
  8
ARRANGE
  6
CONTINUOUS
 62
     1
 10
0.0
 20
0.0
 30
0.0
 40
40.0
  0
LINE
  8
OUTLINE
  6
CONTINOUS
 62
     3
 10
375.0
 20
-600.0
 30
0.0
 11
375.0
 21
0.0
 31
0.0
  0
LINE
  8
OUTLINE
  6
CONTINOUS
 62
     3
 10
-375.0
 20
-600.0
 30
0.0
 11
375.0
 21
-600.0
 31
0.0
  0
LINE
  8
OUTLINE
  6
CONTINUOUS
 62
     3
 10
-375.0
 20
-600.0
 30
0.0
 11
-375.0
 21
0.0
 31
0.0
  0
LINE
  8
DETAIL
  6
PHANTOM
 62
     5
 10
-126.0
 20
0.0
 30
0.0
 11
-126.0
 21
45.0
 31
0.0
  0
LINE
  8
DETAIL
  6
PHANTOM
 62
     5
 10
-126.0
 20
45.0
 30
0.0
 11
-274.0
 21
45.0
 31
0.0
  0
LINE
  8
DETAIL
  6
PHANTOM
 62
     5
 10
-274.0
 20
0.0
 30
0.0
 11
-274.0
 21
45.0
 31
0.0
  0
LINE
  8
BASIS
  6
DASHDOT
 62
     6
 10
-200.0
 20
-33.590436999999952
 30
0.0
 11
-200.0
 21
75.513159999999971
 31
0.0
  0
TEXT
  8
NOTE
  6
CONTINUOUS
 62
     4
 10
-389.80576300000013
 20
373.33546799999999
 30
0.0
 40
64.0
  1
上部給気接続口移動寸法
 41
0.9
  0
LINE
  8
NOTE
  6
CONTINUOUS
 62
     4
 10
-241.39136899999991
 20
44.398487000000053
 30
0.0
 11
-429.21976000000001
 21
176.06612300000009
 31
0.0
  0
LINE
  8
NOTE
  6
CONTINUOUS
 62
     4
 10
-429.21976000000001
 20
176.06612300000009
 30
0.0
 11
-89.5
 21
45.0
 31
0.0
  0
LINE
  8
NOTE
  6
CONTINUOUS
 62
     4
 10
-278.54157700000002
 20
59.226233999999977
 30
0.0
 11
-241.39136899999991
 21
44.398487000000053
 31
0.0
  0
LINE
  8
NOTE
  6
CONTINUOUS
 62
     4
 10
-241.39136899999991
 20
44.398487000000053
 30
0.0
 11
-266.1505189999998
 21
75.814796000000001
 31
0.0
  0
LINE
  8
NOTE
  6
CONTINUOUS
 62
     4
 10
-128.88807800000001
 20
51.969888999999966
 30
0.0
 11
-89.5
 21
45.0
 31
0.0
  0
LINE
  8
NOTE
  6
CONTINUOUS
 62
     4
 10
-89.5
 20
45.0
 30
0.0
 11
-120.126131
 21
70.730140000000006
 31
0.0
  0
LINE
  8
DETAIL
  6
CONTINOUS
 62
     5
 10
-375.0
 20
-185.0
 30
0.0
 11
375.0
 21
-185.0
 31
0.0
  0
LINE
  8
SIZE
  6
CONTINUOUS
 62
    30
 10
-395.0
 20
-200.0
 30
0.0
 11
-517.22278300000016
 21
-200.0
 31
0.0
  0
LINE
  8
SIZE
  6
CONTINUOUS
 62
    30
 10
-497.22278299999988
 20
-212.0
 30
0.0
 11
-497.22278299999988
 21
-224.0
 31
0.0
  0
LINE
  8
SIZE
  6
CONTINUOUS
 62
    30
 10
-497.22278299999988
 20
-173.0
 30
0.0
 11
-497.22278299999988
 21
-161.0
 31
0.0
  0
LINE
  8
SIZE
  6
CONTINUOUS
 62
    30
 10
-497.22278299999988
 20
-363.814347
 30
0.0
 11
-497.22278299999988
 21
-200.0
 31
0.0
  0
TEXT
  8
SIZE
  6
CONTINUOUS
 62
    30
 10
-522.22278300000016
 20
-338.81434614285718
 30
0.0
 40
64.0
  1
15
 50
90.0
 41
0.9
 72
     1
 11
-522.22278300000016
 21
-297.67148900000012
 31
0.0
  0
LINE
  8
SIZE
  6
CONTINUOUS
 62
    30
 10
-497.22278299999988
 20
-200.0
 30
0.0
 11
-497.22278299999988
 21
-185.0
 31
0.0
  0
LINE
  8
SIZE
  6
CONTINUOUS
 62
    30
 10
-497.22278299999988
 20
-200.0
 30
0.0
 11
-497.22278299999988
 21
-185.0
 31
0.0
  0
CIRCLE
  8
SIZE
  6
CONTINUOUS
 62
    30
 10
-497.22278299999988
 20
-200.0
 30
0.0
 40
6.0
  0
LINE
  8
SIZE
  6
CONTINUOUS
 62
    30
 10
-497.22278299999988
 20
-200.0
 30
0.0
 11
-497.22278299999988
 21
-212.0
 31
0.0
  0
CIRCLE
  8
SIZE
  6
CONTINUOUS
 62
    30
 10
-497.22278299999988
 20
-185.0
 30
0.0
 40
6.0
  0
LINE
  8
SIZE
  6
CONTINUOUS
 62
    30
 10
-497.22278299999988
 20
-185.0
 30
0.0
 11
-497.22278299999988
 21
-173.0
 31
0.0
  0
LINE
  8
SIZE
  6
CONTINUOUS
 62
    30
 10
-395.0
 20
-185.0
 30
0.0
 11
-517.22278300000016
 21
-185.0
 31
0.0
  0
LINE
  8
SIZE
  6
CONTINUOUS
 62
    30
 10
-395.0
 20
0.0
 30
0.0
 11
-517.22278300000016
 21
0.0
 31
0.0
  0
LINE
  8
SIZE
  6
CONTINUOUS
 62
    30
 10
-497.22278299999988
 20
-197.0
 30
0.0
 11
-497.22278299999988
 21
-209.0
 31
0.0
  0
LINE
  8
SIZE
  6
CONTINUOUS
 62
    30
 10
-497.22278299999988
 20
-185.0
 30
0.0
 11
-497.22278299999988
 21
0.0
 31
0.0
  0
CIRCLE
  8
SIZE
  6
CONTINUOUS
 62
    30
 10
-497.22278299999988
 20
-185.0
 30
0.0
 40
6.0
  0
LINE
  8
SIZE
  6
CONTINUOUS
 62
    30
 10
-497.22278299999988
 20
-185.0
 30
0.0
 11
-497.22278299999988
 21
-197.0
 31
0.0
  0
CIRCLE
  8
SIZE
  6
CONTINUOUS
 62
    30
 10
-497.22278299999988
 20
0.0
 30
0.0
 40
6.0
  0
TEXT
  8
SIZE
  6
CONTINUOUS
 62
    30
 10
-522.22278300000016
 20
-161.07142857142861
 30
0.0
 40
64.0
  1
185
 50
90.0
 41
0.9
 72
     1
 11
-522.22278300000016
 21
-92.5
 31
0.0
  0
LINE
  8
BASIS
  6
DASHDOT
 62
     6
 10
200.0
 20
-33.590436999999952
 30
0.0
 11
200.0
 21
75.513159999999971
 31
0.0
  0
LINE
  8
DETAIL
  6
PHANTOM
 62
     5
 10
274.0
 20
0.0
 30
0.0
 11
274.0
 21
45.0
 31
0.0
  0
LINE
  8
DETAIL
  6
PHANTOM
 62
     5
 10
126.0
 20
0.0
 30
0.0
 11
126.0
 21
45.0
 31
0.0
  0
LINE
  8
DETAIL
  6
PHANTOM
 62
     5
 10
274.0
 20
45.0
 30
0.0
 11
126.0
 21
45.0
 31
0.0
  0
LINE
  8
DETAIL
  6
PHANTOM
 62
     5
 10
34.0
 20
37.0
 30
0.0
 11
34.0
 21
45.0
 31
0.0
  0
LINE
  8
DETAIL
  6
PHANTOM
 62
     5
 10
-89.5
 20
0.0
 30
0.0
 11
-89.5
 21
45.0
 31
0.0
  0
LINE
  8
DETAIL
  6
PHANTOM
 62
     5
 10
89.5
 20
45.0
 30
0.0
 11
-89.5
 21
45.0
 31
0.0
  0
LINE
  8
BASIS
  6
DASHDOT
 62
     6
 10
-40.0
 20
-33.590436999999952
 30
0.0
 11
-40.0
 21
75.513159999999971
 31
0.0
  0
LINE
  8
DETAIL
  6
PHANTOM
 62
     5
 10
89.5
 20
0.0
 30
0.0
 11
89.5
 21
45.0
 31
0.0
  0
LINE
  8
BASIS
  6
DASHDOT
 62
     6
 10
40.0
 20
-33.590436999999952
 30
0.0
 11
40.0
 21
75.513159999999971
 31
0.0
  0
LINE
  8
SIZE
  6
CONTINUOUS
 62
    30
 10
200.0
 20
95.513159999999971
 30
0.0
 11
200.0
 21
587.65982799999983
 31
0.0
  0
LINE
  8
SIZE
  6
CONTINUOUS
 62
    30
 10
-200.0
 20
95.513159999999971
 30
0.0
 11
-200.0
 21
587.65982799999983
 31
0.0
  0
LINE
  8
SIZE
  6
CONTINUOUS
 62
    30
 10
188.0
 20
567.65982799999983
 30
0.0
 11
-188.0
 21
567.65982799999983
 31
0.0
  0
CIRCLE
  8
SIZE
  6
CONTINUOUS
 62
    30
 10
200.0
 20
567.65982799999983
 30
0.0
 40
6.0
  0
LINE
  8
SIZE
  6
CONTINUOUS
 62
    30
 10
200.0
 20
567.65982799999983
 30
0.0
 11
188.0
 21
567.65982799999983
 31
0.0
  0
CIRCLE
  8
SIZE
  6
CONTINUOUS
 62
    30
 10
-200.0
 20
567.65982799999983
 30
0.0
 40
6.0
  0
LINE
  8
SIZE
  6
CONTINUOUS
 62
    30
 10
-200.0
 20
567.65982799999983
 30
0.0
 11
-188.0
 21
567.65982799999983
 31
0.0
  0
TEXT
  8
SIZE
  6
CONTINUOUS
 62
    30
 10
-74.05714285714285
 20
592.65982799999983
 30
0.0
 40
64.0
  1
400
 41
0.9
 72
     1
 11
0.0
 21
592.65982799999983
 31
0.0
  0
LINE
  8
SIZE
  6
CONTINUOUS
 62
    30
 10
-40.0
 20
95.513159999999971
 30
0.0
 11
-40.0
 21
476.90498500000012
 31
0.0
  0
LINE
  8
SIZE
  6
CONTINUOUS
 62
    30
 10
-200.0
 20
456.90498499999973
 30
0.0
 11
-40.0
 21
456.90498499999973
 31
0.0
  0
CIRCLE
  8
SIZE
  6
CONTINUOUS
 62
    30
 10
-200.0
 20
456.90498499999973
 30
0.0
 40
6.0
  0
CIRCLE
  8
SIZE
  6
CONTINUOUS
 62
    30
 10
-40.0
 20
456.90498499999973
 30
0.0
 40
6.0
  0
TEXT
  8
SIZE
  6
CONTINUOUS
 62
    30
 10
-188.57142857142861
 20
481.90498499999973
 30
0.0
 40
64.0
  1
160
 41
0.9
 72
     1
 11
-120.0
 21
481.90498499999973
 31
0.0
  0
LINE
  8
SIZE
  6
CONTINUOUS
 62
    30
 10
40.0
 20
95.513159999999971
 30
0.0
 11
40.0
 21
476.90498500000012
 31
0.0
  0
LINE
  8
SIZE
  6
CONTINUOUS
 62
    30
 10
40.0
 20
456.90498499999973
 30
0.0
 11
200.0
 21
456.90498499999973
 31
0.0
  0
CIRCLE
  8
SIZE
  6
CONTINUOUS
 62
    30
 10
40.0
 20
456.90498499999973
 30
0.0
 40
6.0
  0
CIRCLE
  8
SIZE
  6
CONTINUOUS
 62
    30
 10
200.0
 20
456.90498499999973
 30
0.0
 40
6.0
  0
TEXT
  8
SIZE
  6
CONTINUOUS
 62
    30
 10
51.428571428571438
 20
481.90498499999973
 30
0.0
 40
64.0
  1
160
 41
0.9
 72
     1
 11
120.0
 21
481.90498499999973
 31
0.0
  0
LINE
  8
NOTE
  6
CONTINUOUS
 62
     4
 10
-1071.258597
 20
176.06612300000009
 30
0.0
 11
-429.21976000000001
 21
176.06612300000009
 31
0.0
  0
TEXT
  8
NOTE
  6
CONTINUOUS
 62
     4
 10
-1062.122683999999
 20
201.09354399999981
 30
0.0
 40
64.0
  1
上部左側給気接続口
 41
0.9
  0
LINE
  8
NOTE
  6
CONTINUOUS
 62
     4
 10
1122.1388910000001
 20
173.91923899999981
 30
0.0
 11
472.93416900000011
 21
173.91923899999981
 31
0.0
  0
TEXT
  8
NOTE
  6
CONTINUOUS
 62
     4
 10
476.33358700000008
 20
204.07399099999981
 30
0.0
 40
64.0
  1
上部右側給気接続口
 41
0.9
  0
LINE
  8
BASIS
  6
DASHDOT
 62
     6
 10
-6.0
 20
-19.50888099999997
 30
0.0
 11
-6.0
 21
59.046614999999967
 31
0.0
  0
LINE
  8
BASIS
  6
DASHDOT
 62
     6
 10
6.0
 20
-19.50888099999997
 30
0.0
 11
6.0
 21
59.046614999999967
 31
0.0
  0
LINE
  8
SIZE
  6
CONTINUOUS
 62
    30
 10
74.0
 20
-20.0
 30
0.0
 11
74.0
 21
-333.88860499999993
 31
0.0
  0
LINE
  8
SIZE
  6
CONTINUOUS
 62
    30
 10
-74.0
 20
-20.0
 30
0.0
 11
-74.0
 21
-333.88860499999993
 31
0.0
  0
LINE
  8
SIZE
  6
CONTINUOUS
 62
    30
 10
74.0
 20
-313.88860499999993
 30
0.0
 11
-74.0
 21
-313.88860499999993
 31
0.0
  0
CIRCLE
  8
SIZE
  6
CONTINUOUS
 62
    30
 10
74.0
 20
-313.88860499999993
 30
0.0
 40
6.0
  0
CIRCLE
  8
SIZE
  6
CONTINUOUS
 62
    30
 10
-74.0
 20
-313.88860499999993
 30
0.0
 40
6.0
  0
TEXT
  8
SIZE
  6
CONTINUOUS
 62
    30
 10
-108.89142857142861
 20
-288.88860499999993
 30
0.0
 40
64.0
  1
φ148
 41
0.9
 72
     1
 11
0.0
 21
-288.88860499999993
 31
0.0
  0
LINE
  8
SIZE
  6
CONTINUOUS
 62
    30
 10
6.0
 20
79.046614999999974
 30
0.0
 11
6.0
 21
256.54147499999982
 31
0.0
  0
LINE
  8
SIZE
  6
CONTINUOUS
 62
    30
 10
-6.0
 20
79.046614999999974
 30
0.0
 11
-6.0
 21
256.54147499999982
 31
0.0
  0
LINE
  8
SIZE
  6
CONTINUOUS
 62
    30
 10
18.0
 20
236.54147499999999
 30
0.0
 11
30.0
 21
236.54147499999999
 31
0.0
  0
LINE
  8
SIZE
  6
CONTINUOUS
 62
    30
 10
-18.0
 20
236.54147499999999
 30
0.0
 11
-30.0
 21
236.54147499999999
 31
0.0
  0
LINE
  8
SIZE
  6
CONTINUOUS
 62
    30
 10
6.0
 20
236.54147499999999
 30
0.0
 11
-6.0
 21
236.54147499999999
 31
0.0
  0
CIRCLE
  8
SIZE
  6
CONTINUOUS
 62
    30
 10
6.0
 20
236.54147499999999
 30
0.0
 40
6.0
  0
LINE
  8
SIZE
  6
CONTINUOUS
 62
    30
 10
6.0
 20
236.54147499999999
 30
0.0
 11
18.0
 21
236.54147499999999
 31
0.0
  0
CIRCLE
  8
SIZE
  6
CONTINUOUS
 62
    30
 10
-6.0
 20
236.54147499999999
 30
0.0
 40
6.0
  0
LINE
  8
SIZE
  6
CONTINUOUS
 62
    30
 10
-6.0
 20
236.54147499999999
 30
0.0
 11
-18.0
 21
236.54147499999999
 31
0.0
  0
TEXT
  8
SIZE
  6
CONTINUOUS
 62
    30
 10
-41.142857142857139
 20
261.54147499999982
 30
0.0
 40
64.0
  1
12
 41
0.9
 72
     1
 11
0.0
 21
261.54147499999982
 31
0.0
  0
TEXT
  8
NOTE
  6
CONTINUOUS
 62
     4
 10
-338.32855899999998
 20
156.73882800000001
 30
0.0
 40
64.0
  1
ダクト接続口可動寸法
 41
0.9
  0
TEXT
  8
NOTE
  6
CONTINUOUS
 62
     4
 10
-44.986184999999978
 20
-47.313388000000032
 30
0.0
 40
64.0
  1
EA
 41
0.9
  0
LINE
  8
NOTE
  6
CONTINUOUS
 62
     4
 10
472.93416900000011
 20
173.91923899999981
 30
0.0
 11
249.22467200000031
 21
45.0
 31
0.0
  0
LINE
  8
NOTE
  6
CONTINUOUS
 62
     4
 10
472.93416900000011
 20
173.91923899999981
 30
0.0
 11
89.5
 21
45.0
 31
0.0
  0
LINE
  8
NOTE
  6
CONTINUOUS
 62
     4
 10
277.77253500000012
 20
73.018199999999979
 30
0.0
 11
249.22467200000031
 21
45.0
 31
0.0
  0
LINE
  8
NOTE
  6
CONTINUOUS
 62
     4
 10
249.22467200000031
 20
45.0
 30
0.0
 11
287.95694600000019
 21
54.990541000000007
 31
0.0
  0
LINE
  8
NOTE
  6
CONTINUOUS
 62
     4
 10
121.8714090000003
 20
68.496634999999969
 30
0.0
 11
89.5
 21
45.0
 31
0.0
  0
LINE
  8
NOTE
  6
CONTINUOUS
 62
     4
 10
89.5
 20
45.0
 30
0.0
 11
129.28277999999949
 21
49.162977999999953
 31
0.0
  0
LINE
  8
SIZE
  6
CONTINUOUS
 62
    30
 10
395.0
 20
-200.0
 30
0.0
 11
625.06108200000017
 21
-200.0
 31
0.0
  0
LINE
  8
SIZE
  6
CONTINUOUS
 62
    30
 10
605.06108200000017
 20
-588.0
 30
0.0
 11
605.06108200000017
 21
-212.0
 31
0.0
  0
CIRCLE
  8
SIZE
  6
CONTINUOUS
 62
    30
 10
605.06108200000017
 20
-600.0
 30
0.0
 40
6.0
  0
LINE
  8
SIZE
  6
CONTINUOUS
 62
    30
 10
605.06108200000017
 20
-600.0
 30
0.0
 11
605.06108200000017
 21
-588.0
 31
0.0
  0
CIRCLE
  8
SIZE
  6
CONTINUOUS
 62
    30
 10
605.06108200000017
 20
-200.0
 30
0.0
 40
6.0
  0
LINE
  8
SIZE
  6
CONTINUOUS
 62
    30
 10
605.06108200000017
 20
-200.0
 30
0.0
 11
605.06108200000017
 21
-212.0
 31
0.0
  0
TEXT
  8
SIZE
  6
CONTINUOUS
 62
    30
 10
580.06108200000017
 20
-474.05714285714282
 30
0.0
 40
64.0
  1
400
 50
90.0
 41
0.9
 72
     1
 11
580.06108200000017
 21
-400.0
 31
0.0
  0
ARC
  8
DETAIL
  6
CONTINOUS
 62
     5
 10
35.669300999999898
 20
-515.74780799999996
 30
0.0
 40
70.0
 50
346.07795599999417
 51
13.56848242530228
  0
CIRCLE
  8
DETAIL
  6
CONTINOUS
 62
     5
 10
51.669300999999898
 20
-518.24780799999996
 30
0.0
 40
8.3000000000000007
  0
CIRCLE
  8
DETAIL
  6
CONTINOUS
 62
     5
 10
51.669300999999898
 20
-518.24780799999996
 30
0.0
 40
6.5
  0
CIRCLE
  8
DETAIL
  6
CONTINOUS
 62
     5
 10
8.6693009999999049
 20
-518.24780799999996
 30
0.0
 40
8.3000000000000007
  0
CIRCLE
  8
DETAIL
  6
CONTINOUS
 62
     5
 10
8.6693009999999049
 20
-518.24780799999996
 30
0.0
 40
6.5
  0
CIRCLE
  8
DETAIL
  6
CONTINOUS
 62
     5
 10
30.169300999999901
 20
-518.24780799999996
 30
0.0
 40
8.3000000000000007
  0
CIRCLE
  8
DETAIL
  6
CONTINOUS
 62
     5
 10
30.169300999999901
 20
-518.24780799999996
 30
0.0
 40
6.5
  0
CIRCLE
  8
DETAIL
  6
CONTINOUS
 62
     5
 10
-55.830699000000102
 20
-518.24780799999996
 30
0.0
 40
8.3000000000000007
  0
CIRCLE
  8
DETAIL
  6
CONTINOUS
 62
     5
 10
-55.830699000000102
 20
-518.24780799999996
 30
0.0
 40
6.5
  0
CIRCLE
  8
DETAIL
  6
CONTINOUS
 62
     5
 10
-34.330699000000102
 20
-518.24780799999996
 30
0.0
 40
6.5
  0
ARC
  8
DETAIL
  6
CONTINOUS
 62
     5
 10
-104.8306989999999
 20
-515.74780799999996
 30
0.0
 40
10.5
 50
90.0
 51
270.0
  0
ARC
  8
DETAIL
  6
CONTINOUS
 62
     5
 10
-104.8306989999999
 20
-515.74780799999996
 30
0.0
 40
19.5
 50
90.0
 51
270.0
  0
CIRCLE
  8
DETAIL
  6
CONTINOUS
 62
     5
 10
-34.330699000000102
 20
-518.24780799999996
 30
0.0
 40
8.3000000000000007
  0
LINE
  8
DETAIL
  6
CONTINOUS
 62
     5
 10
-104.8306989999999
 20
-526.55063700000005
 30
0.0
 11
104.8306990000001
 21
-526.55063700000005
 31
0.0
  0
LINE
  8
DETAIL
  6
CONTINOUS
 62
     5
 10
-104.8306989999999
 20
-535.24780799999996
 30
0.0
 11
100.215796
 21
-535.24780799999996
 31
0.0
  0
ARC
  8
DETAIL
  6
CONTINOUS
 62
     5
 10
100.215796
 20
-531.74780799999996
 30
0.0
 40
3.5
 50
270.0
 51
346.07795599999417
  0
LINE
  8
DETAIL
  6
CONTINOUS
 62
     5
 10
-104.8306989999999
 20
-496.24780800000008
 30
0.0
 11
100.8133720000001
 21
-496.24780800000008
 31
0.0
  0
LINE
  8
DETAIL
  6
CONTINOUS
 62
     5
 10
-104.87108699999951
 20
-505.23160700000011
 30
0.0
 11
104.87486100000019
 21
-505.23160700000011
 31
0.0
  0
ARC
  8
DETAIL
  6
CONTINOUS
 62
     5
 10
100.215796
 20
-499.74780800000008
 30
0.0
 40
3.5
 50
13.922044000005769
 51
90.0
  0
LINE
  8
DETAIL
  6
CONTINUOUS
 62
     5
 10
163.5
 20
-125.23105099999999
 30
0.0
 11
286.5
 21
-125.23105099999999
 31
0.0
  0
LINE
  8
DETAIL
  6
CONTINUOUS
 62
     5
 10
163.0
 20
-123.03008899999971
 30
0.0
 11
287.0
 21
-123.03008899999971
 31
0.0
  0
LINE
  8
DETAIL
  6
CONTINUOUS
 62
     5
 10
162.0
 20
-119.097076
 30
0.0
 11
288.0
 21
-119.097076
 31
0.0
  0
LINE
  8
DETAIL
  6
CONTINUOUS
 62
     5
 10
163.5
 20
-114.23105099999979
 30
0.0
 11
286.5
 21
-114.23105099999979
 31
0.0
  0
LINE
  8
DETAIL
  6
CONTINUOUS
 62
     5
 10
162.0
 20
-108.097076
 30
0.0
 11
288.0
 21
-108.097076
 31
0.0
  0
LINE
  8
DETAIL
  6
CONTINUOUS
 62
     5
 10
163.0
 20
-112.0300889999999
 30
0.0
 11
287.0
 21
-112.0300889999999
 31
0.0
  0
LINE
  8
DETAIL
  6
CONTINUOUS
 62
     5
 10
163.5
 20
-103.23105099999979
 30
0.0
 11
286.5
 21
-103.23105099999979
 31
0.0
  0
LINE
  8
DETAIL
  6
CONTINUOUS
 62
     5
 10
163.0
 20
-101.030089
 30
0.0
 11
287.0
 21
-101.030089
 31
0.0
  0
LINE
  8
DETAIL
  6
CONTINUOUS
 62
     5
 10
162.0
 20
-97.097076000000015
 30
0.0
 11
288.0
 21
-97.097076000000015
 31
0.0
  0
LINE
  8
DETAIL
  6
CONTINUOUS
 62
     5
 10
163.5
 20
-92.231050999999979
 30
0.0
 11
286.5
 21
-92.231050999999979
 31
0.0
  0
LINE
  8
DETAIL
  6
CONTINUOUS
 62
     5
 10
162.0
 20
-86.097076000000015
 30
0.0
 11
288.0
 21
-86.097076000000015
 31
0.0
  0
LINE
  8
DETAIL
  6
CONTINUOUS
 62
     5
 10
163.0
 20
-90.030088999999975
 30
0.0
 11
287.0
 21
-90.030088999999975
 31
0.0
  0
LINE
  8
DETAIL
  6
CONTINUOUS
 62
     5
 10
163.5
 20
-81.231050999999979
 30
0.0
 11
286.5
 21
-81.231050999999979
 31
0.0
  0
LINE
  8
DETAIL
  6
CONTINUOUS
 62
     5
 10
162.0
 20
-75.097076000000015
 30
0.0
 11
288.0
 21
-75.097076000000015
 31
0.0
  0
LINE
  8
DETAIL
  6
CONTINUOUS
 62
     5
 10
163.0
 20
-79.030088999999975
 30
0.0
 11
287.0
 21
-79.030088999999975
 31
0.0
  0
LINE
  8
DETAIL
  6
CONTINUOUS
 62
     5
 10
163.5
 20
-59.231050999999979
 30
0.0
 11
286.5
 21
-59.231050999999979
 31
0.0
  0
LINE
  8
DETAIL
  6
CONTINUOUS
 62
     5
 10
162.0
 20
-53.097076000000023
 30
0.0
 11
288.0
 21
-53.097076000000023
 31
0.0
  0
LINE
  8
DETAIL
  6
CONTINUOUS
 62
     5
 10
163.0
 20
-57.030088999999982
 30
0.0
 11
287.0
 21
-57.030088999999982
 31
0.0
  0
LINE
  8
DETAIL
  6
CONTINUOUS
 62
     5
 10
163.5
 20
-70.231050999999979
 30
0.0
 11
286.5
 21
-70.231050999999979
 31
0.0
  0
LINE
  8
DETAIL
  6
CONTINUOUS
 62
     5
 10
162.0
 20
-64.097076000000015
 30
0.0
 11
288.0
 21
-64.097076000000015
 31
0.0
  0
LINE
  8
DETAIL
  6
CONTINUOUS
 62
     5
 10
163.0
 20
-68.030088999999975
 30
0.0
 11
287.0
 21
-68.030088999999975
 31
0.0
  0
LINE
  8
DETAIL
  6
CONTINUOUS
 62
     5
 10
137.0
 20
-68.030088999999975
 30
0.0
 11
13.0
 21
-68.030088999999975
 31
0.0
  0
LINE
  8
DETAIL
  6
CONTINUOUS
 62
     5
 10
138.0
 20
-64.097076000000015
 30
0.0
 11
12.0
 21
-64.097076000000015
 31
0.0
  0
LINE
  8
DETAIL
  6
CONTINUOUS
 62
     5
 10
136.49999999999949
 20
-70.231050999999979
 30
0.0
 11
13.5
 21
-70.231050999999979
 31
0.0
  0
LINE
  8
DETAIL
  6
CONTINUOUS
 62
     5
 10
137.0
 20
-57.030088999999982
 30
0.0
 11
13.0
 21
-57.030088999999982
 31
0.0
  0
LINE
  8
DETAIL
  6
CONTINUOUS
 62
     5
 10
138.0
 20
-53.097076000000023
 30
0.0
 11
12.0
 21
-53.097076000000023
 31
0.0
  0
LINE
  8
DETAIL
  6
CONTINUOUS
 62
     5
 10
136.49999999999949
 20
-59.231050999999979
 30
0.0
 11
13.5
 21
-59.231050999999979
 31
0.0
  0
LINE
  8
DETAIL
  6
CONTINUOUS
 62
     5
 10
137.0
 20
-79.030088999999975
 30
0.0
 11
13.0
 21
-79.030088999999975
 31
0.0
  0
LINE
  8
DETAIL
  6
CONTINUOUS
 62
     5
 10
138.0
 20
-75.097076000000015
 30
0.0
 11
12.0
 21
-75.097076000000015
 31
0.0
  0
LINE
  8
DETAIL
  6
CONTINUOUS
 62
     5
 10
136.49999999999949
 20
-81.231050999999979
 30
0.0
 11
13.5
 21
-81.231050999999979
 31
0.0
  0
LINE
  8
DETAIL
  6
CONTINUOUS
 62
     5
 10
137.0
 20
-90.030088999999975
 30
0.0
 11
13.0
 21
-90.030088999999975
 31
0.0
  0
LINE
  8
DETAIL
  6
CONTINUOUS
 62
     5
 10
138.0
 20
-86.097076000000015
 30
0.0
 11
12.0
 21
-86.097076000000015
 31
0.0
  0
LINE
  8
DETAIL
  6
CONTINUOUS
 62
     5
 10
136.49999999999949
 20
-92.231050999999979
 30
0.0
 11
13.5
 21
-92.231050999999979
 31
0.0
  0
LINE
  8
DETAIL
  6
CONTINUOUS
 62
     5
 10
138.0
 20
-97.097076000000015
 30
0.0
 11
12.0
 21
-97.097076000000015
 31
0.0
  0
LINE
  8
DETAIL
  6
CONTINUOUS
 62
     5
 10
137.0
 20
-101.030089
 30
0.0
 11
13.0
 21
-101.030089
 31
0.0
  0
LINE
  8
DETAIL
  6
CONTINUOUS
 62
     5
 10
136.49999999999949
 20
-103.23105099999979
 30
0.0
 11
13.5
 21
-103.23105099999979
 31
0.0
  0
LINE
  8
DETAIL
  6
CONTINUOUS
 62
     5
 10
137.0
 20
-112.0300889999999
 30
0.0
 11
13.0
 21
-112.0300889999999
 31
0.0
  0
LINE
  8
DETAIL
  6
CONTINUOUS
 62
     5
 10
138.0
 20
-108.097076
 30
0.0
 11
12.0
 21
-108.097076
 31
0.0
  0
LINE
  8
DETAIL
  6
CONTINUOUS
 62
     5
 10
136.49999999999949
 20
-114.23105099999979
 30
0.0
 11
13.5
 21
-114.23105099999979
 31
0.0
  0
LINE
  8
DETAIL
  6
CONTINUOUS
 62
     5
 10
138.0
 20
-119.097076
 30
0.0
 11
12.0
 21
-119.097076
 31
0.0
  0
LINE
  8
DETAIL
  6
CONTINUOUS
 62
     5
 10
137.0
 20
-123.03008899999971
 30
0.0
 11
13.0
 21
-123.03008899999971
 31
0.0
  0
LINE
  8
DETAIL
  6
CONTINUOUS
 62
     5
 10
136.49999999999949
 20
-125.23105099999999
 30
0.0
 11
13.5
 21
-125.23105099999999
 31
0.0
  0
ARC
  8
DETAIL
  6
CONTINUOUS
 62
     5
 10
13.0
 20
-76.030088999999975
 30
0.0
 40
3.0
 50
180.0
 51
270.0
  0
LINE
  8
DETAIL
  6
CONTINUOUS
 62
     5
 10
10.0
 20
-77.731050999999979
 30
0.0
 11
10.0
 21
-74.231050999999979
 31
0.0
  0
ARC
  8
DETAIL
  6
CONTINUOUS
 62
     5
 10
13.5
 20
-77.731050999999979
 30
0.0
 40
3.5
 50
180.0
 51
270.0
  0
ARC
  8
DETAIL
  6
CONTINUOUS
 62
     5
 10
13.0
 20
-87.030088999999975
 30
0.0
 40
3.0
 50
180.0
 51
270.0
  0
LINE
  8
DETAIL
  6
CONTINUOUS
 62
     5
 10
10.0
 20
-88.731050999999979
 30
0.0
 11
10.0
 21
-85.231050999999979
 31
0.0
  0
ARC
  8
DETAIL
  6
CONTINUOUS
 62
     5
 10
13.5
 20
-88.731050999999979
 30
0.0
 40
3.5
 50
180.0
 51
270.0
  0
ARC
  8
DETAIL
  6
CONTINUOUS
 62
     5
 10
13.0
 20
-98.030088999999975
 30
0.0
 40
3.0
 50
180.0
 51
270.0
  0
LINE
  8
DETAIL
  6
CONTINUOUS
 62
     5
 10
10.0
 20
-99.731050999999979
 30
0.0
 11
10.0
 21
-96.231050999999979
 31
0.0
  0
ARC
  8
DETAIL
  6
CONTINUOUS
 62
     5
 10
13.5
 20
-99.731050999999979
 30
0.0
 40
3.5
 50
180.0
 51
270.0
  0
ARC
  8
DETAIL
  6
CONTINUOUS
 62
     5
 10
13.5
 20
-110.73105099999999
 30
0.0
 40
3.5
 50
180.0
 51
270.0
  0
ARC
  8
DETAIL
  6
CONTINUOUS
 62
     5
 10
13.5
 20
-121.73105099999979
 30
0.0
 40
3.5
 50
180.0
 51
270.0
  0
LINE
  8
DETAIL
  6
CONTINUOUS
 62
     5
 10
10.0
 20
-121.73105099999979
 30
0.0
 11
10.0
 21
-118.23105099999979
 31
0.0
  0
ARC
  8
DETAIL
  6
CONTINUOUS
 62
     5
 10
13.0
 20
-120.0300889999999
 30
0.0
 40
3.0
 50
180.0
 51
270.0
  0
ARC
  8
DETAIL
  6
CONTINUOUS
 62
     5
 10
13.0
 20
-109.0300889999999
 30
0.0
 40
3.0
 50
180.0
 51
270.0
  0
LINE
  8
DETAIL
  6
CONTINUOUS
 62
     5
 10
10.0
 20
-110.73105099999999
 30
0.0
 11
10.0
 21
-107.23105099999979
 31
0.0
  0
ARC
  8
DETAIL
  6
CONTINUOUS
 62
     5
 10
13.0
 20
-54.030088999999982
 30
0.0
 40
3.0
 50
180.0
 51
270.0
  0
LINE
  8
DETAIL
  6
CONTINUOUS
 62
     5
 10
10.0
 20
-55.731050999999979
 30
0.0
 11
10.0
 21
-52.231050999999979
 31
0.0
  0
ARC
  8
DETAIL
  6
CONTINUOUS
 62
     5
 10
13.5
 20
-55.731050999999979
 30
0.0
 40
3.5
 50
180.0
 51
270.0
  0
ARC
  8
DETAIL
  6
CONTINUOUS
 62
     5
 10
13.0
 20
-65.030088999999975
 30
0.0
 40
3.0
 50
180.0
 51
270.0
  0
LINE
  8
DETAIL
  6
CONTINUOUS
 62
     5
 10
10.0
 20
-66.731050999999979
 30
0.0
 11
10.0
 21
-63.231050999999979
 31
0.0
  0
ARC
  8
DETAIL
  6
CONTINUOUS
 62
     5
 10
13.5
 20
-66.731050999999979
 30
0.0
 40
3.5
 50
180.0
 51
270.0
  0
ARC
  8
DETAIL
  6
CONTINUOUS
 62
     5
 10
163.5
 20
-99.731050999999979
 30
0.0
 40
3.5
 50
180.0
 51
270.0
  0
LINE
  8
DETAIL
  6
CONTINUOUS
 62
     5
 10
160.0
 20
-99.731050999999979
 30
0.0
 11
160.0
 21
-96.231050999999979
 31
0.0
  0
ARC
  8
DETAIL
  6
CONTINUOUS
 62
     5
 10
163.0
 20
-98.030088999999975
 30
0.0
 40
3.0
 50
180.0
 51
270.0
  0
LINE
  8
DETAIL
  6
CONTINUOUS
 62
     5
 10
160.0
 20
-88.731050999999979
 30
0.0
 11
160.0
 21
-85.231050999999979
 31
0.0
  0
ARC
  8
DETAIL
  6
CONTINUOUS
 62
     5
 10
163.5
 20
-88.731050999999979
 30
0.0
 40
3.5
 50
180.0
 51
270.0
  0
ARC
  8
DETAIL
  6
CONTINUOUS
 62
     5
 10
163.0
 20
-87.030088999999975
 30
0.0
 40
3.0
 50
180.0
 51
270.0
  0
LINE
  8
DETAIL
  6
CONTINUOUS
 62
     5
 10
160.0
 20
-77.731050999999979
 30
0.0
 11
160.0
 21
-74.231050999999979
 31
0.0
  0
ARC
  8
DETAIL
  6
CONTINUOUS
 62
     5
 10
163.5
 20
-77.731050999999979
 30
0.0
 40
3.5
 50
180.0
 51
270.0
  0
ARC
  8
DETAIL
  6
CONTINUOUS
 62
     5
 10
163.0
 20
-76.030088999999975
 30
0.0
 40
3.0
 50
180.0
 51
270.0
  0
ARC
  8
DETAIL
  6
CONTINUOUS
 62
     5
 10
136.49999999999949
 20
-99.731050999999979
 30
0.0
 40
3.5
 50
270.0
 51
0.0
  0
LINE
  8
DETAIL
  6
CONTINUOUS
 62
     5
 10
140.0
 20
-99.731050999999979
 30
0.0
 11
140.0
 21
-96.231050999999979
 31
0.0
  0
ARC
  8
DETAIL
  6
CONTINUOUS
 62
     5
 10
137.0
 20
-98.030088999999975
 30
0.0
 40
3.0
 50
270.0
 51
0.0
  0
ARC
  8
DETAIL
  6
CONTINUOUS
 62
     5
 10
136.49999999999949
 20
-88.731050999999979
 30
0.0
 40
3.5
 50
270.0
 51
0.0
  0
LINE
  8
DETAIL
  6
CONTINUOUS
 62
     5
 10
140.0
 20
-88.731050999999979
 30
0.0
 11
140.0
 21
-85.231050999999979
 31
0.0
  0
ARC
  8
DETAIL
  6
CONTINUOUS
 62
     5
 10
137.0
 20
-87.030088999999975
 30
0.0
 40
3.0
 50
270.0
 51
0.0
  0
ARC
  8
DETAIL
  6
CONTINUOUS
 62
     5
 10
136.49999999999949
 20
-77.731050999999979
 30
0.0
 40
3.5
 50
270.0
 51
0.0
  0
LINE
  8
DETAIL
  6
CONTINUOUS
 62
     5
 10
140.0
 20
-77.731050999999979
 30
0.0
 11
140.0
 21
-74.231050999999979
 31
0.0
  0
ARC
  8
DETAIL
  6
CONTINUOUS
 62
     5
 10
137.0
 20
-76.030088999999975
 30
0.0
 40
3.0
 50
270.0
 51
0.0
  0
ARC
  8
DETAIL
  6
CONTINUOUS
 62
     5
 10
163.0
 20
-120.0300889999999
 30
0.0
 40
3.0
 50
180.0
 51
270.0
  0
ARC
  8
DETAIL
  6
CONTINUOUS
 62
     5
 10
163.5
 20
-121.73105099999979
 30
0.0
 40
3.5
 50
180.0
 51
270.0
  0
LINE
  8
DETAIL
  6
CONTINUOUS
 62
     5
 10
160.0
 20
-121.73105099999979
 30
0.0
 11
160.0
 21
-118.23105099999979
 31
0.0
  0
ARC
  8
DETAIL
  6
CONTINUOUS
 62
     5
 10
163.5
 20
-110.73105099999999
 30
0.0
 40
3.5
 50
180.0
 51
270.0
  0
ARC
  8
DETAIL
  6
CONTINUOUS
 62
     5
 10
137.0
 20
-120.0300889999999
 30
0.0
 40
3.0
 50
270.0
 51
0.0
  0
LINE
  8
DETAIL
  6
CONTINUOUS
 62
     5
 10
140.0
 20
-121.73105099999979
 30
0.0
 11
140.0
 21
-118.23105099999979
 31
0.0
  0
ARC
  8
DETAIL
  6
CONTINUOUS
 62
     5
 10
136.49999999999949
 20
-121.73105099999979
 30
0.0
 40
3.5
 50
270.0
 51
0.0
  0
ARC
  8
DETAIL
  6
CONTINUOUS
 62
     5
 10
136.49999999999949
 20
-110.73105099999999
 30
0.0
 40
3.5
 50
270.0
 51
0.0
  0
LINE
  8
DETAIL
  6
CONTINUOUS
 62
     5
 10
160.0
 20
-110.73105099999999
 30
0.0
 11
160.0
 21
-107.23105099999979
 31
0.0
  0
ARC
  8
DETAIL
  6
CONTINUOUS
 62
     5
 10
163.0
 20
-109.0300889999999
 30
0.0
 40
3.0
 50
180.0
 51
270.0
  0
LINE
  8
DETAIL
  6
CONTINUOUS
 62
     5
 10
140.0
 20
-110.73105099999999
 30
0.0
 11
140.0
 21
-107.23105099999979
 31
0.0
  0
ARC
  8
DETAIL
  6
CONTINUOUS
 62
     5
 10
137.0
 20
-109.0300889999999
 30
0.0
 40
3.0
 50
270.0
 51
0.0
  0
LINE
  8
DETAIL
  6
CONTINUOUS
 62
     5
 10
160.0
 20
-55.731050999999979
 30
0.0
 11
160.0
 21
-52.231050999999979
 31
0.0
  0
ARC
  8
DETAIL
  6
CONTINUOUS
 62
     5
 10
163.5
 20
-55.731050999999979
 30
0.0
 40
3.5
 50
180.0
 51
270.0
  0
ARC
  8
DETAIL
  6
CONTINUOUS
 62
     5
 10
163.0
 20
-54.030088999999982
 30
0.0
 40
3.0
 50
180.0
 51
270.0
  0
LINE
  8
DETAIL
  6
CONTINUOUS
 62
     5
 10
160.0
 20
-66.731050999999979
 30
0.0
 11
160.0
 21
-63.231050999999979
 31
0.0
  0
ARC
  8
DETAIL
  6
CONTINUOUS
 62
     5
 10
163.5
 20
-66.731050999999979
 30
0.0
 40
3.5
 50
180.0
 51
270.0
  0
ARC
  8
DETAIL
  6
CONTINUOUS
 62
     5
 10
163.0
 20
-65.030088999999975
 30
0.0
 40
3.0
 50
180.0
 51
270.0
  0
ARC
  8
DETAIL
  6
CONTINUOUS
 62
     5
 10
136.49999999999949
 20
-66.731050999999979
 30
0.0
 40
3.5
 50
270.0
 51
0.0
  0
LINE
  8
DETAIL
  6
CONTINUOUS
 62
     5
 10
140.0
 20
-66.731050999999979
 30
0.0
 11
140.0
 21
-63.231050999999979
 31
0.0
  0
ARC
  8
DETAIL
  6
CONTINUOUS
 62
     5
 10
137.0
 20
-65.030088999999975
 30
0.0
 40
3.0
 50
270.0
 51
0.0
  0
ARC
  8
DETAIL
  6
CONTINUOUS
 62
     5
 10
136.49999999999949
 20
-55.731050999999979
 30
0.0
 40
3.5
 50
270.0
 51
0.0
  0
LINE
  8
DETAIL
  6
CONTINUOUS
 62
     5
 10
140.0
 20
-55.731050999999979
 30
0.0
 11
140.0
 21
-52.231050999999979
 31
0.0
  0
ARC
  8
DETAIL
  6
CONTINUOUS
 62
     5
 10
137.0
 20
-54.030088999999982
 30
0.0
 40
3.0
 50
270.0
 51
0.0
  0
ARC
  8
DETAIL
  6
CONTINUOUS
 62
     5
 10
286.5
 20
-99.731050999999979
 30
0.0
 40
3.5
 50
270.0
 51
0.0
  0
LINE
  8
DETAIL
  6
CONTINUOUS
 62
     5
 10
290.0
 20
-99.731050999999979
 30
0.0
 11
290.0
 21
-96.231050999999979
 31
0.0
  0
ARC
  8
DETAIL
  6
CONTINUOUS
 62
     5
 10
287.0
 20
-98.030088999999975
 30
0.0
 40
3.0
 50
270.0
 51
0.0
  0
ARC
  8
DETAIL
  6
CONTINUOUS
 62
     5
 10
286.5
 20
-88.731050999999979
 30
0.0
 40
3.5
 50
270.0
 51
0.0
  0
LINE
  8
DETAIL
  6
CONTINUOUS
 62
     5
 10
290.0
 20
-88.731050999999979
 30
0.0
 11
290.0
 21
-85.231050999999979
 31
0.0
  0
ARC
  8
DETAIL
  6
CONTINUOUS
 62
     5
 10
287.0
 20
-87.030088999999975
 30
0.0
 40
3.0
 50
270.0
 51
0.0
  0
ARC
  8
DETAIL
  6
CONTINUOUS
 62
     5
 10
286.5
 20
-77.731050999999979
 30
0.0
 40
3.5
 50
270.0
 51
0.0
  0
LINE
  8
DETAIL
  6
CONTINUOUS
 62
     5
 10
290.0
 20
-77.731050999999979
 30
0.0
 11
290.0
 21
-74.231050999999979
 31
0.0
  0
ARC
  8
DETAIL
  6
CONTINUOUS
 62
     5
 10
287.0
 20
-76.030088999999975
 30
0.0
 40
3.0
 50
270.0
 51
0.0
  0
ARC
  8
DETAIL
  6
CONTINUOUS
 62
     5
 10
287.0
 20
-120.0300889999999
 30
0.0
 40
3.0
 50
270.0
 51
0.0
  0
LINE
  8
DETAIL
  6
CONTINUOUS
 62
     5
 10
290.0
 20
-121.73105099999979
 30
0.0
 11
290.0
 21
-118.23105099999979
 31
0.0
  0
ARC
  8
DETAIL
  6
CONTINUOUS
 62
     5
 10
286.5
 20
-121.73105099999979
 30
0.0
 40
3.5
 50
270.0
 51
0.0
  0
ARC
  8
DETAIL
  6
CONTINUOUS
 62
     5
 10
286.5
 20
-110.73105099999999
 30
0.0
 40
3.5
 50
270.0
 51
0.0
  0
LINE
  8
DETAIL
  6
CONTINUOUS
 62
     5
 10
290.0
 20
-110.73105099999999
 30
0.0
 11
290.0
 21
-107.23105099999979
 31
0.0
  0
ARC
  8
DETAIL
  6
CONTINUOUS
 62
     5
 10
287.0
 20
-109.0300889999999
 30
0.0
 40
3.0
 50
270.0
 51
0.0
  0
ARC
  8
DETAIL
  6
CONTINUOUS
 62
     5
 10
286.5
 20
-66.731050999999979
 30
0.0
 40
3.5
 50
270.0
 51
0.0
  0
LINE
  8
DETAIL
  6
CONTINUOUS
 62
     5
 10
290.0
 20
-66.731050999999979
 30
0.0
 11
290.0
 21
-63.231050999999979
 31
0.0
  0
ARC
  8
DETAIL
  6
CONTINUOUS
 62
     5
 10
287.0
 20
-65.030088999999975
 30
0.0
 40
3.0
 50
270.0
 51
0.0
  0
ARC
  8
DETAIL
  6
CONTINUOUS
 62
     5
 10
286.5
 20
-55.731050999999979
 30
0.0
 40
3.5
 50
270.0
 51
0.0
  0
LINE
  8
DETAIL
  6
CONTINUOUS
 62
     5
 10
290.0
 20
-55.731050999999979
 30
0.0
 11
290.0
 21
-52.231050999999979
 31
0.0
  0
ARC
  8
DETAIL
  6
CONTINUOUS
 62
     5
 10
287.0
 20
-54.030088999999982
 30
0.0
 40
3.0
 50
270.0
 51
0.0
  0
LINE
  8
DETAIL
  6
CONTINUOUS
 62
     5
 10
-163.4999999999998
 20
-125.23105099999999
 30
0.0
 11
-286.5
 21
-125.23105099999999
 31
0.0
  0
LINE
  8
DETAIL
  6
CONTINUOUS
 62
     5
 10
-163.0
 20
-123.03008899999971
 30
0.0
 11
-287.0
 21
-123.03008899999971
 31
0.0
  0
LINE
  8
DETAIL
  6
CONTINUOUS
 62
     5
 10
-162.0
 20
-119.097076
 30
0.0
 11
-288.0
 21
-119.097076
 31
0.0
  0
LINE
  8
DETAIL
  6
CONTINUOUS
 62
     5
 10
-163.4999999999998
 20
-114.23105099999979
 30
0.0
 11
-286.5
 21
-114.23105099999979
 31
0.0
  0
LINE
  8
DETAIL
  6
CONTINUOUS
 62
     5
 10
-162.0
 20
-108.097076
 30
0.0
 11
-288.0
 21
-108.097076
 31
0.0
  0
LINE
  8
DETAIL
  6
CONTINUOUS
 62
     5
 10
-163.0
 20
-112.0300889999999
 30
0.0
 11
-287.0
 21
-112.0300889999999
 31
0.0
  0
LINE
  8
DETAIL
  6
CONTINUOUS
 62
     5
 10
-163.4999999999998
 20
-103.23105099999979
 30
0.0
 11
-286.5
 21
-103.23105099999979
 31
0.0
  0
LINE
  8
DETAIL
  6
CONTINUOUS
 62
     5
 10
-163.0
 20
-101.030089
 30
0.0
 11
-287.0
 21
-101.030089
 31
0.0
  0
LINE
  8
DETAIL
  6
CONTINUOUS
 62
     5
 10
-162.0
 20
-97.097076000000015
 30
0.0
 11
-288.0
 21
-97.097076000000015
 31
0.0
  0
LINE
  8
DETAIL
  6
CONTINUOUS
 62
     5
 10
-163.4999999999998
 20
-92.231050999999979
 30
0.0
 11
-286.5
 21
-92.231050999999979
 31
0.0
  0
LINE
  8
DETAIL
  6
CONTINUOUS
 62
     5
 10
-162.0
 20
-86.097076000000015
 30
0.0
 11
-288.0
 21
-86.097076000000015
 31
0.0
  0
LINE
  8
DETAIL
  6
CONTINUOUS
 62
     5
 10
-163.0
 20
-90.030088999999975
 30
0.0
 11
-287.0
 21
-90.030088999999975
 31
0.0
  0
LINE
  8
DETAIL
  6
CONTINUOUS
 62
     5
 10
-163.4999999999998
 20
-81.231050999999979
 30
0.0
 11
-286.5
 21
-81.231050999999979
 31
0.0
  0
LINE
  8
DETAIL
  6
CONTINUOUS
 62
     5
 10
-162.0
 20
-75.097076000000015
 30
0.0
 11
-288.0
 21
-75.097076000000015
 31
0.0
  0
LINE
  8
DETAIL
  6
CONTINUOUS
 62
     5
 10
-163.0
 20
-79.030088999999975
 30
0.0
 11
-287.0
 21
-79.030088999999975
 31
0.0
  0
LINE
  8
DETAIL
  6
CONTINUOUS
 62
     5
 10
-163.4999999999998
 20
-59.231050999999979
 30
0.0
 11
-286.5
 21
-59.231050999999979
 31
0.0
  0
LINE
  8
DETAIL
  6
CONTINUOUS
 62
     5
 10
-162.0
 20
-53.097076000000023
 30
0.0
 11
-288.0
 21
-53.097076000000023
 31
0.0
  0
LINE
  8
DETAIL
  6
CONTINUOUS
 62
     5
 10
-163.0
 20
-57.030088999999982
 30
0.0
 11
-287.0
 21
-57.030088999999982
 31
0.0
  0
LINE
  8
DETAIL
  6
CONTINUOUS
 62
     5
 10
-163.4999999999998
 20
-70.231050999999979
 30
0.0
 11
-286.5
 21
-70.231050999999979
 31
0.0
  0
LINE
  8
DETAIL
  6
CONTINUOUS
 62
     5
 10
-162.0
 20
-64.097076000000015
 30
0.0
 11
-288.0
 21
-64.097076000000015
 31
0.0
  0
LINE
  8
DETAIL
  6
CONTINUOUS
 62
     5
 10
-163.0
 20
-68.030088999999975
 30
0.0
 11
-287.0
 21
-68.030088999999975
 31
0.0
  0
LINE
  8
DETAIL
  6
CONTINUOUS
 62
     5
 10
-13.5
 20
-125.23105099999999
 30
0.0
 11
-136.49999999999949
 21
-125.23105099999999
 31
0.0
  0
LINE
  8
DETAIL
  6
CONTINUOUS
 62
     5
 10
-13.0
 20
-123.03008899999971
 30
0.0
 11
-137.0
 21
-123.03008899999971
 31
0.0
  0
LINE
  8
DETAIL
  6
CONTINUOUS
 62
     5
 10
-12.0
 20
-119.097076
 30
0.0
 11
-138.0
 21
-119.097076
 31
0.0
  0
LINE
  8
DETAIL
  6
CONTINUOUS
 62
     5
 10
-13.5
 20
-114.23105099999979
 30
0.0
 11
-136.49999999999949
 21
-114.23105099999979
 31
0.0
  0
LINE
  8
DETAIL
  6
CONTINUOUS
 62
     5
 10
-12.0
 20
-108.097076
 30
0.0
 11
-138.0
 21
-108.097076
 31
0.0
  0
LINE
  8
DETAIL
  6
CONTINUOUS
 62
     5
 10
-13.0
 20
-112.0300889999999
 30
0.0
 11
-137.0
 21
-112.0300889999999
 31
0.0
  0
LINE
  8
DETAIL
  6
CONTINUOUS
 62
     5
 10
-13.5
 20
-103.23105099999979
 30
0.0
 11
-136.49999999999949
 21
-103.23105099999979
 31
0.0
  0
LINE
  8
DETAIL
  6
CONTINUOUS
 62
     5
 10
-13.0
 20
-101.030089
 30
0.0
 11
-137.0
 21
-101.030089
 31
0.0
  0
LINE
  8
DETAIL
  6
CONTINUOUS
 62
     5
 10
-12.0
 20
-97.097076000000015
 30
0.0
 11
-138.0
 21
-97.097076000000015
 31
0.0
  0
LINE
  8
DETAIL
  6
CONTINUOUS
 62
     5
 10
-13.5
 20
-92.231050999999979
 30
0.0
 11
-136.49999999999949
 21
-92.231050999999979
 31
0.0
  0
LINE
  8
DETAIL
  6
CONTINUOUS
 62
     5
 10
-12.0
 20
-86.097076000000015
 30
0.0
 11
-138.0
 21
-86.097076000000015
 31
0.0
  0
LINE
  8
DETAIL
  6
CONTINUOUS
 62
     5
 10
-13.0
 20
-90.030088999999975
 30
0.0
 11
-137.0
 21
-90.030088999999975
 31
0.0
  0
LINE
  8
DETAIL
  6
CONTINUOUS
 62
     5
 10
-13.5
 20
-81.231050999999979
 30
0.0
 11
-136.49999999999949
 21
-81.231050999999979
 31
0.0
  0
LINE
  8
DETAIL
  6
CONTINUOUS
 62
     5
 10
-12.0
 20
-75.097076000000015
 30
0.0
 11
-138.0
 21
-75.097076000000015
 31
0.0
  0
LINE
  8
DETAIL
  6
CONTINUOUS
 62
     5
 10
-13.0
 20
-79.030088999999975
 30
0.0
 11
-137.0
 21
-79.030088999999975
 31
0.0
  0
LINE
  8
DETAIL
  6
CONTINUOUS
 62
     5
 10
-13.5
 20
-59.231050999999979
 30
0.0
 11
-136.49999999999949
 21
-59.231050999999979
 31
0.0
  0
LINE
  8
DETAIL
  6
CONTINUOUS
 62
     5
 10
-12.0
 20
-53.097076000000023
 30
0.0
 11
-138.0
 21
-53.097076000000023
 31
0.0
  0
LINE
  8
DETAIL
  6
CONTINUOUS
 62
     5
 10
-13.0
 20
-57.030088999999982
 30
0.0
 11
-137.0
 21
-57.030088999999982
 31
0.0
  0
LINE
  8
DETAIL
  6
CONTINUOUS
 62
     5
 10
-13.5
 20
-70.231050999999979
 30
0.0
 11
-136.49999999999949
 21
-70.231050999999979
 31
0.0
  0
LINE
  8
DETAIL
  6
CONTINUOUS
 62
     5
 10
-12.0
 20
-64.097076000000015
 30
0.0
 11
-138.0
 21
-64.097076000000015
 31
0.0
  0
LINE
  8
DETAIL
  6
CONTINUOUS
 62
     5
 10
-13.0
 20
-68.030088999999975
 30
0.0
 11
-137.0
 21
-68.030088999999975
 31
0.0
  0
ARC
  8
DETAIL
  6
CONTINUOUS
 62
     5
 10
-13.0
 20
-87.030088999999975
 30
0.0
 40
3.0
 50
270.0
 51
0.0
  0
LINE
  8
DETAIL
  6
CONTINUOUS
 62
     5
 10
-10.0
 20
-88.731050999999979
 30
0.0
 11
-10.0
 21
-85.231050999999979
 31
0.0
  0
ARC
  8
DETAIL
  6
CONTINUOUS
 62
     5
 10
-13.5
 20
-88.731050999999979
 30
0.0
 40
3.5
 50
270.0
 51
0.0
  0
ARC
  8
DETAIL
  6
CONTINUOUS
 62
     5
 10
-13.0
 20
-98.030088999999975
 30
0.0
 40
3.0
 50
270.0
 51
0.0
  0
LINE
  8
DETAIL
  6
CONTINUOUS
 62
     5
 10
-10.0
 20
-99.731050999999979
 30
0.0
 11
-10.0
 21
-96.231050999999979
 31
0.0
  0
ARC
  8
DETAIL
  6
CONTINUOUS
 62
     5
 10
-13.5
 20
-99.731050999999979
 30
0.0
 40
3.5
 50
270.0
 51
0.0
  0
ARC
  8
DETAIL
  6
CONTINUOUS
 62
     5
 10
-13.5
 20
-110.73105099999999
 30
0.0
 40
3.5
 50
270.0
 51
0.0
  0
ARC
  8
DETAIL
  6
CONTINUOUS
 62
     5
 10
-13.5
 20
-121.73105099999979
 30
0.0
 40
3.5
 50
270.0
 51
0.0
  0
LINE
  8
DETAIL
  6
CONTINUOUS
 62
     5
 10
-10.0
 20
-121.73105099999979
 30
0.0
 11
-10.0
 21
-118.23105099999979
 31
0.0
  0
ARC
  8
DETAIL
  6
CONTINUOUS
 62
     5
 10
-13.0
 20
-120.0300889999999
 30
0.0
 40
3.0
 50
270.0
 51
0.0
  0
ARC
  8
DETAIL
  6
CONTINUOUS
 62
     5
 10
-13.0
 20
-109.0300889999999
 30
0.0
 40
3.0
 50
270.0
 51
0.0
  0
LINE
  8
DETAIL
  6
CONTINUOUS
 62
     5
 10
-10.0
 20
-110.73105099999999
 30
0.0
 11
-10.0
 21
-107.23105099999979
 31
0.0
  0
ARC
  8
DETAIL
  6
CONTINUOUS
 62
     5
 10
-13.0
 20
-76.030088999999975
 30
0.0
 40
3.0
 50
270.0
 51
0.0
  0
LINE
  8
DETAIL
  6
CONTINUOUS
 62
     5
 10
-10.0
 20
-77.731050999999979
 30
0.0
 11
-10.0
 21
-74.231050999999979
 31
0.0
  0
ARC
  8
DETAIL
  6
CONTINUOUS
 62
     5
 10
-13.5
 20
-77.731050999999979
 30
0.0
 40
3.5
 50
270.0
 51
0.0
  0
ARC
  8
DETAIL
  6
CONTINUOUS
 62
     5
 10
-13.0
 20
-54.030088999999982
 30
0.0
 40
3.0
 50
270.0
 51
0.0
  0
LINE
  8
DETAIL
  6
CONTINUOUS
 62
     5
 10
-10.0
 20
-55.731050999999979
 30
0.0
 11
-10.0
 21
-52.231050999999979
 31
0.0
  0
ARC
  8
DETAIL
  6
CONTINUOUS
 62
     5
 10
-13.5
 20
-55.731050999999979
 30
0.0
 40
3.5
 50
270.0
 51
0.0
  0
ARC
  8
DETAIL
  6
CONTINUOUS
 62
     5
 10
-13.0
 20
-65.030088999999975
 30
0.0
 40
3.0
 50
270.0
 51
0.0
  0
LINE
  8
DETAIL
  6
CONTINUOUS
 62
     5
 10
-10.0
 20
-66.731050999999979
 30
0.0
 11
-10.0
 21
-63.231050999999979
 31
0.0
  0
ARC
  8
DETAIL
  6
CONTINUOUS
 62
     5
 10
-13.5
 20
-66.731050999999979
 30
0.0
 40
3.5
 50
270.0
 51
0.0
  0
ARC
  8
DETAIL
  6
CONTINUOUS
 62
     5
 10
-163.4999999999998
 20
-99.731050999999979
 30
0.0
 40
3.5
 50
270.0
 51
0.0
  0
LINE
  8
DETAIL
  6
CONTINUOUS
 62
     5
 10
-160.0
 20
-99.731050999999979
 30
0.0
 11
-160.0
 21
-96.231050999999979
 31
0.0
  0
ARC
  8
DETAIL
  6
CONTINUOUS
 62
     5
 10
-163.0
 20
-98.030088999999975
 30
0.0
 40
3.0
 50
270.0
 51
0.0
  0
LINE
  8
DETAIL
  6
CONTINUOUS
 62
     5
 10
-160.0
 20
-88.731050999999979
 30
0.0
 11
-160.0
 21
-85.231050999999979
 31
0.0
  0
ARC
  8
DETAIL
  6
CONTINUOUS
 62
     5
 10
-163.4999999999998
 20
-88.731050999999979
 30
0.0
 40
3.5
 50
270.0
 51
0.0
  0
ARC
  8
DETAIL
  6
CONTINUOUS
 62
     5
 10
-163.0
 20
-87.030088999999975
 30
0.0
 40
3.0
 50
270.0
 51
0.0
  0
ARC
  8
DETAIL
  6
CONTINUOUS
 62
     5
 10
-136.49999999999949
 20
-99.731050999999979
 30
0.0
 40
3.5
 50
180.0
 51
270.0
  0
LINE
  8
DETAIL
  6
CONTINUOUS
 62
     5
 10
-140.0
 20
-99.731050999999979
 30
0.0
 11
-140.0
 21
-96.231050999999979
 31
0.0
  0
ARC
  8
DETAIL
  6
CONTINUOUS
 62
     5
 10
-137.0
 20
-98.030088999999975
 30
0.0
 40
3.0
 50
180.0
 51
270.0
  0
ARC
  8
DETAIL
  6
CONTINUOUS
 62
     5
 10
-136.49999999999949
 20
-88.731050999999979
 30
0.0
 40
3.5
 50
180.0
 51
270.0
  0
LINE
  8
DETAIL
  6
CONTINUOUS
 62
     5
 10
-140.0
 20
-88.731050999999979
 30
0.0
 11
-140.0
 21
-85.231050999999979
 31
0.0
  0
ARC
  8
DETAIL
  6
CONTINUOUS
 62
     5
 10
-137.0
 20
-87.030088999999975
 30
0.0
 40
3.0
 50
180.0
 51
270.0
  0
ARC
  8
DETAIL
  6
CONTINUOUS
 62
     5
 10
-163.0
 20
-120.0300889999999
 30
0.0
 40
3.0
 50
270.0
 51
0.0
  0
ARC
  8
DETAIL
  6
CONTINUOUS
 62
     5
 10
-163.4999999999998
 20
-121.73105099999979
 30
0.0
 40
3.5
 50
270.0
 51
0.0
  0
LINE
  8
DETAIL
  6
CONTINUOUS
 62
     5
 10
-160.0
 20
-121.73105099999979
 30
0.0
 11
-160.0
 21
-118.23105099999979
 31
0.0
  0
ARC
  8
DETAIL
  6
CONTINUOUS
 62
     5
 10
-163.4999999999998
 20
-110.73105099999999
 30
0.0
 40
3.5
 50
270.0
 51
0.0
  0
ARC
  8
DETAIL
  6
CONTINUOUS
 62
     5
 10
-137.0
 20
-120.0300889999999
 30
0.0
 40
3.0
 50
180.0
 51
270.0
  0
LINE
  8
DETAIL
  6
CONTINUOUS
 62
     5
 10
-140.0
 20
-121.73105099999979
 30
0.0
 11
-140.0
 21
-118.23105099999979
 31
0.0
  0
ARC
  8
DETAIL
  6
CONTINUOUS
 62
     5
 10
-136.49999999999949
 20
-121.73105099999979
 30
0.0
 40
3.5
 50
180.0
 51
270.0
  0
ARC
  8
DETAIL
  6
CONTINUOUS
 62
     5
 10
-136.49999999999949
 20
-110.73105099999999
 30
0.0
 40
3.5
 50
180.0
 51
270.0
  0
LINE
  8
DETAIL
  6
CONTINUOUS
 62
     5
 10
-160.0
 20
-110.73105099999999
 30
0.0
 11
-160.0
 21
-107.23105099999979
 31
0.0
  0
ARC
  8
DETAIL
  6
CONTINUOUS
 62
     5
 10
-163.0
 20
-109.0300889999999
 30
0.0
 40
3.0
 50
270.0
 51
0.0
  0
LINE
  8
DETAIL
  6
CONTINUOUS
 62
     5
 10
-140.0
 20
-110.73105099999999
 30
0.0
 11
-140.0
 21
-107.23105099999979
 31
0.0
  0
ARC
  8
DETAIL
  6
CONTINUOUS
 62
     5
 10
-137.0
 20
-109.0300889999999
 30
0.0
 40
3.0
 50
180.0
 51
270.0
  0
LINE
  8
DETAIL
  6
CONTINUOUS
 62
     5
 10
-160.0
 20
-77.731050999999979
 30
0.0
 11
-160.0
 21
-74.231050999999979
 31
0.0
  0
ARC
  8
DETAIL
  6
CONTINUOUS
 62
     5
 10
-163.4999999999998
 20
-77.731050999999979
 30
0.0
 40
3.5
 50
270.0
 51
0.0
  0
ARC
  8
DETAIL
  6
CONTINUOUS
 62
     5
 10
-163.0
 20
-76.030088999999975
 30
0.0
 40
3.0
 50
270.0
 51
0.0
  0
ARC
  8
DETAIL
  6
CONTINUOUS
 62
     5
 10
-136.49999999999949
 20
-77.731050999999979
 30
0.0
 40
3.5
 50
180.0
 51
270.0
  0
LINE
  8
DETAIL
  6
CONTINUOUS
 62
     5
 10
-140.0
 20
-77.731050999999979
 30
0.0
 11
-140.0
 21
-74.231050999999979
 31
0.0
  0
ARC
  8
DETAIL
  6
CONTINUOUS
 62
     5
 10
-137.0
 20
-76.030088999999975
 30
0.0
 40
3.0
 50
180.0
 51
270.0
  0
LINE
  8
DETAIL
  6
CONTINUOUS
 62
     5
 10
-160.0
 20
-55.731050999999979
 30
0.0
 11
-160.0
 21
-52.231050999999979
 31
0.0
  0
ARC
  8
DETAIL
  6
CONTINUOUS
 62
     5
 10
-163.4999999999998
 20
-55.731050999999979
 30
0.0
 40
3.5
 50
270.0
 51
0.0
  0
ARC
  8
DETAIL
  6
CONTINUOUS
 62
     5
 10
-163.0
 20
-54.030088999999982
 30
0.0
 40
3.0
 50
270.0
 51
0.0
  0
LINE
  8
DETAIL
  6
CONTINUOUS
 62
     5
 10
-160.0
 20
-66.731050999999979
 30
0.0
 11
-160.0
 21
-63.231050999999979
 31
0.0
  0
ARC
  8
DETAIL
  6
CONTINUOUS
 62
     5
 10
-163.4999999999998
 20
-66.731050999999979
 30
0.0
 40
3.5
 50
270.0
 51
0.0
  0
ARC
  8
DETAIL
  6
CONTINUOUS
 62
     5
 10
-163.0
 20
-65.030088999999975
 30
0.0
 40
3.0
 50
270.0
 51
0.0
  0
ARC
  8
DETAIL
  6
CONTINUOUS
 62
     5
 10
-136.49999999999949
 20
-66.731050999999979
 30
0.0
 40
3.5
 50
180.0
 51
270.0
  0
LINE
  8
DETAIL
  6
CONTINUOUS
 62
     5
 10
-140.0
 20
-66.731050999999979
 30
0.0
 11
-140.0
 21
-63.231050999999979
 31
0.0
  0
ARC
  8
DETAIL
  6
CONTINUOUS
 62
     5
 10
-137.0
 20
-65.030088999999975
 30
0.0
 40
3.0
 50
180.0
 51
270.0
  0
ARC
  8
DETAIL
  6
CONTINUOUS
 62
     5
 10
-136.49999999999949
 20
-55.731050999999979
 30
0.0
 40
3.5
 50
180.0
 51
270.0
  0
LINE
  8
DETAIL
  6
CONTINUOUS
 62
     5
 10
-140.0
 20
-55.731050999999979
 30
0.0
 11
-140.0
 21
-52.231050999999979
 31
0.0
  0
ARC
  8
DETAIL
  6
CONTINUOUS
 62
     5
 10
-137.0
 20
-54.030088999999982
 30
0.0
 40
3.0
 50
180.0
 51
270.0
  0
ARC
  8
DETAIL
  6
CONTINUOUS
 62
     5
 10
-286.5
 20
-99.731050999999979
 30
0.0
 40
3.5
 50
180.0
 51
270.0
  0
ARC
  8
DETAIL
  6
CONTINUOUS
 62
     5
 10
-287.0
 20
-98.030088999999975
 30
0.0
 40
3.0
 50
180.0
 51
270.0
  0
ARC
  8
DETAIL
  6
CONTINUOUS
 62
     5
 10
-286.5
 20
-88.731050999999979
 30
0.0
 40
3.5
 50
180.0
 51
270.0
  0
ARC
  8
DETAIL
  6
CONTINUOUS
 62
     5
 10
-287.0
 20
-87.030088999999975
 30
0.0
 40
3.0
 50
180.0
 51
270.0
  0
ARC
  8
DETAIL
  6
CONTINUOUS
 62
     5
 10
-287.0
 20
-120.0300889999999
 30
0.0
 40
3.0
 50
180.0
 51
270.0
  0
ARC
  8
DETAIL
  6
CONTINUOUS
 62
     5
 10
-286.5
 20
-121.73105099999979
 30
0.0
 40
3.5
 50
180.0
 51
270.0
  0
ARC
  8
DETAIL
  6
CONTINUOUS
 62
     5
 10
-286.5
 20
-110.73105099999999
 30
0.0
 40
3.5
 50
180.0
 51
270.0
  0
ARC
  8
DETAIL
  6
CONTINUOUS
 62
     5
 10
-287.0
 20
-109.0300889999999
 30
0.0
 40
3.0
 50
180.0
 51
270.0
  0
LINE
  8
DETAIL
  6
CONTINUOUS
 62
     5
 10
-290.0
 20
-99.731050999999979
 30
0.0
 11
-290.0
 21
-96.231050999999979
 31
0.0
  0
LINE
  8
DETAIL
  6
CONTINUOUS
 62
     5
 10
-290.0
 20
-88.731050999999979
 30
0.0
 11
-290.0
 21
-85.231050999999979
 31
0.0
  0
LINE
  8
DETAIL
  6
CONTINUOUS
 62
     5
 10
-290.0
 20
-121.73105099999979
 30
0.0
 11
-290.0
 21
-118.23105099999979
 31
0.0
  0
LINE
  8
DETAIL
  6
CONTINUOUS
 62
     5
 10
-290.0
 20
-110.73105099999999
 30
0.0
 11
-290.0
 21
-107.23105099999979
 31
0.0
  0
ARC
  8
DETAIL
  6
CONTINUOUS
 62
     5
 10
-286.5
 20
-77.731050999999979
 30
0.0
 40
3.5
 50
180.0
 51
270.0
  0
ARC
  8
DETAIL
  6
CONTINUOUS
 62
     5
 10
-287.0
 20
-76.030088999999975
 30
0.0
 40
3.0
 50
180.0
 51
270.0
  0
ARC
  8
DETAIL
  6
CONTINUOUS
 62
     5
 10
-286.5
 20
-66.731050999999979
 30
0.0
 40
3.5
 50
180.0
 51
270.0
  0
ARC
  8
DETAIL
  6
CONTINUOUS
 62
     5
 10
-287.0
 20
-65.030088999999975
 30
0.0
 40
3.0
 50
180.0
 51
270.0
  0
ARC
  8
DETAIL
  6
CONTINUOUS
 62
     5
 10
-286.5
 20
-55.731050999999979
 30
0.0
 40
3.5
 50
180.0
 51
270.0
  0
ARC
  8
DETAIL
  6
CONTINUOUS
 62
     5
 10
-287.0
 20
-54.030088999999982
 30
0.0
 40
3.0
 50
180.0
 51
270.0
  0
LINE
  8
DETAIL
  6
CONTINUOUS
 62
     5
 10
-290.0
 20
-77.731050999999979
 30
0.0
 11
-290.0
 21
-74.231050999999979
 31
0.0
  0
LINE
  8
DETAIL
  6
CONTINUOUS
 62
     5
 10
-290.0
 20
-66.731050999999979
 30
0.0
 11
-290.0
 21
-63.231050999999979
 31
0.0
  0
LINE
  8
DETAIL
  6
CONTINUOUS
 62
     5
 10
-290.0
 20
-55.731050999999979
 30
0.0
 11
-290.0
 21
-52.231050999999979
 31
0.0
  0
TEXT
  8
ETC
  6
CONTINUOUS
 62
    61
 10
554.70553363076306
 20
657.39836401959656
 30
0.0
 40
64.0
  1
V-754KQE9_2
 41
0.9
  0
TEXT
  8
ETC
  6
CONTINUOUS
 62
    61
 10
550.48356663076311
 20
560.9075370195967
 30
0.0
 40
64.0
  1
換気扇
 41
0.9
  0
TEXT
  8
ETC
  6
CONTINUOUS
 62
    61
 10
694.80030724920016
 20
473.7853091396837
 30
0.0
 40
50.0
  1
V-754KQE9
 41
0.9
  0
LINE
  8
OUTLINE
  6
CONTINUOUS
 62
     3
 10
-375.0
 20
0.0
 30
0.0
 11
-74.0
 21
0.0
 31
0.0
  0
LINE
  8
OUTLINE
  6
CONTINUOUS
 62
     3
 10
74.0
 20
0.0
 30
0.0
 11
375.0
 21
0.0
 31
0.0
  0
LINE
  8
OUTLINE
  6
CONTINUOUS
 62
     3
 10
74.0
 20
0.0
 30
0.0
 11
74.0
 21
37.0
 31
0.0
  0
LINE
  8
OUTLINE
  6
CONTINUOUS
 62
     3
 10
-74.0
 20
0.0
 30
0.0
 11
-74.0
 21
37.0
 31
0.0
  0
LINE
  8
OUTLINE
  6
CONTINUOUS
 62
     3
 10
74.0
 20
37.0
 30
0.0
 11
-74.0
 21
37.0
 31
0.0
  0
ENDSEC
  0
EOF
