  0
SECTION
  2
HEADER
  9
$ACADVER
  1
AC1009
  9
$DWGCODEPAGE
  3
dos932
  9
$INSBASE
 10
0.0
 20
0.0
 30
0.0
  9
$EXTMIN
 10
-1376.7791591197949
 20
-1149.3987928254051
 30
-0.0015258207003583
  9
$EXTMAX
 10
1243.995678324713
 20
908.75244979834133
 30
0.0000000349246037
  9
$LIMMIN
 10
-2970.0
 20
-2100.0
  9
$LIMMAX
 10
2970.0
 20
2100.0
  9
$ORTHOMODE
 70
     1
  9
$REGENMODE
 70
     1
  9
$FILLMODE
 70
     1
  9
$QTEXTMODE
 70
     0
  9
$MIRRTEXT
 70
     0
  9
$LTSCALE
 40
20.0
  9
$ATTMODE
 70
     1
  9
$TEXTSIZE
 40
64.0
  9
$TRACEWID
 40
0.05
  9
$TEXTSTYLE
  7
STANDARD
  9
$CLAYER
  8
SIZE
  9
$CELTYPE
  6
CONTINUOUS
  9
$CECOLOR
 62
     7
  9
$DIMSCALE
 40
1.0
  9
$DIMASZ
 40
12.0
  9
$DIMEXO
 40
20.0
  9
$DIMDLI
 40
200.0
  9
$DIMRND
 40
0.0
  9
$DIMDLE
 40
0.0
  9
$DIMEXE
 40
20.0
  9
$DIMTP
 40
0.0
  9
$DIMTM
 40
0.0
  9
$DIMTXT
 40
64.0
  9
$DIMCEN
 40
0.09
  9
$DIMTSZ
 40
0.0
  9
$DIMTOL
 70
     0
  9
$DIMLIM
 70
     0
  9
$DIMTIH
 70
     0
  9
$DIMTOH
 70
     0
  9
$DIMSE1
 70
     0
  9
$DIMSE2
 70
     0
  9
$DIMTAD
 70
     1
  9
$DIMZIN
 70
     8
  9
$DIMBLK
  1

  9
$DIMASO
 70
     1
  9
$DIMSHO
 70
     0
  9
$DIMPOST
  1

  9
$DIMAPOST
  1

  9
$DIMALT
 70
     0
  9
$DIMALTD
 70
     2
  9
$DIMALTF
 40
25.399999999999999
  9
$DIMLFAC
 40
1.0
  9
$DIMTOFL
 70
     1
  9
$DIMTVP
 40
0.0
  9
$DIMTIX
 70
     1
  9
$DIMSOXD
 70
     0
  9
$DIMSAH
 70
     0
  9
$DIMBLK1
  1

  9
$DIMBLK2
  1

  9
$DIMSTYLE
  2
STANDARD
  9
$DIMCLRD
 70
     7
  9
$DIMCLRE
 70
     7
  9
$DIMCLRT
 70
     7
  9
$DIMTFAC
 40
1.0
  9
$DIMGAP
 40
25.0
  9
$LUNITS
 70
     2
  9
$LUPREC
 70
     4
  9
$SKETCHINC
 40
0.1
  9
$FILLETRAD
 40
3.0
  9
$AUNITS
 70
     1
  9
$AUPREC
 70
     3
  9
$MENU
  1
ACAD
  9
$ELEVATION
 40
0.0
  9
$PELEVATION
 40
0.0
  9
$THICKNESS
 40
0.0
  9
$LIMCHECK
 70
     0
  9
$CHAMFERA
 40
0.0
  9
$CHAMFERB
 40
0.0
  9
$SKPOLY
 70
     0
  9
$TDCREATE
 40
2453019.62301037
  9
$TDUPDATE
 40
2459025.593624167
  9
$TDINDWG
 40
1.7363122801
  9
$TDUSRTIMER
 40
1.7363122801
  9
$USRTIMER
 70
     1
  9
$ANGBASE
 50
0.0
  9
$ANGDIR
 70
     0
  9
$PDMODE
 70
     3
  9
$PDSIZE
 40
-2.0
  9
$PLINEWID
 40
0.0
  9
$SPLFRAME
 70
     0
  9
$SPLINETYPE
 70
     6
  9
$SPLINESEGS
 70
     8
  9
$SURFTAB1
 70
     6
  9
$SURFTAB2
 70
     6
  9
$SURFTYPE
 70
     6
  9
$SURFU
 70
     6
  9
$SURFV
 70
     6
  9
$UCSNAME
  2

  9
$UCSORG
 10
0.0
 20
0.0
 30
0.0
  9
$UCSXDIR
 10
1.0
 20
0.0
 30
0.0
  9
$UCSYDIR
 10
0.0
 20
1.0
 30
0.0
  9
$PUCSNAME
  2

  9
$PUCSORG
 10
0.0
 20
0.0
 30
0.0
  9
$PUCSXDIR
 10
1.0
 20
0.0
 30
0.0
  9
$PUCSYDIR
 10
0.0
 20
1.0
 30
0.0
  9
$USERI1
 70
     0
  9
$USERI2
 70
     0
  9
$USERI3
 70
     0
  9
$USERI4
 70
     0
  9
$USERI5
 70
     0
  9
$USERR1
 40
20.0
  9
$USERR2
 40
0.0
  9
$USERR3
 40
0.0
  9
$USERR4
 40
0.0
  9
$USERR5
 40
0.0
  9
$WORLDVIEW
 70
     1
  9
$SHADEDGE
 70
     3
  9
$SHADEDIF
 70
    70
  9
$TILEMODE
 70
     1
  9
$MAXACTVP
 70
    48
  9
$PINSBASE
 10
0.0
 20
0.0
 30
0.0
  9
$PLIMCHECK
 70
     0
  9
$PEXTMIN
 10
-100000000000000000000.0
 20
-100000000000000000000.0
 30
-100000000000000000000.0
  9
$PEXTMAX
 10
100000000000000000000.0
 20
100000000000000000000.0
 30
100000000000000000000.0
  9
$PLIMMIN
 10
0.0
 20
0.0
  9
$PLIMMAX
 10
12.0
 20
9.0
  9
$UNITMODE
 70
     0
  9
$VISRETAIN
 70
     0
  9
$PLINEGEN
 70
     0
  9
$PSLTSCALE
 70
     0
  9
$TREEDEPTH
 70
  3020
  9
$ATTDIA
 70
     0
  9
$ATTREQ
 70
     1
  9
$BLIPMODE
 70
     1
  9
$COORDS
 70
     1
  9
$DRAGMODE
 70
     2
  9
$OSMODE
 70
     0
  9
$HANDLING
 70
     0
  9
$HANDSEED
  5
F6FC
  0
ENDSEC
  0
SECTION
  2
TABLES
  0
TABLE
  2
LTYPE
 70
     5
  0
LTYPE
  2
CONTINUOUS
 70
     0
  3
実線
 72
    65
 73
     0
 40
0.0
  0
LTYPE
  2
DASHDOT
 70
     0
  3
____ _ ____ _ ____ _ ____ _ ____ _ ____ _ ____
 72
    65
 73
     4
 40
5.5
 49
4.0
 49
-0.6
 49
0.3
 49
-0.6
  0
LTYPE
  2
DASHED
 70
     0
  3
-- -- -- -- -- -- -- -- -- -- -- -- -- -- --
 72
    65
 73
     2
 40
0.75
 49
0.5
 49
-0.25
  0
LTYPE
  2
CONTINOUS
 70
     0
  3
Solid line
 72
    65
 73
     0
 40
0.0
  0
LTYPE
  2
PHANTOM
 70
     0
  3
Phantom ______  __  __  ______  __  __  ______
 72
    65
 73
     6
 40
2.5
 49
1.25
 49
-0.25
 49
0.25
 49
-0.25
 49
0.25
 49
-0.25
  0
ENDTAB
  0
TABLE
  2
LAYER
 70
    12
  0
LAYER
  2
0
 70
     0
 62
     7
  6
CONTINUOUS
  0
LAYER
  2
BASIS
 70
     0
 62
     6
  6
DASHDOT
  0
LAYER
  2
OUTLINE
 70
     0
 62
     3
  6
CONTINUOUS
  0
LAYER
  2
DETAIL
 70
     0
 62
     5
  6
CONTINUOUS
  0
LAYER
  2
SIZE
 70
     0
 62
    30
  6
CONTINUOUS
  0
LAYER
  2
ARRANGE
 70
     0
 62
     1
  6
CONTINUOUS
  0
LAYER
  2
ETC
 70
     0
 62
    61
  6
CONTINUOUS
  0
LAYER
  2
FIX
 70
     0
 62
    11
  6
CONTINUOUS
  0
LAYER
  2
NOTE
 70
     0
 62
     4
  6
CONTINUOUS
  0
LAYER
  2
DEFPOINTS
 70
    64
 62
     7
  6
CONTINUOUS
  0
LAYER
  2
SERVICESPACE
 70
    64
 62
     2
  6
DASHDOT
  0
LAYER
  2
SYMBOLLINE
 70
    64
 62
    15
  6
CONTINUOUS
  0
ENDTAB
  0
TABLE
  2
STYLE
 70
     1
  0
STYLE
  2
STANDARD
 70
     0
 40
64.0
 41
0.9
 50
0.0
 71
     0
 42
64.0
  3
SIMPLEX.shx
  4
BIGFONT.shx
  0
ENDTAB
  0
TABLE
  2
APPID
 70
    19
  0
APPID
  2
ACAD
 70
     0
  0
APPID
  2
AUTOCAD_POSTSCRIPT_FIGURE
 70
     0
  0
APPID
  2
ACAD_EXEMPT_FROM_CAD_STANDARDS
 70
     0
  0
APPID
  2
ACAD_PSEXT
 70
     0
  0
APPID
  2
ACAUTHENVIRON
 70
     0
  0
APPID
  2
GENIUS_GENOENT_13
 70
     0
  0
APPID
  2
GENIUS_GENCFG_13
 70
     0
  0
APPID
  2
GENIUS_GENCFG0_13
 70
     0
  0
APPID
  2
GENIUS_GENCFG1_13
 70
     0
  0
APPID
  2
GENIUS_GENCFG2_13
 70
     0
  0
APPID
  2
GENIUS_GENCFG3_13
 70
     0
  0
APPID
  2
GENIUS_GENCFG4_13
 70
     0
  0
APPID
  2
GENIUS_GEVCFG0_13
 70
     0
  0
APPID
  2
CONTENTBLOCKICON
 70
     0
  0
APPID
  2
CONTENTBLOCKDESCRIPTION
 70
     0
  0
APPID
  2
ACAD_NAV_VCDISPLAY
 70
     0
  0
APPID
  2
ACAD_MLEADERVER
 70
     0
  0
APPID
  2
ACDBDYNAMICBLOCKTRUENAME
 70
     0
  0
APPID
  2
ACDBDYNAMICBLOCKGUID
 70
     0
  0
ENDTAB
  0
TABLE
  2
DIMSTYLE
 70
     1
  0
DIMSTYLE
  2
STANDARD
 70
     0
  3

  4

  5
_ORIGIN
  6

  7

 40
1.0
 41
12.0
 42
20.0
 43
200.0
 44
20.0
 45
0.0
 46
0.0
 47
0.0
 48
0.0
140
64.0
141
0.09
142
0.0
143
25.399999999999999
144
1.0
145
0.0
146
1.0
147
25.0
 71
     0
 72
     0
 73
     0
 74
     0
 75
     0
 76
     0
 77
     1
 78
     8
170
     0
171
     2
172
     1
173
     0
174
     1
175
     0
176
     7
177
     7
178
     7
  0
ENDTAB
  0
TABLE
  2
VIEW
 70
     1
  0
VIEW
  2
ALL
 70
     0
 40
4282.6198079999986
 10
0.0
 20
41.309904000000003
 41
5940.0
 11
0.0
 21
0.0
 31
1.0
 12
0.0
 22
0.0
 32
0.0
 42
50.0
 43
0.0
 44
0.0
 50
0.0
 71
     0
  0
ENDTAB
  0
TABLE
  2
UCS
 70
     0
  0
ENDTAB
  0
TABLE
  2
VPORT
 70
     1
  0
VPORT
  2
*ACTIVE
 70
     0
 10
0.0
 20
0.0
 11
1.0
 21
1.0
 12
-66.391740397540957
 22
-120.32317151353161
 13
0.0
 23
0.0
 14
1.0
 24
1.0
 15
0.0
 25
0.0
 16
0.0
 26
0.0
 36
1.0
 17
0.0
 27
0.0
 37
0.0
 40
2071.7964442323009
 41
1.747787610619469
 42
50.0
 43
0.0
 44
0.0
 50
0.0
 51
0.0
 71
     0
 72
  1000
 73
     1
 74
     3
 75
     0
 76
     0
 77
     0
 78
     0
  0
ENDTAB
  0
ENDSEC
  0
SECTION
  2
BLOCKS
  0
BLOCK
  8
0
  2
_ORIGIN
 70
     0
 10
0.0
 20
0.0
 30
0.0
  3
_ORIGIN
  1
_ORIGIN
  0
CIRCLE
  8
0
  6
CONTINUOUS
 62
     7
 10
0.0
 20
0.0
 30
0.0
 40
0.5
  0
LINE
  8
0
  6
CONTINUOUS
 62
     7
 10
0.0
 20
0.0
 30
0.0
 11
-1.0
 21
0.0
 31
0.0
  0
ENDBLK
  8
0
  0
ENDSEC
  0
SECTION
  2
ENTITIES
  0
LINE
  8
NOTE
  6
CONTINUOUS
 62
     4
 10
-409.05012299999999
 20
-473.25241699999992
 30
0.0
 11
-209.0736028396193
 21
-200.0
 31
0.0
  0
LINE
  8
SIZE
  6
CONTINUOUS
 62
    30
 10
732.35662700000012
 20
-588.0
 30
0.0
 11
732.35662700000012
 21
-212.0
 31
0.0
  0
TEXT
  8
SIZE
  6
CONTINUOUS
 62
    30
 10
709.65642000000025
 20
-470.05714285714282
 30
0.0
 40
64.0
  1
400
 50
90.0
 41
0.9
 72
     1
 11
709.65642000000025
 21
-396.0
 31
0.0
  0
CIRCLE
  8
SIZE
  6
CONTINUOUS
 62
    30
 10
732.35662700000012
 20
-600.0
 30
0.0
 40
6.0
  0
LINE
  8
SIZE
  6
CONTINUOUS
 62
    30
 10
732.35662700000012
 20
-600.0
 30
0.0
 11
732.35662700000012
 21
-588.0
 31
0.0
  0
CIRCLE
  8
SIZE
  6
CONTINUOUS
 62
    30
 10
732.35662700000012
 20
-200.0
 30
0.0
 40
6.0
  0
LINE
  8
SIZE
  6
CONTINUOUS
 62
    30
 10
732.35662700000012
 20
-200.0
 30
0.0
 11
732.35662700000012
 21
-212.0
 31
0.0
  0
LINE
  8
NOTE
  6
CONTINUOUS
 62
     4
 10
-220.3758548707174
 20
-234.4602796172021
 30
0.0
 11
-209.0736028396193
 21
-200.0
 31
0.0
  0
LINE
  8
NOTE
  6
CONTINUOUS
 62
     4
 10
-209.0736028396193
 20
-200.0
 30
0.0
 11
-239.17590379672669
 21
-223.7216065425018
 31
0.0
  0
LINE
  8
NOTE
  6
CONTINUOUS
 62
     4
 10
-520.61217799999997
 20
-473.25241699999992
 30
0.0
 11
-409.05012299999999
 21
-473.25241699999992
 31
0.0
  0
TEXT
  8
NOTE
  6
CONTINUOUS
 62
     4
 10
-512.00994800000001
 20
-448.94735099999991
 30
0.0
 40
64.0
  1
EL
 41
0.9
  0
LINE
  8
BASIS
  6
DASHDOT
 62
     6
 10
-145.0
 20
80.984850000000051
 30
0.0
 11
-145.0
 21
-238.10988499999999
 31
0.0
  0
LINE
  8
DETAIL
  6
CONTINOUS
 62
     5
 10
-464.35512499999987
 20
-200.0
 30
0.0
 11
0.0
 21
-200.0
 31
0.0
  0
LINE
  8
DETAIL
  6
CONTINOUS
 62
     5
 10
0.0
 20
-600.0
 30
0.0
 11
-372.95429100000001
 21
-600.0
 31
0.0
  0
LINE
  8
DETAIL
  6
CONTINOUS
 62
     5
 10
0.0
 20
-600.0
 30
0.0
 11
0.0
 21
-200.0
 31
0.0
  0
ARC
  8
DETAIL
  6
CONTINOUS
 62
     5
 10
-381.70782400000007
 20
50.948417999999947
 30
0.0
 40
651.00727099999995
 50
248.1224359999909
 51
270.77043000000299
  0
LINE
  8
DETAIL
  6
CONTINOUS
 62
     5
 10
-646.21892800000001
 20
-459.31670100000002
 30
0.0
 11
-480.20377800000011
 21
-211.41966899999991
 31
0.0
  0
LINE
  8
DETAIL
  6
CONTINOUS
 62
     5
 10
-633.84268799999995
 20
-542.44387500000005
 30
0.0
 11
-650.0
 21
-482.14396499999998
 31
0.0
  0
ARC
  8
DETAIL
  6
CONTINOUS
 62
     5
 10
-456.93892699999992
 20
-227.0
 30
0.0
 40
28.0
 50
105.3588859999962
 51
146.1900179999991
  0
ARC
  8
DETAIL
  6
CONTINOUS
 62
     5
 10
-622.95407699999976
 20
-474.89703200000008
 30
0.0
 40
28.0
 50
146.1900179999991
 51
195.0000000000079
  0
ARC
  8
DETAIL
  6
CONTINOUS
 62
     5
 10
-618.3878739999999
 20
-538.30277000000001
 30
0.0
 40
16.0
 50
195.0000000000079
 51
248.35695200000271
  0
LINE
  8
SIZE
  6
CONTINUOUS
 62
    30
 10
-300.0
 20
0.0
 30
0.0
 11
878.16542299999992
 21
0.0
 31
0.0
  0
LINE
  8
SIZE
  6
CONTINUOUS
 62
    30
 10
20.0
 20
-600.0
 30
0.0
 11
878.16542299999992
 21
-600.0
 31
0.0
  0
LINE
  8
SIZE
  6
CONTINUOUS
 62
    30
 10
858.16542299999992
 20
-12.0
 30
0.0
 11
858.16542299999992
 21
-588.0
 31
0.0
  0
TEXT
  8
SIZE
  6
CONTINUOUS
 62
    30
 10
833.02937399999973
 20
-374.05714285714282
 30
0.0
 40
64.0
  1
600
 50
90.0
 41
0.9
 72
     1
 11
833.02937399999973
 21
-300.0
 31
0.0
  0
CIRCLE
  8
SIZE
  6
CONTINUOUS
 62
    30
 10
858.16542299999992
 20
0.0
 30
0.0
 40
6.0
  0
LINE
  8
SIZE
  6
CONTINUOUS
 62
    30
 10
858.16542299999992
 20
0.0
 30
0.0
 11
858.16542299999992
 21
-12.0
 31
0.0
  0
CIRCLE
  8
SIZE
  6
CONTINUOUS
 62
    30
 10
858.16542299999992
 20
-600.0
 30
0.0
 40
6.0
  0
LINE
  8
SIZE
  6
CONTINUOUS
 62
    30
 10
858.16542299999992
 20
-600.0
 30
0.0
 11
858.16542299999992
 21
-588.0
 31
0.0
  0
LINE
  8
DETAIL
  6
CONTINOUS
 62
     5
 10
-370.0
 20
-600.0
 30
0.0
 11
-370.0
 21
-200.0
 31
0.0
  0
LINE
  8
NOTE
  6
CONTINUOUS
 62
     4
 10
-230.0
 20
-200.0
 30
0.0
 11
-188.14720567923879
 21
-200.0
 31
0.0
  0
LINE
  8
SIZE
  6
CONTINUOUS
 62
    30
 10
-650.0
 20
-511.91519000000011
 30
0.0
 11
-650.0
 21
-1149.220738
 31
0.0
  0
LINE
  8
SIZE
  6
CONTINUOUS
 62
    30
 10
0.0
 20
-620.0
 30
0.0
 11
0.0
 21
-1149.220738
 31
0.0
  0
LINE
  8
SIZE
  6
CONTINUOUS
 62
    30
 10
-638.0
 20
-1129.220738
 30
0.0
 11
-12.0
 21
-1129.220738
 31
0.0
  0
TEXT
  8
SIZE
  6
CONTINUOUS
 62
    30
 10
-399.05714285714282
 20
-1104.220738
 30
0.0
 40
64.0
  1
650
 41
0.9
 72
     1
 11
-325.0
 21
-1104.220738
 31
0.0
  0
CIRCLE
  8
SIZE
  6
CONTINUOUS
 62
    30
 10
-650.0
 20
-1129.220738
 30
0.0
 40
6.0
  0
LINE
  8
SIZE
  6
CONTINUOUS
 62
    30
 10
-650.0
 20
-1129.220738
 30
0.0
 11
-638.0
 21
-1129.220738
 31
0.0
  0
CIRCLE
  8
SIZE
  6
CONTINUOUS
 62
    30
 10
0.0
 20
-1129.220738
 30
0.0
 40
6.0
  0
LINE
  8
SIZE
  6
CONTINUOUS
 62
    30
 10
0.0
 20
-1129.220738
 30
0.0
 11
-12.0
 21
-1129.220738
 31
0.0
  0
LINE
  8
NOTE
  6
CONTINUOUS
 62
     4
 10
0.0
 20
-515.0
 30
0.0
 11
0.0
 21
-475.0
 31
0.0
  0
LINE
  8
NOTE
  6
CONTINUOUS
 62
     4
 10
-20.0
 20
-495.0
 30
0.0
 11
20.0
 21
-495.0
 31
0.0
  0
ARC
  8
OUTLINE
  6
CONTINOUS
 62
     3
 10
-618.3878739999999
 20
-538.30277000000001
 30
0.0
 40
16.0
 50
195.0000000000079
 51
248.35695200000271
  0
ARC
  8
OUTLINE
  6
CONTINOUS
 62
     3
 10
-622.95407699999976
 20
-474.89703200000008
 30
0.0
 40
28.0
 50
146.1900179999991
 51
195.0000000000079
  0
ARC
  8
OUTLINE
  6
CONTINOUS
 62
     3
 10
-456.93892699999992
 20
-227.0
 30
0.0
 40
28.0
 50
105.3588859999962
 51
146.1900179999991
  0
LINE
  8
OUTLINE
  6
CONTINOUS
 62
     3
 10
-633.84268799999995
 20
-542.44387500000005
 30
0.0
 11
-650.0
 21
-482.14396499999998
 31
0.0
  0
LINE
  8
OUTLINE
  6
CONTINOUS
 62
     3
 10
-646.21892800000001
 20
-459.31670100000002
 30
0.0
 11
-480.20377800000011
 21
-211.41966899999991
 31
0.0
  0
ARC
  8
OUTLINE
  6
CONTINOUS
 62
     3
 10
-381.70782400000007
 20
50.948417999999947
 30
0.0
 40
651.00727099999995
 50
248.1224359999909
 51
270.77043000000299
  0
LINE
  8
OUTLINE
  6
CONTINOUS
 62
     3
 10
0.0
 20
-600.0
 30
0.0
 11
0.0
 21
-200.0
 31
0.0
  0
LINE
  8
OUTLINE
  6
CONTINOUS
 62
     3
 10
0.0
 20
-600.0
 30
0.0
 11
-372.95429100000001
 21
-600.0
 31
0.0
  0
LINE
  8
OUTLINE
  6
CONTINOUS
 62
     3
 10
-464.35512499999987
 20
-200.0
 30
0.0
 11
-440.0
 21
-200.0
 31
0.0
  0
LINE
  8
OUTLINE
  6
CONTINOUS
 62
     3
 10
-320.0
 20
-200.0
 30
0.0
 11
-236.0
 21
-200.0
 31
0.0
  0
LINE
  8
OUTLINE
  6
CONTINOUS
 62
     3
 10
-54.0
 20
-200.0
 30
0.0
 11
0.0
 21
-200.0
 31
0.0
  0
LINE
  8
NOTE
  6
CONTINUOUS
 62
     4
 10
0.0
 20
-280.0
 30
0.0
 11
0.0
 21
-240.0
 31
0.0
  0
LINE
  8
NOTE
  6
CONTINUOUS
 62
     4
 10
-20.0
 20
-260.0
 30
0.0
 11
20.0
 21
-260.0
 31
0.0
  0
CIRCLE
  8
FIX
  6
CONTINUOUS
 62
    11
 10
0.0
 20
-260.0
 30
0.0
 40
4.0
  0
CIRCLE
  8
FIX
  6
CONTINUOUS
 62
    11
 10
0.0
 20
-495.0
 30
0.0
 40
4.0
  0
TEXT
  8
NOTE
  6
CONTINUOUS
 62
     4
 10
67.211729999999989
 20
-697.59203200000002
 30
0.0
 40
64.0
  1
4-φ8
 41
0.9
  0
LINE
  8
NOTE
  6
CONTINUOUS
 62
     4
 10
310.32718199999982
 20
-729.25006599999983
 30
0.0
 11
56.525724999999973
 21
-729.25006599999983
 31
0.0
  0
LINE
  8
DETAIL
  6
CONTINOUS
 62
     5
 10
-480.0
 20
-185.0
 30
0.0
 11
-440.0
 21
-185.0
 31
0.0
  0
LINE
  8
DETAIL
  6
CONTINOUS
 62
     5
 10
-480.0
 20
0.0
 30
0.0
 11
-320.0
 21
0.0
 31
0.0
  0
LINE
  8
DETAIL
  6
CONTINOUS
 62
     5
 10
-270.0
 20
-185.0
 30
0.0
 11
-270.0
 21
-10.0
 31
0.0
  0
LINE
  8
BASIS
  6
DASHDOT
 62
     6
 10
-365.0
 20
-213.74200499999981
 30
0.0
 11
-365.0
 21
60.984850000000051
 31
0.0
  0
LINE
  8
DETAIL
  6
CONTINOUS
 62
     5
 10
-480.0
 20
-185.0
 30
0.0
 11
-480.0
 21
0.0
 31
0.0
  0
LINE
  8
DETAIL
  6
PHANTOM
 62
     5
 10
-439.0
 20
0.0
 30
0.0
 11
-439.0
 21
45.0
 31
0.0
  0
LINE
  8
DETAIL
  6
PHANTOM
 62
     5
 10
-291.0
 20
45.0
 30
0.0
 11
-439.0
 21
45.0
 31
0.0
  0
LINE
  8
DETAIL
  6
PHANTOM
 62
     5
 10
-291.0
 20
0.0
 30
0.0
 11
-291.0
 21
45.0
 31
0.0
  0
LINE
  8
DETAIL
  6
CONTINOUS
 62
     5
 10
-320.0
 20
-10.0
 30
0.0
 11
-270.0
 21
-10.0
 31
0.0
  0
LINE
  8
DETAIL
  6
CONTINOUS
 62
     5
 10
-450.0
 20
-185.0
 30
0.0
 11
-450.0
 21
0.0
 31
0.0
  0
LINE
  8
DETAIL
  6
CONTINUOUS
 62
     5
 10
-440.0
 20
-185.0
 30
0.0
 11
-440.0
 21
-200.0
 31
0.0
  0
LINE
  8
DETAIL
  6
CONTINOUS
 62
     5
 10
-320.0
 20
-200.0
 30
0.0
 11
-320.0
 21
0.0
 31
0.0
  0
LINE
  8
NOTE
  6
CONTINUOUS
 62
     4
 10
-255.0
 20
-220.0
 30
0.0
 11
-255.0
 21
-180.0
 31
0.0
  0
LINE
  8
NOTE
  6
CONTINUOUS
 62
     4
 10
-235.0
 20
-200.0
 30
0.0
 11
-275.0
 21
-200.0
 31
0.0
  0
CIRCLE
  8
FIX
  6
CONTINUOUS
 62
    11
 10
-255.0
 20
-200.0
 30
0.0
 40
12.5
  0
LINE
  8
OUTLINE
  6
CONTINOUS
 62
     3
 10
-480.0
 20
0.0
 30
0.0
 11
-320.0
 21
0.0
 31
0.0
  0
LINE
  8
OUTLINE
  6
CONTINOUS
 62
     3
 10
-480.0
 20
-185.0
 30
0.0
 11
-480.0
 21
0.0
 31
0.0
  0
LINE
  8
OUTLINE
  6
CONTINOUS
 62
     3
 10
-480.0
 20
-185.0
 30
0.0
 11
-440.0
 21
-185.0
 31
0.0
  0
LINE
  8
OUTLINE
  6
CONTINUOUS
 62
     3
 10
-440.0
 20
-185.0
 30
0.0
 11
-440.0
 21
-200.0
 31
0.0
  0
LINE
  8
OUTLINE
  6
CONTINOUS
 62
     3
 10
-320.0
 20
-200.0
 30
0.0
 11
-320.0
 21
0.0
 31
0.0
  0
LINE
  8
SIZE
  6
CONTINUOUS
 62
    30
 10
40.0
 20
-260.0
 30
0.0
 11
629.97719400000005
 21
-260.0
 31
0.0
  0
LINE
  8
SIZE
  6
CONTINUOUS
 62
    30
 10
609.97719400000005
 20
-588.0
 30
0.0
 11
609.97719400000005
 21
-272.0
 31
0.0
  0
TEXT
  8
SIZE
  6
CONTINUOUS
 62
    30
 10
584.97719400000005
 20
-504.05714285714282
 30
0.0
 40
64.0
  1
340
 50
90.0
 41
0.9
 72
     1
 11
584.97719400000005
 21
-430.0
 31
0.0
  0
CIRCLE
  8
SIZE
  6
CONTINUOUS
 62
    30
 10
609.97719400000005
 20
-600.0
 30
0.0
 40
6.0
  0
LINE
  8
SIZE
  6
CONTINUOUS
 62
    30
 10
609.97719400000005
 20
-600.0
 30
0.0
 11
609.97719400000005
 21
-588.0
 31
0.0
  0
CIRCLE
  8
SIZE
  6
CONTINUOUS
 62
    30
 10
609.97719400000005
 20
-260.0
 30
0.0
 40
6.0
  0
LINE
  8
SIZE
  6
CONTINUOUS
 62
    30
 10
609.97719400000005
 20
-260.0
 30
0.0
 11
609.97719400000005
 21
-272.0
 31
0.0
  0
LINE
  8
SIZE
  6
CONTINUOUS
 62
    30
 10
40.0
 20
-495.0
 30
0.0
 11
503.371128
 21
-495.0
 31
0.0
  0
LINE
  8
SIZE
  6
CONTINUOUS
 62
    30
 10
483.371128
 20
-588.0
 30
0.0
 11
483.371128
 21
-507.0
 31
0.0
  0
LINE
  8
SIZE
  6
CONTINUOUS
 62
    30
 10
483.371128
 20
-814.62909100000013
 30
0.0
 11
483.371128
 21
-600.0
 31
0.0
  0
TEXT
  8
SIZE
  6
CONTINUOUS
 62
    30
 10
458.371128
 20
-789.62909057142861
 30
0.0
 40
64.0
  1
105
 50
90.0
 41
0.9
 72
     1
 11
458.371128
 21
-721.05766200000005
 31
0.0
  0
CIRCLE
  8
SIZE
  6
CONTINUOUS
 62
    30
 10
483.371128
 20
-600.0
 30
0.0
 40
6.0
  0
LINE
  8
SIZE
  6
CONTINUOUS
 62
    30
 10
483.371128
 20
-600.0
 30
0.0
 11
483.371128
 21
-588.0
 31
0.0
  0
CIRCLE
  8
SIZE
  6
CONTINUOUS
 62
    30
 10
483.371128
 20
-495.0
 30
0.0
 40
6.0
  0
LINE
  8
SIZE
  6
CONTINUOUS
 62
    30
 10
483.371128
 20
-495.0
 30
0.0
 11
483.371128
 21
-507.0
 31
0.0
  0
LINE
  8
SIZE
  6
CONTINUOUS
 62
    30
 10
-145.0
 20
100.9848499999996
 30
0.0
 11
-145.0
 21
623.63629899999978
 31
0.0
  0
LINE
  8
SIZE
  6
CONTINUOUS
 62
    30
 10
-365.0
 20
80.984850000000051
 30
0.0
 11
-365.0
 21
623.63629899999978
 31
0.0
  0
LINE
  8
SIZE
  6
CONTINUOUS
 62
    30
 10
-157.0
 20
603.63629900000001
 30
0.0
 11
-353.0
 21
603.63629900000001
 31
0.0
  0
LINE
  8
SIZE
  6
CONTINUOUS
 62
    30
 10
-670.84904500000016
 20
603.63629900000001
 30
0.0
 11
-365.0
 21
603.63629900000001
 31
0.0
  0
TEXT
  8
SIZE
  6
CONTINUOUS
 62
    30
 10
-645.84904485714299
 20
628.63629900000001
 30
0.0
 40
64.0
  1
220
 41
0.9
 72
     1
 11
-571.79190200000016
 21
628.63629900000001
 31
0.0
  0
CIRCLE
  8
SIZE
  6
CONTINUOUS
 62
    30
 10
-145.0
 20
603.63629900000001
 30
0.0
 40
6.0
  0
LINE
  8
SIZE
  6
CONTINUOUS
 62
    30
 10
-145.0
 20
603.63629900000001
 30
0.0
 11
-157.0
 21
603.63629900000001
 31
0.0
  0
CIRCLE
  8
SIZE
  6
CONTINUOUS
 62
    30
 10
-365.0
 20
603.63629900000001
 30
0.0
 40
6.0
  0
LINE
  8
SIZE
  6
CONTINUOUS
 62
    30
 10
-365.0
 20
603.63629900000001
 30
0.0
 11
-353.0
 21
603.63629900000001
 31
0.0
  0
LINE
  8
SIZE
  6
CONTINUOUS
 62
    30
 10
-270.0
 20
10.0
 30
0.0
 11
-270.0
 21
715.76379799999995
 31
0.0
  0
LINE
  8
SIZE
  6
CONTINUOUS
 62
    30
 10
-12.0
 20
695.76379800000018
 30
0.0
 11
-258.0
 21
695.76379800000018
 31
0.0
  0
TEXT
  8
SIZE
  6
CONTINUOUS
 62
    30
 10
-209.05714285714279
 20
722.85356300000012
 30
0.0
 40
64.0
  1
270
 41
0.9
 72
     1
 11
-135.0
 21
722.85356300000012
 31
0.0
  0
CIRCLE
  8
SIZE
  6
CONTINUOUS
 62
    30
 10
0.0
 20
695.76379800000018
 30
0.0
 40
6.0
  0
LINE
  8
SIZE
  6
CONTINUOUS
 62
    30
 10
0.0
 20
695.76379800000018
 30
0.0
 11
-12.0
 21
695.76379800000018
 31
0.0
  0
CIRCLE
  8
SIZE
  6
CONTINUOUS
 62
    30
 10
-270.0
 20
695.76379800000018
 30
0.0
 40
6.0
  0
LINE
  8
SIZE
  6
CONTINUOUS
 62
    30
 10
-270.0
 20
695.76379800000018
 30
0.0
 11
-258.0
 21
695.76379800000018
 31
0.0
  0
LINE
  8
SIZE
  6
CONTINUOUS
 62
    30
 10
-320.0
 20
20.0
 30
0.0
 11
-320.0
 21
715.76379799999995
 31
0.0
  0
LINE
  8
SIZE
  6
CONTINUOUS
 62
    30
 10
-468.0
 20
695.76379800000018
 30
0.0
 11
-332.0
 21
695.76379800000018
 31
0.0
  0
TEXT
  8
SIZE
  6
CONTINUOUS
 62
    30
 10
-468.57142857142861
 20
722.85356300000012
 30
0.0
 40
64.0
  1
160
 41
0.9
 72
     1
 11
-400.0
 21
722.85356300000012
 31
0.0
  0
CIRCLE
  8
SIZE
  6
CONTINUOUS
 62
    30
 10
-480.0
 20
695.76379800000018
 30
0.0
 40
6.0
  0
LINE
  8
SIZE
  6
CONTINUOUS
 62
    30
 10
-480.0
 20
695.76379800000018
 30
0.0
 11
-468.0
 21
695.76379800000018
 31
0.0
  0
CIRCLE
  8
SIZE
  6
CONTINUOUS
 62
    30
 10
-320.0
 20
695.76379800000018
 30
0.0
 40
6.0
  0
LINE
  8
SIZE
  6
CONTINUOUS
 62
    30
 10
-320.0
 20
695.76379800000018
 30
0.0
 11
-332.0
 21
695.76379800000018
 31
0.0
  0
LINE
  8
SIZE
  6
CONTINUOUS
 62
    30
 10
0.0
 20
-180.0
 30
0.0
 11
0.0
 21
837.71275400000013
 31
0.0
  0
LINE
  8
SIZE
  6
CONTINUOUS
 62
    30
 10
-480.0
 20
20.0
 30
0.0
 11
-480.0
 21
837.71275400000013
 31
0.0
  0
LINE
  8
SIZE
  6
CONTINUOUS
 62
    30
 10
-12.0
 20
817.71275400000013
 30
0.0
 11
-468.0
 21
817.71275400000013
 31
0.0
  0
TEXT
  8
SIZE
  6
CONTINUOUS
 62
    30
 10
-314.05714285714282
 20
844.465733
 30
0.0
 40
64.0
  1
480
 41
0.9
 72
     1
 11
-240.0
 21
844.465733
 31
0.0
  0
CIRCLE
  8
SIZE
  6
CONTINUOUS
 62
    30
 10
0.0
 20
817.71275400000013
 30
0.0
 40
6.0
  0
LINE
  8
SIZE
  6
CONTINUOUS
 62
    30
 10
0.0
 20
817.71275400000013
 30
0.0
 11
-12.0
 21
817.71275400000013
 31
0.0
  0
CIRCLE
  8
SIZE
  6
CONTINUOUS
 62
    30
 10
-480.0
 20
817.71275400000013
 30
0.0
 40
6.0
  0
LINE
  8
SIZE
  6
CONTINUOUS
 62
    30
 10
-480.0
 20
817.71275400000013
 30
0.0
 11
-468.0
 21
817.71275400000013
 31
0.0
  0
LINE
  8
SIZE
  6
CONTINUOUS
 62
    30
 10
-2.0
 20
603.63629900000001
 30
0.0
 11
208.55576700000009
 21
603.63629900000001
 31
0.0
  0
LINE
  8
NOTE
  6
CONTINUOUS
 62
     4
 10
0.0
 20
-495.0
 30
0.0
 11
56.525724999999973
 21
-729.25006599999983
 31
0.0
  0
LINE
  8
NOTE
  6
CONTINUOUS
 62
     4
 10
20.324082000000089
 20
-529.45187499999997
 30
0.0
 11
0.0
 21
-495.0
 31
0.0
  0
LINE
  8
NOTE
  6
CONTINUOUS
 62
     4
 10
0.0
 20
-495.0
 30
0.0
 11
0.375233999999864
 21
-534.99824000000001
 31
0.0
  0
LINE
  8
NOTE
  6
CONTINUOUS
 62
     4
 10
-255.0
 20
-200.0
 30
0.0
 11
-611.65360999999984
 21
-358.65609300000011
 31
0.0
  0
LINE
  8
NOTE
  6
CONTINUOUS
 62
     4
 10
-286.5005779999999
 20
-224.651848
 30
0.0
 11
-255.0
 21
-200.0
 31
0.0
  0
LINE
  8
NOTE
  6
CONTINUOUS
 62
     4
 10
-255.0
 20
-200.0
 30
0.0
 11
-294.60622499999999
 21
-205.598837
 31
0.0
  0
TEXT
  8
NOTE
  6
CONTINUOUS
 62
     4
 10
-1049.9870339999991
 20
-330.71655099999998
 30
0.0
 40
64.0
  1
AH 2-φ25
 41
0.9
  0
LINE
  8
NOTE
  6
CONTINUOUS
 62
     4
 10
-611.65360999999984
 20
-358.65609300000011
 30
0.0
 11
-1061.9276199999999
 21
-358.65609300000011
 31
0.0
  0
LINE
  8
SIZE
  6
CONTINUOUS
 62
    30
 10
-484.35512499999987
 20
-200.0
 30
0.0
 11
-1307.555284
 21
-200.0
 31
0.0
  0
LINE
  8
SIZE
  6
CONTINUOUS
 62
    30
 10
-1287.555284
 20
-212.0
 30
0.0
 11
-1287.555284
 21
-224.0
 31
0.0
  0
LINE
  8
SIZE
  6
CONTINUOUS
 62
    30
 10
-1287.555284
 20
-173.0
 30
0.0
 11
-1287.555284
 21
-161.0
 31
0.0
  0
LINE
  8
SIZE
  6
CONTINUOUS
 62
    30
 10
-1287.555284
 20
-378.68744800000002
 30
0.0
 11
-1287.555284
 21
-200.0
 31
0.0
  0
TEXT
  8
SIZE
  6
CONTINUOUS
 62
    30
 10
-1312.555284
 20
-353.68744714285691
 30
0.0
 40
64.0
  1
15
 50
90.0
 41
0.9
 72
     1
 11
-1312.555284
 21
-312.54458999999969
 31
0.0
  0
LINE
  8
SIZE
  6
CONTINUOUS
 62
    30
 10
-1287.555284
 20
-200.0
 30
0.0
 11
-1287.555284
 21
-185.0
 31
0.0
  0
LINE
  8
SIZE
  6
CONTINUOUS
 62
    30
 10
-1287.555284
 20
-200.0
 30
0.0
 11
-1287.555284
 21
-185.0
 31
0.0
  0
CIRCLE
  8
SIZE
  6
CONTINUOUS
 62
    30
 10
-1287.555284
 20
-200.0
 30
0.0
 40
6.0
  0
LINE
  8
SIZE
  6
CONTINUOUS
 62
    30
 10
-1287.555284
 20
-200.0
 30
0.0
 11
-1287.555284
 21
-212.0
 31
0.0
  0
CIRCLE
  8
SIZE
  6
CONTINUOUS
 62
    30
 10
-1287.555284
 20
-185.0
 30
0.0
 40
6.0
  0
LINE
  8
SIZE
  6
CONTINUOUS
 62
    30
 10
-1287.555284
 20
-185.0
 30
0.0
 11
-1287.555284
 21
-173.0
 31
0.0
  0
LINE
  8
SIZE
  6
CONTINUOUS
 62
    30
 10
-500.0
 20
-185.0
 30
0.0
 11
-1307.555284
 21
-185.0
 31
0.0
  0
LINE
  8
SIZE
  6
CONTINUOUS
 62
    30
 10
-500.0
 20
0.0
 30
0.0
 11
-1307.555284
 21
0.0
 31
0.0
  0
LINE
  8
SIZE
  6
CONTINUOUS
 62
    30
 10
-1287.555284
 20
-173.0
 30
0.0
 11
-1287.555284
 21
-12.0
 31
0.0
  0
TEXT
  8
SIZE
  6
CONTINUOUS
 62
    30
 10
-1312.239601
 20
-161.07142857142861
 30
0.0
 40
64.0
  1
185
 50
90.0
 41
0.9
 72
     1
 11
-1312.239601
 21
-92.5
 31
0.0
  0
CIRCLE
  8
SIZE
  6
CONTINUOUS
 62
    30
 10
-1287.555284
 20
-185.0
 30
0.0
 40
6.0
  0
LINE
  8
SIZE
  6
CONTINUOUS
 62
    30
 10
-1287.555284
 20
-185.0
 30
0.0
 11
-1287.555284
 21
-173.0
 31
0.0
  0
CIRCLE
  8
SIZE
  6
CONTINUOUS
 62
    30
 10
-1287.555284
 20
0.0
 30
0.0
 40
6.0
  0
LINE
  8
SIZE
  6
CONTINUOUS
 62
    30
 10
-1287.555284
 20
0.0
 30
0.0
 11
-1287.555284
 21
-12.0
 31
0.0
  0
LINE
  8
SIZE
  6
CONTINUOUS
 62
    30
 10
-1148.6687910000001
 20
-188.0
 30
0.0
 11
-1148.6687910000001
 21
-22.0
 31
0.0
  0
TEXT
  8
SIZE
  6
CONTINUOUS
 62
    30
 10
-1175.4450340000001
 20
-173.57142857142861
 30
0.0
 40
64.0
  1
190
 50
90.0
 41
0.9
 72
     1
 11
-1175.4450340000001
 21
-105.0
 31
0.0
  0
CIRCLE
  8
SIZE
  6
CONTINUOUS
 62
    30
 10
-1148.6687910000001
 20
-200.0
 30
0.0
 40
6.0
  0
LINE
  8
SIZE
  6
CONTINUOUS
 62
    30
 10
-1148.6687910000001
 20
-200.0
 30
0.0
 11
-1148.6687910000001
 21
-188.0
 31
0.0
  0
CIRCLE
  8
SIZE
  6
CONTINUOUS
 62
    30
 10
-1148.6687910000001
 20
-10.0
 30
0.0
 40
6.0
  0
LINE
  8
SIZE
  6
CONTINUOUS
 62
    30
 10
-1148.6687910000001
 20
-10.0
 30
0.0
 11
-1148.6687910000001
 21
-22.0
 31
0.0
  0
LINE
  8
SIZE
  6
CONTINUOUS
 62
    30
 10
-459.0
 20
45.0
 30
0.0
 11
-1168.6687910000001
 21
45.0
 31
0.0
  0
LINE
  8
SIZE
  6
CONTINUOUS
 62
    30
 10
-1148.6687910000001
 20
-22.0
 30
0.0
 11
-1148.6687910000001
 21
-34.0
 31
0.0
  0
LINE
  8
SIZE
  6
CONTINUOUS
 62
    30
 10
-1148.6687910000001
 20
57.0
 30
0.0
 11
-1148.6687910000001
 21
69.0
 31
0.0
  0
LINE
  8
SIZE
  6
CONTINUOUS
 62
    30
 10
-1148.6687910000001
 20
220.41145800000001
 30
0.0
 11
-1148.6687910000001
 21
45.0
 31
0.0
  0
TEXT
  8
SIZE
  6
CONTINUOUS
 62
    30
 10
-1173.6687910000001
 20
102.1543145714285
 30
0.0
 40
64.0
  1
55
 50
90.0
 41
0.9
 72
     1
 11
-1173.6687910000001
 21
148.78288599999999
 31
0.0
  0
LINE
  8
SIZE
  6
CONTINUOUS
 62
    30
 10
-1148.6687910000001
 20
-10.0
 30
0.0
 11
-1148.6687910000001
 21
45.0
 31
0.0
  0
LINE
  8
SIZE
  6
CONTINUOUS
 62
    30
 10
-1148.6687910000001
 20
-10.0
 30
0.0
 11
-1148.6687910000001
 21
45.0
 31
0.0
  0
CIRCLE
  8
SIZE
  6
CONTINUOUS
 62
    30
 10
-1148.6687910000001
 20
-10.0
 30
0.0
 40
6.0
  0
LINE
  8
SIZE
  6
CONTINUOUS
 62
    30
 10
-1148.6687910000001
 20
-10.0
 30
0.0
 11
-1148.6687910000001
 21
-22.0
 31
0.0
  0
CIRCLE
  8
SIZE
  6
CONTINUOUS
 62
    30
 10
-1148.6687910000001
 20
45.0
 30
0.0
 40
6.0
  0
LINE
  8
SIZE
  6
CONTINUOUS
 62
    30
 10
-1148.6687910000001
 20
45.0
 30
0.0
 11
-1148.6687910000001
 21
57.0
 31
0.0
  0
TEXT
  8
NOTE
  6
CONTINUOUS
 62
     4
 10
-131.52639900000011
 20
392.04280599999993
 30
0.0
 40
64.0
  1
ダクト接続口可動寸法
 41
0.9
  0
POINT
  8
ARRANGE
  6
CONTINUOUS
 62
     1
 10
0.0
 20
0.0
 30
0.0
  0
CIRCLE
  8
ARRANGE
  6
CONTINUOUS
 62
     1
 10
0.0
 20
0.0
 30
0.0
 40
40.0
  0
LINE
  8
DETAIL
  6
CONTINUOUS
 62
     5
 10
-270.0
 20
-185.0
 30
0.0
 11
-291.0
 21
-200.0
 31
0.0
  0
TEXT
  8
NOTE
  6
CONTINUOUS
 62
     4
 10
-416.04554000000007
 20
69.260340999999926
 30
0.0
 40
64.0
  1
OA
 41
0.9
  0
TEXT
  8
NOTE
  6
CONTINUOUS
 62
     4
 10
-188.98231400000009
 20
57.407893000000058
 30
0.0
 40
64.0
  1
EA
 41
0.9
  0
LINE
  8
BASIS
  6
DASHDOT
 62
     6
 10
-246.44969499999999
 20
-100.0
 30
0.0
 11
-506.09789499999988
 21
-100.0
 31
0.0
  0
CIRCLE
  8
DETAIL
  6
PHANTOM
 62
     5
 10
-365.0
 20
-100.0
 30
0.0
 40
80.0
  0
LINE
  8
SIZE
  6
CONTINUOUS
 62
    30
 10
-392.95429100000001
 20
-600.0
 30
0.0
 11
-1102.426981999999
 21
-600.0
 31
0.0
  0
LINE
  8
SIZE
  6
CONTINUOUS
 62
    30
 10
-526.09789499999999
 20
-100.0
 30
0.0
 11
-1102.426981999999
 21
-100.0
 31
0.0
  0
LINE
  8
SIZE
  6
CONTINUOUS
 62
    30
 10
-1082.426982
 20
-588.0
 30
0.0
 11
-1082.426982
 21
-112.0
 31
0.0
  0
TEXT
  8
SIZE
  6
CONTINUOUS
 62
    30
 10
-1108.182992
 20
-422.05474485714268
 30
0.0
 40
64.0
  1
500
 50
90.0
 41
0.9
 72
     1
 11
-1108.182992
 21
-347.99760199999992
 31
0.0
  0
CIRCLE
  8
SIZE
  6
CONTINUOUS
 62
    30
 10
-1082.426982
 20
-600.0
 30
0.0
 40
6.0
  0
LINE
  8
SIZE
  6
CONTINUOUS
 62
    30
 10
-1082.426982
 20
-600.0
 30
0.0
 11
-1082.426982
 21
-588.0
 31
0.0
  0
CIRCLE
  8
SIZE
  6
CONTINUOUS
 62
    30
 10
-1082.426982
 20
-100.0
 30
0.0
 40
6.0
  0
LINE
  8
SIZE
  6
CONTINUOUS
 62
    30
 10
-1082.426982
 20
-100.0
 30
0.0
 11
-1082.426982
 21
-112.0
 31
0.0
  0
TEXT
  8
NOTE
  6
CONTINUOUS
 62
     4
 10
-1195.5903370000001
 20
458.3437570000001
 30
0.0
 40
64.0
  1
上部右側給気接続口
 41
0.9
  0
LINE
  8
NOTE
  6
CONTINUOUS
 62
     4
 10
-583.05680800000016
 20
430.46659799999998
 30
0.0
 11
-1201.0559559999999
 21
430.46659799999998
 31
0.0
  0
LINE
  8
SIZE
  6
CONTINUOUS
 62
    30
 10
-139.0
 20
78.529285999999956
 30
0.0
 11
-139.0
 21
494.03518899999989
 31
0.0
  0
LINE
  8
SIZE
  6
CONTINUOUS
 62
    30
 10
-151.0
 20
78.529285999999956
 30
0.0
 11
-151.0
 21
494.03518899999989
 31
0.0
  0
LINE
  8
SIZE
  6
CONTINUOUS
 62
    30
 10
-127.0
 20
474.03518899999989
 30
0.0
 11
-115.0
 21
474.03518899999989
 31
0.0
  0
LINE
  8
SIZE
  6
CONTINUOUS
 62
    30
 10
-163.0
 20
474.03518899999989
 30
0.0
 11
-175.0
 21
474.03518899999989
 31
0.0
  0
LINE
  8
SIZE
  6
CONTINUOUS
 62
    30
 10
291.30750699999999
 20
474.03518899999989
 30
0.0
 11
-139.0
 21
474.03518899999989
 31
0.0
  0
TEXT
  8
SIZE
  6
CONTINUOUS
 62
    30
 10
184.0217928571428
 20
499.03518899999989
 30
0.0
 40
64.0
  1
12
 41
0.9
 72
     1
 11
225.16464999999991
 21
499.03518899999989
 31
0.0
  0
LINE
  8
SIZE
  6
CONTINUOUS
 62
    30
 10
-139.0
 20
474.03518899999989
 30
0.0
 11
-151.0
 21
474.03518899999989
 31
0.0
  0
LINE
  8
SIZE
  6
CONTINUOUS
 62
    30
 10
-139.0
 20
474.03518899999989
 30
0.0
 11
-151.0
 21
474.03518899999989
 31
0.0
  0
CIRCLE
  8
SIZE
  6
CONTINUOUS
 62
    30
 10
-139.0
 20
474.03518899999989
 30
0.0
 40
6.0
  0
LINE
  8
SIZE
  6
CONTINUOUS
 62
    30
 10
-139.0
 20
474.03518899999989
 30
0.0
 11
-127.0
 21
474.03518899999989
 31
0.0
  0
CIRCLE
  8
SIZE
  6
CONTINUOUS
 62
    30
 10
-151.0
 20
474.03518899999989
 30
0.0
 40
6.0
  0
LINE
  8
SIZE
  6
CONTINUOUS
 62
    30
 10
-151.0
 20
474.03518899999989
 30
0.0
 11
-163.0
 21
474.03518899999989
 31
0.0
  0
LINE
  8
SIZE
  6
CONTINUOUS
 62
    30
 10
-145.0
 20
100.9848499999996
 30
0.0
 11
-145.0
 21
623.63629899999978
 31
0.0
  0
LINE
  8
SIZE
  6
CONTINUOUS
 62
    30
 10
-12.0
 20
603.63629900000001
 30
0.0
 11
-133.0
 21
603.63629900000001
 31
0.0
  0
LINE
  8
SIZE
  6
CONTINUOUS
 62
    30
 10
208.95542499999991
 20
603.63629900000001
 30
0.0
 11
0.0
 21
603.63629900000001
 31
0.0
  0
TEXT
  8
SIZE
  6
CONTINUOUS
 62
    30
 10
46.812567428571462
 20
628.63629900000001
 30
0.0
 40
64.0
  1
145
 41
0.9
 72
     1
 11
115.383996
 21
628.63629900000001
 31
0.0
  0
CIRCLE
  8
SIZE
  6
CONTINUOUS
 62
    30
 10
0.0
 20
603.63629900000001
 30
0.0
 40
6.0
  0
LINE
  8
SIZE
  6
CONTINUOUS
 62
    30
 10
0.0
 20
603.63629900000001
 30
0.0
 11
-12.0
 21
603.63629900000001
 31
0.0
  0
CIRCLE
  8
SIZE
  6
CONTINUOUS
 62
    30
 10
-145.0
 20
603.63629900000001
 30
0.0
 40
6.0
  0
LINE
  8
SIZE
  6
CONTINUOUS
 62
    30
 10
-145.0
 20
603.63629900000001
 30
0.0
 11
-133.0
 21
603.63629900000001
 31
0.0
  0
LINE
  8
NOTE
  6
CONTINUOUS
 62
     4
 10
-416.85737799999993
 20
45.0
 30
0.0
 11
-583.05680800000016
 21
430.46659799999998
 31
0.0
  0
LINE
  8
NOTE
  6
CONTINUOUS
 62
     4
 10
-442.47647699999987
 20
75.719078000000081
 30
0.0
 11
-416.85737799999993
 21
45.0
 31
0.0
  0
LINE
  8
NOTE
  6
CONTINUOUS
 62
     4
 10
-416.85737799999993
 20
45.0
 30
0.0
 11
-423.68462899999992
 21
84.41305199999988
 31
0.0
  0
LINE
  8
DETAIL
  6
CONTINUOUS
 62
     5
 10
-236.0
 20
-200.0
 30
0.0
 11
-236.0
 21
-18.0
 31
0.0
  0
LINE
  8
DETAIL
  6
CONTINUOUS
 62
     5
 10
-54.0
 20
-18.0
 30
0.0
 11
-236.0
 21
-18.0
 31
0.0
  0
LINE
  8
DETAIL
  6
CONTINUOUS
 62
     5
 10
-54.0
 20
-200.0
 30
0.0
 11
-54.0
 21
-18.0
 31
0.0
  0
LINE
  8
DETAIL
  6
CONTINUOUS
 62
     5
 10
-61.0
 20
-18.0
 30
0.0
 11
-71.0
 21
-8.0
 31
0.0
  0
LINE
  8
DETAIL
  6
CONTINUOUS
 62
     5
 10
-71.0
 20
37.0
 30
0.0
 11
-219.0
 21
37.0
 31
0.0
  0
LINE
  8
DETAIL
  6
CONTINUOUS
 62
     5
 10
-71.0
 20
-8.0
 30
0.0
 11
-219.0
 21
-8.0
 31
0.0
  0
LINE
  8
DETAIL
  6
CONTINUOUS
 62
     5
 10
-219.0
 20
-8.0
 30
0.0
 11
-219.0
 21
37.0
 31
0.0
  0
LINE
  8
DETAIL
  6
CONTINUOUS
 62
     5
 10
-71.0
 20
-8.0
 30
0.0
 11
-71.0
 21
37.0
 31
0.0
  0
LINE
  8
BASIS
  6
DASHDOT
 62
     6
 10
-139.0
 20
-219.31054700000001
 30
0.0
 11
-139.0
 21
58.529285999999964
 31
0.0
  0
LINE
  8
BASIS
  6
DASHDOT
 62
     6
 10
-151.0
 20
-219.31054700000001
 30
0.0
 11
-151.0
 21
58.529285999999964
 31
0.0
  0
LINE
  8
SIZE
  6
CONTINUOUS
 62
    30
 10
20.0
 20
-200.0
 30
0.0
 11
752.35662700000012
 21
-200.0
 31
0.0
  0
LINE
  8
SIZE
  6
CONTINUOUS
 62
    30
 10
-34.0
 20
-18.0
 30
0.0
 11
752.35662700000012
 21
-18.0
 31
0.0
  0
LINE
  8
SIZE
  6
CONTINUOUS
 62
    30
 10
732.35662700000012
 20
-212.0
 30
0.0
 11
732.35662700000012
 21
-224.0
 31
0.0
  0
LINE
  8
SIZE
  6
CONTINUOUS
 62
    30
 10
732.35662700000012
 20
-6.0
 30
0.0
 11
732.35662700000012
 21
6.0
 31
0.0
  0
LINE
  8
SIZE
  6
CONTINUOUS
 62
    30
 10
732.35662700000012
 20
-200.0
 30
0.0
 11
732.35662700000012
 21
-18.0
 31
0.0
  0
CIRCLE
  8
SIZE
  6
CONTINUOUS
 62
    30
 10
732.35662700000012
 20
-200.0
 30
0.0
 40
6.0
  0
LINE
  8
SIZE
  6
CONTINUOUS
 62
    30
 10
732.35662700000012
 20
-200.0
 30
0.0
 11
732.35662700000012
 21
-212.0
 31
0.0
  0
CIRCLE
  8
SIZE
  6
CONTINUOUS
 62
    30
 10
732.35662700000012
 20
-18.0
 30
0.0
 40
6.0
  0
LINE
  8
SIZE
  6
CONTINUOUS
 62
    30
 10
732.35662700000012
 20
-18.0
 30
0.0
 11
732.35662700000012
 21
-6.0
 31
0.0
  0
TEXT
  8
SIZE
  6
CONTINUOUS
 62
    30
 10
707.35662700000012
 20
-177.57142857142861
 30
0.0
 40
64.0
  1
182
 50
90.0
 41
0.9
 72
     1
 11
707.35662700000012
 21
-109.0
 31
0.0
  0
LINE
  8
SIZE
  6
CONTINUOUS
 62
    30
 10
-51.0
 20
37.0
 30
0.0
 11
752.35662700000012
 21
37.0
 31
0.0
  0
LINE
  8
SIZE
  6
CONTINUOUS
 62
    30
 10
732.35662700000012
 20
-30.0
 30
0.0
 11
732.35662700000012
 21
-42.0
 31
0.0
  0
LINE
  8
SIZE
  6
CONTINUOUS
 62
    30
 10
732.35662700000012
 20
49.0
 30
0.0
 11
732.35662700000012
 21
61.0
 31
0.0
  0
LINE
  8
SIZE
  6
CONTINUOUS
 62
    30
 10
732.35662700000012
 20
204.90074000000001
 30
0.0
 11
732.35662700000012
 21
37.0
 31
0.0
  0
TEXT
  8
SIZE
  6
CONTINUOUS
 62
    30
 10
707.35662700000012
 20
86.643597571428657
 30
0.0
 40
64.0
  1
55
 50
90.0
 41
0.9
 72
     1
 11
707.35662700000012
 21
133.2721690000001
 31
0.0
  0
LINE
  8
SIZE
  6
CONTINUOUS
 62
    30
 10
732.35662700000012
 20
-18.0
 30
0.0
 11
732.35662700000012
 21
37.0
 31
0.0
  0
LINE
  8
SIZE
  6
CONTINUOUS
 62
    30
 10
732.35662700000012
 20
-18.0
 30
0.0
 11
732.35662700000012
 21
37.0
 31
0.0
  0
CIRCLE
  8
SIZE
  6
CONTINUOUS
 62
    30
 10
732.35662700000012
 20
-18.0
 30
0.0
 40
6.0
  0
LINE
  8
SIZE
  6
CONTINUOUS
 62
    30
 10
732.35662700000012
 20
-18.0
 30
0.0
 11
732.35662700000012
 21
-30.0
 31
0.0
  0
CIRCLE
  8
SIZE
  6
CONTINUOUS
 62
    30
 10
732.35662700000012
 20
37.0
 30
0.0
 40
6.0
  0
LINE
  8
SIZE
  6
CONTINUOUS
 62
    30
 10
732.35662700000012
 20
37.0
 30
0.0
 11
732.35662700000012
 21
49.0
 31
0.0
  0
LINE
  8
DETAIL
  6
PHANTOM
 62
     5
 10
-281.0
 20
-10.0
 30
0.0
 11
-291.0
 21
0.0
 31
0.0
  0
LINE
  8
DETAIL
  6
CONTINUOUS
 62
     5
 10
-229.0
 20
-18.0
 30
0.0
 11
-219.0
 21
-8.0
 31
0.0
  0
LINE
  8
BASIS
  6
DASHDOT
 62
     6
 10
-82.407600999999886
 20
-109.0
 30
0.0
 11
20.077958999999961
 21
-109.0
 31
0.0
  0
LINE
  8
DETAIL
  6
PHANTOM
 62
     5
 10
-44.0
 20
-183.0
 30
0.0
 11
1.0
 21
-183.0
 31
0.0
  0
LINE
  8
DETAIL
  6
PHANTOM
 62
     5
 10
-44.0
 20
-35.0
 30
0.0
 11
1.0
 21
-35.0
 31
0.0
  0
LINE
  8
DETAIL
  6
PHANTOM
 62
     5
 10
-44.0
 20
-183.0
 30
0.0
 11
-44.0
 21
-35.0
 31
0.0
  0
LINE
  8
DETAIL
  6
PHANTOM
 62
     5
 10
-54.0
 20
-25.0
 30
0.0
 11
-44.0
 21
-35.0
 31
0.0
  0
LINE
  8
DETAIL
  6
PHANTOM
 62
     5
 10
1.0
 20
-183.0
 30
0.0
 11
1.0
 21
-35.0
 31
0.0
  0
LINE
  8
SIZE
  6
CONTINUOUS
 62
    30
 10
40.077958999999957
 20
-109.0
 30
0.0
 11
626.83329099999992
 21
-109.0
 31
0.0
  0
LINE
  8
SIZE
  6
CONTINUOUS
 62
    30
 10
606.83329099999992
 20
-188.0
 30
0.0
 11
606.83329099999992
 21
-121.0
 31
0.0
  0
LINE
  8
SIZE
  6
CONTINUOUS
 62
    30
 10
606.83329099999992
 20
151.01217900000009
 30
0.0
 11
606.83329099999992
 21
-109.0
 31
0.0
  0
TEXT
  8
SIZE
  6
CONTINUOUS
 62
    30
 10
581.83329099999992
 20
57.440750714285677
 30
0.0
 40
64.0
  1
91
 50
90.0
 41
0.9
 72
     1
 11
581.83329099999992
 21
91.726464999999962
 31
0.0
  0
CIRCLE
  8
SIZE
  6
CONTINUOUS
 62
    30
 10
606.83329099999992
 20
-200.0
 30
0.0
 40
6.0
  0
LINE
  8
SIZE
  6
CONTINUOUS
 62
    30
 10
606.83329099999992
 20
-200.0
 30
0.0
 11
606.83329099999992
 21
-188.0
 31
0.0
  0
CIRCLE
  8
SIZE
  6
CONTINUOUS
 62
    30
 10
606.83329099999992
 20
-109.0
 30
0.0
 40
6.0
  0
LINE
  8
SIZE
  6
CONTINUOUS
 62
    30
 10
606.83329099999992
 20
-109.0
 30
0.0
 11
606.83329099999992
 21
-121.0
 31
0.0
  0
LINE
  8
DETAIL
  6
CONTINUOUS
 62
     5
 10
-224.0
 20
-200.0
 30
0.0
 11
-224.0
 21
-70.0
 31
0.0
  0
LINE
  8
DETAIL
  6
CONTINOUS
 62
     5
 10
-224.0
 20
-70.0
 30
0.0
 11
-54.0
 21
-70.0
 31
0.0
  0
LINE
  8
SIZE
  6
CONTINUOUS
 62
    30
 10
-255.0
 20
-240.0
 30
0.0
 11
-255.0
 21
-873.72750099999985
 31
0.0
  0
LINE
  8
SIZE
  6
CONTINUOUS
 62
    30
 10
-12.0
 20
-853.72750099999985
 30
0.0
 11
-243.0
 21
-853.72750099999985
 31
0.0
  0
CIRCLE
  8
SIZE
  6
CONTINUOUS
 62
    30
 10
0.0
 20
-853.72750099999985
 30
0.0
 40
6.0
  0
LINE
  8
SIZE
  6
CONTINUOUS
 62
    30
 10
0.0
 20
-853.72750099999985
 30
0.0
 11
-12.0
 21
-853.72750099999985
 31
0.0
  0
CIRCLE
  8
SIZE
  6
CONTINUOUS
 62
    30
 10
-255.0
 20
-853.72750099999985
 30
0.0
 40
6.0
  0
LINE
  8
SIZE
  6
CONTINUOUS
 62
    30
 10
-255.0
 20
-853.72750099999985
 30
0.0
 11
-243.0
 21
-853.72750099999985
 31
0.0
  0
TEXT
  8
SIZE
  6
CONTINUOUS
 62
    30
 10
-201.55714285714279
 20
-828.72750099999985
 30
0.0
 40
64.0
  1
255
 41
0.9
 72
     1
 11
-127.5
 21
-828.72750099999985
 31
0.0
  0
TEXT
  8
NOTE
  6
CONTINUOUS
 62
     4
 10
372.23488700000013
 20
253.16011099999989
 30
0.0
 40
64.0
  1
後部排気接続口
 41
0.9
  0
LINE
  8
NOTE
  6
CONTINUOUS
 62
     4
 10
359.50189599999982
 20
232.76053899999991
 30
0.0
 11
869.59829799999989
 21
232.76053899999991
 31
0.0
  0
LINE
  8
SIZE
  6
CONTINUOUS
 62
    30
 10
-54.0
 20
2.0
 30
0.0
 11
-54.0
 21
297.42612599999978
 31
0.0
  0
LINE
  8
SIZE
  6
CONTINUOUS
 62
    30
 10
-236.0
 20
2.0
 30
0.0
 11
-236.0
 21
297.42612599999978
 31
0.0
  0
LINE
  8
SIZE
  6
CONTINUOUS
 62
    30
 10
-66.0
 20
277.42612599999978
 30
0.0
 11
-224.0
 21
277.42612599999978
 31
0.0
  0
LINE
  8
SIZE
  6
CONTINUOUS
 62
    30
 10
236.972747
 20
277.42612599999978
 30
0.0
 11
-54.0
 21
277.42612599999978
 31
0.0
  0
TEXT
  8
SIZE
  6
CONTINUOUS
 62
    30
 10
5.7098904285714269
 20
302.42612599999978
 30
0.0
 40
64.0
  1
□182
 41
0.9
 72
     1
 11
110.761319
 21
302.42612599999978
 31
0.0
  0
CIRCLE
  8
SIZE
  6
CONTINUOUS
 62
    30
 10
-54.0
 20
277.42612599999978
 30
0.0
 40
6.0
  0
LINE
  8
SIZE
  6
CONTINUOUS
 62
    30
 10
-54.0
 20
277.42612599999978
 30
0.0
 11
-66.0
 21
277.42612599999978
 31
0.0
  0
CIRCLE
  8
SIZE
  6
CONTINUOUS
 62
    30
 10
-236.0
 20
277.42612599999978
 30
0.0
 40
6.0
  0
LINE
  8
SIZE
  6
CONTINUOUS
 62
    30
 10
-236.0
 20
277.42612599999978
 30
0.0
 11
-224.0
 21
277.42612599999978
 31
0.0
  0
LINE
  8
SIZE
  6
CONTINUOUS
 62
    30
 10
-71.0
 20
57.0
 30
0.0
 11
-71.0
 21
190.03580600000009
 31
0.0
  0
LINE
  8
SIZE
  6
CONTINUOUS
 62
    30
 10
-219.0
 20
57.0
 30
0.0
 11
-219.0
 21
190.03580600000009
 31
0.0
  0
LINE
  8
SIZE
  6
CONTINUOUS
 62
    30
 10
-83.0
 20
170.03580600000009
 30
0.0
 11
-207.0
 21
170.03580600000009
 31
0.0
  0
LINE
  8
SIZE
  6
CONTINUOUS
 62
    30
 10
238.206087
 20
170.03580600000009
 30
0.0
 11
-71.0
 21
170.03580600000009
 31
0.0
  0
TEXT
  8
SIZE
  6
CONTINUOUS
 62
    30
 10
9.6860864285713859
 20
195.03580600000009
 30
0.0
 40
64.0
  1
φ148
 41
0.9
 72
     1
 11
118.57751499999991
 21
195.03580600000009
 31
0.0
  0
CIRCLE
  8
SIZE
  6
CONTINUOUS
 62
    30
 10
-71.0
 20
170.03580600000009
 30
0.0
 40
6.0
  0
LINE
  8
SIZE
  6
CONTINUOUS
 62
    30
 10
-71.0
 20
170.03580600000009
 30
0.0
 11
-83.0
 21
170.03580600000009
 31
0.0
  0
CIRCLE
  8
SIZE
  6
CONTINUOUS
 62
    30
 10
-219.0
 20
170.03580600000009
 30
0.0
 40
6.0
  0
LINE
  8
SIZE
  6
CONTINUOUS
 62
    30
 10
-219.0
 20
170.03580600000009
 30
0.0
 11
-207.0
 21
170.03580600000009
 31
0.0
  0
LINE
  8
NOTE
  6
CONTINUOUS
 62
     4
 10
359.50189599999982
 20
232.76053899999991
 30
0.0
 11
1.0
 21
-50.672184999999899
 31
0.0
  0
LINE
  8
NOTE
  6
CONTINUOUS
 62
     4
 10
24.888206000000078
 20
-18.588643999999931
 30
0.0
 11
1.0
 21
-50.672184999999899
 31
0.0
  0
LINE
  8
NOTE
  6
CONTINUOUS
 62
     4
 10
1.0
 20
-50.672184999999899
 30
0.0
 11
37.729563999999982
 21
-34.831126999999917
 31
0.0
  0
LINE
  8
SIZE
  6
CONTINUOUS
 62
    30
 10
291.30750699999999
 20
474.03518899999989
 30
0.0
 11
553.20098400000006
 21
474.03518899999989
 31
0.0
  0
LINE
  8
DETAIL
  6
CONTINUOUS
 62
     5
 10
-640.87511600000016
 20
-531.65280700000005
 30
0.0
 11
-650.03357000000017
 21
-497.47334699999999
 31
0.0
  0
ARC
  8
DETAIL
  6
CONTINUOUS
 62
     5
 10
-630.31375600000001
 20
-516.97660800000006
 30
0.0
 40
20.0
 50
173.96292699999611
 51
216.03736999999481
  0
LINE
  8
DETAIL
  6
CONTINUOUS
 62
     5
 10
-641.89554699999997
 20
-527.84454800000003
 30
0.0
 11
-645.95269800000017
 21
-528.93166900000006
 31
0.0
  0
LINE
  8
DETAIL
  6
CONTINUOUS
 62
     5
 10
-635.31421999999975
 20
-536.95147599999984
 30
0.0
 11
-636.18676600000003
 21
-537.18527599999993
 31
0.0
  0
ARC
  8
DETAIL
  6
CONTINUOUS
 62
     5
 10
-640.39215399999978
 20
-531.52339600000005
 30
0.0
 40
0.5
 50
195.0001480000038
 51
208.16413000000381
  0
ARC
  8
DETAIL
  6
CONTINUOUS
 62
     5
 10
-636.44558700000016
 20
-536.21935099999996
 30
0.0
 40
1.0
 50
222.6483609999967
 51
285.00014799998962
  0
ARC
  8
DETAIL
  6
CONTINUOUS
 62
     5
 10
-618.79297499999996
 20
-519.95942200000002
 30
0.0
 40
25.0
 50
208.16413000000381
 51
222.6483609999967
  0
ARC
  8
DETAIL
  6
CONTINUOUS
 62
     5
 10
-646.08210799999995
 20
-528.4487069999999
 30
0.0
 40
0.5
 50
216.03736999999481
 51
285.00014799998962
  0
ARC
  8
DETAIL
  6
CONTINUOUS
 62
     5
 10
-625.06318699999963
 20
-496.55891600000001
 30
0.0
 40
25.0
 50
167.35193500000759
 51
181.83616600000491
  0
ARC
  8
DETAIL
  6
CONTINUOUS
 62
     5
 10
-648.48078899999985
 20
-491.30383099999989
 30
0.0
 40
1.0
 50
105.00014799998959
 51
167.35193500000759
  0
LINE
  8
DETAIL
  6
CONTINUOUS
 62
     5
 10
-648.73960999999963
 20
-490.33790599999998
 30
0.0
 11
-647.86706500000003
 21
-490.104106
 31
0.0
  0
LINE
  8
DETAIL
  6
CONTINUOUS
 62
     5
 10
-645.77787000000001
 20
-513.35567000000003
 30
0.0
 11
-649.83502099999987
 21
-514.44279200000005
 31
0.0
  0
ARC
  8
DETAIL
  6
CONTINUOUS
 62
     5
 10
-649.70560999999998
 20
-514.92575499999975
 30
0.0
 40
0.5
 50
105.00014799998959
 51
173.96292699999611
  0
ARC
  8
DETAIL
  6
CONTINUOUS
 62
     5
 10
-649.55060700000001
 20
-497.34393599999999
 30
0.0
 40
0.5
 50
181.83616600000491
 51
195.0001480000038
  0
LINE
  8
DETAIL
  6
PHANTOM
 62
     5
 10
-54.0
 20
-193.0
 30
0.0
 11
-44.0
 21
-183.0
 31
0.0
  0
TEXT
  8
NOTE
  6
CONTINUOUS
 62
     4
 10
-1179.264607999999
 20
304.52190599999989
 30
0.0
 40
64.0
  1
右側面給気接続口
 41
0.9
  0
LINE
  8
NOTE
  6
CONTINUOUS
 62
     4
 10
-621.30785000000003
 20
276.64474599999988
 30
0.0
 11
-1184.7302269999991
 21
276.64474599999988
 31
0.0
  0
LINE
  8
NOTE
  6
CONTINUOUS
 62
     4
 10
-422.45911500000011
 20
-44.336277000000109
 30
0.0
 11
-621.30785000000003
 21
276.64474599999988
 31
0.0
  0
LINE
  8
NOTE
  6
CONTINUOUS
 62
     4
 10
-451.60750800000011
 20
-16.943373000000069
 30
0.0
 11
-422.45911500000011
 21
-44.336277000000109
 31
0.0
  0
LINE
  8
NOTE
  6
CONTINUOUS
 62
     4
 10
-422.45911500000011
 20
-44.336277000000109
 30
0.0
 11
-434.00591200000008
 21
-6.0391300000001138
 31
0.0
  0
LINE
  8
SIZE
  6
CONTINUOUS
 62
    30
 10
-370.0
 20
-620.0
 30
0.0
 11
-370.0
 21
-1008.902508
 31
0.0
  0
LINE
  8
SIZE
  6
CONTINUOUS
 62
    30
 10
-12.0
 20
-988.90250800000001
 30
0.0
 11
-358.0
 21
-988.90250800000001
 31
0.0
  0
CIRCLE
  8
SIZE
  6
CONTINUOUS
 62
    30
 10
0.0
 20
-988.90250800000001
 30
0.0
 40
6.0
  0
LINE
  8
SIZE
  6
CONTINUOUS
 62
    30
 10
0.0
 20
-988.90250800000001
 30
0.0
 11
-12.0
 21
-988.90250800000001
 31
0.0
  0
CIRCLE
  8
SIZE
  6
CONTINUOUS
 62
    30
 10
-370.0
 20
-988.90250800000001
 30
0.0
 40
6.0
  0
LINE
  8
SIZE
  6
CONTINUOUS
 62
    30
 10
-370.0
 20
-988.90250800000001
 30
0.0
 11
-358.0
 21
-988.90250800000001
 31
0.0
  0
TEXT
  8
SIZE
  6
CONTINUOUS
 62
    30
 10
-259.05714285714282
 20
-963.90250800000001
 30
0.0
 40
64.0
  1
370
 41
0.9
 72
     1
 11
-185.0
 21
-963.90250800000001
 31
0.0
  0
LINE
  8
DETAIL
  6
PHANTOM
 62
     5
 10
-320.0
 20
0.0
 30
0.0
 11
-291.0
 21
0.0
 31
0.0
  0
TEXT
  8
ETC
  6
CONTINUOUS
 62
    61
 10
621.11960388242915
 20
844.55315230951919
 30
0.0
 40
64.0
  1
V-754KQE9_4
 41
0.9
  0
TEXT
  8
ETC
  6
CONTINUOUS
 62
    61
 10
616.8976368824292
 20
748.06232530951934
 30
0.0
 40
64.0
  1
換気扇
 41
0.9
  0
TEXT
  8
ETC
  6
CONTINUOUS
 62
    61
 10
761.21437750086625
 20
660.94009742960634
 30
0.0
 40
50.0
  1
V-754KQE9
 41
0.9
  0
LINE
  8
NOTE
  6
CONTINUOUS
 62
     4
 10
-208.0
 20
-220.0
 30
0.0
 11
-208.0
 21
-180.0
 31
0.0
  0
CIRCLE
  8
SIZE
  6
CONTINUOUS
 62
    30
 10
-208.0
 20
-726.42561209482392
 30
0.0
 40
6.0
  0
CIRCLE
  8
SIZE
  6
CONTINUOUS
 62
    30
 10
0.0
 20
-726.42561209482392
 30
0.0
 40
6.0
  0
LINE
  8
SIZE
  6
CONTINUOUS
 62
    30
 10
-208.0
 20
-240.0
 30
0.0
 11
-208.0
 21
-746.42561209482392
 31
0.0
  0
LINE
  8
SIZE
  6
CONTINUOUS
 62
    30
 10
-208.0
 20
-726.42561209482392
 30
0.0
 11
0.0
 21
-726.42561209482392
 31
0.0
  0
TEXT
  8
SIZE
  6
CONTINUOUS
 62
    30
 10
-178.05714285714291
 20
-701.42561209482392
 30
0.0
 40
64.0
  1
208
 41
0.9
  0
LINE
  8
DETAIL
  6
DASHED
 62
     5
 10
-320.0
 20
-10.0
 30
0.0
 11
-450.0
 21
-10.0
 31
0.0
  0
LINE
  8
DETAIL
  6
PHANTOM
 62
     5
 10
-450.0
 20
-10.0
 30
0.0
 11
-439.0
 21
0.0
 31
0.0
  0
LINE
  8
SIZE
  6
CONTINUOUS
 62
    30
 10
-333.90406866029122
 20
-10.0
 30
0.0
 11
-1169.5796623173219
 21
-10.0
 31
0.0
  0
LINE
  8
OUTLINE
  6
CONTINUOUS
 62
     3
 10
-236.0
 20
-200.0
 30
0.0
 11
-236.0
 21
-18.0
 31
0.0
  0
LINE
  8
OUTLINE
  6
CONTINUOUS
 62
     3
 10
-54.0
 20
-18.0
 30
0.0
 11
-61.0
 21
-18.0
 31
0.0
  0
LINE
  8
OUTLINE
  6
CONTINUOUS
 62
     3
 10
-229.0
 20
-18.0
 30
0.0
 11
-236.0
 21
-18.0
 31
0.0
  0
LINE
  8
OUTLINE
  6
CONTINUOUS
 62
     3
 10
-54.0
 20
-200.0
 30
0.0
 11
-54.0
 21
-18.0
 31
0.0
  0
LINE
  8
OUTLINE
  6
CONTINUOUS
 62
     3
 10
-61.0
 20
-18.0
 30
0.0
 11
-71.0
 21
-8.0
 31
0.0
  0
LINE
  8
OUTLINE
  6
CONTINUOUS
 62
     3
 10
-71.0
 20
37.0
 30
0.0
 11
-219.0
 21
37.0
 31
0.0
  0
LINE
  8
OUTLINE
  6
CONTINUOUS
 62
     3
 10
-219.0
 20
-8.0
 30
0.0
 11
-219.0
 21
37.0
 31
0.0
  0
LINE
  8
OUTLINE
  6
CONTINUOUS
 62
     3
 10
-71.0
 20
-8.0
 30
0.0
 11
-71.0
 21
37.0
 31
0.0
  0
LINE
  8
OUTLINE
  6
CONTINUOUS
 62
     3
 10
-229.0
 20
-18.0
 30
0.0
 11
-219.0
 21
-8.0
 31
0.0
  0
ENDSEC
  0
EOF
