  0
SECTION
  2
HEADER
  9
$ACADVER
  1
AC1009
  9
$DWGCODEPAGE
  3
dos932
  9
$INSBASE
 10
0.0
 20
0.0
 30
0.0
  9
$EXTMIN
 10
-730.7689748893426
 20
-398.5557871736564
 30
0.0
  9
$EXTMAX
 10
1612.576679275244
 20
1257.116083324327
 30
50.0
  9
$LIMMIN
 10
-2970.0
 20
-2100.0
  9
$LIMMAX
 10
2970.0
 20
2100.0
  9
$ORTHOMODE
 70
     1
  9
$REGENMODE
 70
     1
  9
$FILLMODE
 70
     1
  9
$QTEXTMODE
 70
     0
  9
$MIRRTEXT
 70
     0
  9
$DRAGMODE
 70
     2
  9
$LTSCALE
 40
20.0
  9
$OSMODE
 70
    37
  9
$ATTMODE
 70
     1
  9
$TEXTSIZE
 40
64.0
  9
$TRACEWID
 40
0.05
  9
$TEXTSTYLE
  7
STANDARD
  9
$CLAYER
  8
SIZE
  9
$CELTYPE
  6
CONTINUOUS
  9
$CECOLOR
 62
     7
  9
$DIMSCALE
 40
1.0
  9
$DIMASZ
 40
12.0
  9
$DIMEXO
 40
20.0
  9
$DIMDLI
 40
200.0
  9
$DIMRND
 40
0.0
  9
$DIMDLE
 40
0.0
  9
$DIMEXE
 40
20.0
  9
$DIMTP
 40
0.0
  9
$DIMTM
 40
0.0
  9
$DIMTXT
 40
64.0
  9
$DIMCEN
 40
0.09
  9
$DIMTSZ
 40
0.0
  9
$DIMTOL
 70
     0
  9
$DIMLIM
 70
     0
  9
$DIMTIH
 70
     0
  9
$DIMTOH
 70
     0
  9
$DIMSE1
 70
     0
  9
$DIMSE2
 70
     0
  9
$DIMTAD
 70
     1
  9
$DIMZIN
 70
     8
  9
$DIMBLK
  1

  9
$DIMASO
 70
     1
  9
$DIMSHO
 70
     0
  9
$DIMPOST
  1

  9
$DIMAPOST
  1

  9
$DIMALT
 70
     0
  9
$DIMALTD
 70
     2
  9
$DIMALTF
 40
25.4
  9
$DIMLFAC
 40
1.0
  9
$DIMTOFL
 70
     1
  9
$DIMTVP
 40
0.0
  9
$DIMTIX
 70
     1
  9
$DIMSOXD
 70
     0
  9
$DIMSAH
 70
     0
  9
$DIMBLK1
  1

  9
$DIMBLK2
  1

  9
$DIMSTYLE
  2
STANDARD
  9
$DIMCLRD
 70
     7
  9
$DIMCLRE
 70
     7
  9
$DIMCLRT
 70
     7
  9
$DIMTFAC
 40
1.0
  9
$DIMGAP
 40
25.0
  9
$LUNITS
 70
     2
  9
$LUPREC
 70
     4
  9
$SKETCHINC
 40
0.1
  9
$FILLETRAD
 40
3.0
  9
$AUNITS
 70
     1
  9
$AUPREC
 70
     3
  9
$MENU
  1
ACAD
  9
$ELEVATION
 40
0.0
  9
$PELEVATION
 40
0.0
  9
$THICKNESS
 40
50.0
  9
$LIMCHECK
 70
     0
  9
$CHAMFERA
 40
0.0
  9
$CHAMFERB
 40
0.0
  9
$SKPOLY
 70
     0
  9
$TDCREATE
 40
2453019.623010359
  9
$TDUPDATE
 40
2457424.598767292
  9
$TDINDWG
 40
1.7935416204
  9
$TDUSRTIMER
 40
1.7935416204
  9
$USRTIMER
 70
     1
  9
$ANGBASE
 50
0.0
  9
$ANGDIR
 70
     0
  9
$PDMODE
 70
     3
  9
$PDSIZE
 40
-2.0
  9
$PLINEWID
 40
0.0
  9
$COORDS
 70
     1
  9
$SPLFRAME
 70
     0
  9
$SPLINETYPE
 70
     6
  9
$SPLINESEGS
 70
     8
  9
$ATTDIA
 70
     0
  9
$ATTREQ
 70
     1
  9
$HANDLING
 70
     1
  9
$HANDSEED
  5
127D9
  9
$SURFTAB1
 70
     6
  9
$SURFTAB2
 70
     6
  9
$SURFTYPE
 70
     6
  9
$SURFU
 70
     6
  9
$SURFV
 70
     6
  9
$UCSNAME
  2

  9
$UCSORG
 10
0.0
 20
0.0
 30
0.0
  9
$UCSXDIR
 10
1.0
 20
0.0
 30
0.0
  9
$UCSYDIR
 10
0.0
 20
1.0
 30
0.0
  9
$PUCSNAME
  2

  9
$PUCSORG
 10
0.0
 20
0.0
 30
0.0
  9
$PUCSXDIR
 10
1.0
 20
0.0
 30
0.0
  9
$PUCSYDIR
 10
0.0
 20
1.0
 30
0.0
  9
$USERI1
 70
     0
  9
$USERI2
 70
     0
  9
$USERI3
 70
     0
  9
$USERI4
 70
     0
  9
$USERI5
 70
     0
  9
$USERR1
 40
20.0
  9
$USERR2
 40
0.0
  9
$USERR3
 40
0.0
  9
$USERR4
 40
0.0
  9
$USERR5
 40
0.0
  9
$WORLDVIEW
 70
     1
  9
$SHADEDGE
 70
     3
  9
$SHADEDIF
 70
    70
  9
$TILEMODE
 70
     1
  9
$MAXACTVP
 70
    48
  9
$PLIMCHECK
 70
     0
  9
$PEXTMIN
 10
-1.000000000000000E+20
 20
-1.000000000000000E+20
 30
-1.000000000000000E+20
  9
$PEXTMAX
 10
1.000000000000000E+20
 20
1.000000000000000E+20
 30
1.000000000000000E+20
  9
$PLIMMIN
 10
0.0
 20
0.0
  9
$PLIMMAX
 10
12.0
 20
9.0
  9
$UNITMODE
 70
     0
  9
$VISRETAIN
 70
     0
  9
$PLINEGEN
 70
     0
  9
$PSLTSCALE
 70
     0
  0
ENDSEC
  0
SECTION
  2
TABLES
  0
TABLE
  2
VPORT
 70
     1
  0
VPORT
  2
*ACTIVE
 70
     0
 10
0.0
 20
0.0
 11
1.0
 21
1.0
 12
-859.9796741321275
 22
858.7387875745912
 13
0.0
 23
0.0
 14
1.0
 24
1.0
 15
0.0
 25
0.0
 16
0.0
 26
0.0
 36
1.0
 17
0.0
 27
0.0
 37
0.0
 40
3677.754545036919
 41
1.279738562091503
 42
50.0
 43
0.0
 44
0.0
 50
0.0
 51
0.0
 71
     0
 72
  1000
 73
     1
 74
     0
 75
     0
 76
     0
 77
     0
 78
     0
  0
ENDTAB
  0
TABLE
  2
LTYPE
 70
     3
  0
LTYPE
  2
CONTINUOUS
 70
     0
  3
実線
 72
    65
 73
     0
 40
0.0
  0
LTYPE
  2
DASHDOT
 70
     0
  3
____ _ ____ _ ____ _ ____ _ ____ _ ____ _ ____
 72
    65
 73
     4
 40
5.5
 49
4.0
 49
-0.6
 49
0.3
 49
-0.6
  0
LTYPE
  2
DIVIDE
 70
     0
  3
Divide ____ . . ____ . . ____ . . ____ . . ____
 72
    65
 73
     6
 40
1.25
 49
0.5
 49
-0.25
 49
0.0
 49
-0.25
 49
0.0
 49
-0.25
  0
ENDTAB
  0
TABLE
  2
LAYER
 70
    12
  0
LAYER
  2
0
 70
     0
 62
     7
  6
CONTINUOUS
  0
LAYER
  2
BASIS
 70
     0
 62
     6
  6
DASHDOT
  0
LAYER
  2
OUTLINE
 70
     0
 62
     3
  6
CONTINUOUS
  0
LAYER
  2
DETAIL
 70
     0
 62
     5
  6
CONTINUOUS
  0
LAYER
  2
SIZE
 70
     0
 62
    30
  6
CONTINUOUS
  0
LAYER
  2
ARRANGE
 70
     0
 62
     1
  6
CONTINUOUS
  0
LAYER
  2
DEFPOINTS
 70
     0
 62
     7
  6
CONTINUOUS
  0
LAYER
  2
ETC
 70
     0
 62
    61
  6
CONTINUOUS
  0
LAYER
  2
FIX
 70
     0
 62
    11
  6
CONTINUOUS
  0
LAYER
  2
NOTE
 70
     0
 62
     4
  6
CONTINUOUS
  0
LAYER
  2
SERVICESPACE
 70
     0
 62
     2
  6
DASHDOT
  0
LAYER
  2
SYMBOLLINE
 70
     0
 62
    15
  6
CONTINUOUS
  0
ENDTAB
  0
TABLE
  2
STYLE
 70
     1
  0
STYLE
  2
STANDARD
 70
     0
 40
64.0
 41
0.9
 50
0.0
 71
     0
 42
64.0
  3
SIMPLEX.shx
  4
BIGFONT.shx
  0
ENDTAB
  0
TABLE
  2
VIEW
 70
     1
  0
VIEW
  2
ALL
 70
     0
 40
4282.619807999999
 10
0.0
 20
41.309904
 41
5940.0
 11
0.0
 21
0.0
 31
1.0
 12
0.0
 22
0.0
 32
0.0
 42
50.0
 43
0.0
 44
0.0
 50
0.0
 71
     0
  0
ENDTAB
  0
TABLE
  2
UCS
 70
     0
  0
ENDTAB
  0
TABLE
  2
APPID
 70
    15
  0
APPID
  2
ACAD
 70
     0
  0
APPID
  2
AUTOCAD_POSTSCRIPT_FIGURE
 70
     0
  0
APPID
  2
ACAD_EXEMPT_FROM_CAD_STAND
 70
     0
  0
APPID
  2
ACAD_PSEXT
 70
     0
  0
APPID
  2
ACAUTHENVIRON
 70
     0
  0
APPID
  2
GENIUS_GENOENT_13
 70
     0
  0
APPID
  2
GENIUS_GENCFG_13
 70
     0
  0
APPID
  2
GENIUS_GENCFG0_13
 70
     0
  0
APPID
  2
GENIUS_GENCFG1_13
 70
     0
  0
APPID
  2
GENIUS_GENCFG2_13
 70
     0
  0
APPID
  2
GENIUS_GENCFG3_13
 70
     0
  0
APPID
  2
GENIUS_GENCFG4_13
 70
     0
  0
APPID
  2
GENIUS_GEVCFG0_13
 70
     0
  0
APPID
  2
CONTENTBLOCKICON
 70
     0
  0
APPID
  2
CONTENTBLOCKDESCRIPTION
 70
     0
  0
ENDTAB
  0
TABLE
  2
DIMSTYLE
 70
     1
  0
DIMSTYLE
  2
STANDARD
 70
     0
  3

  4

  5
ORIGIN
  6

  7

 40
1.0
 41
12.0
 42
20.0
 43
200.0
 44
20.0
 45
0.0
 46
0.0
 47
0.0
 48
0.0
140
64.0
141
0.09
142
0.0
143
25.4
144
1.0
145
0.0
146
1.0
147
25.0
 71
     0
 72
     0
 73
     0
 74
     0
 75
     0
 76
     0
 77
     1
 78
     8
170
     0
171
     2
172
     1
173
     0
174
     1
175
     0
176
     7
177
     7
178
     7
  0
ENDTAB
  0
ENDSEC
  0
SECTION
  2
BLOCKS
  0
BLOCK
  8
0
  2
$MODEL_SPACE
 70
     0
 10
0.0
 20
0.0
 30
0.0
  3
$MODEL_SPACE
  1

  0
ENDBLK
  5
127B1
  8
0
  0
BLOCK
 67
     1
  8
0
  2
$PAPER_SPACE
 70
     0
 10
0.0
 20
0.0
 30
0.0
  3
$PAPER_SPACE
  1

  0
ENDBLK
  5
127B3
 67
     1
  8
0
  0
BLOCK
  8
0
  2
_ORIGIN
 70
     0
 10
0.0
 20
0.0
 30
0.0
  3
_ORIGIN
  1

  0
CIRCLE
  5
125BE
  8
0
  6
CONTINUOUS
 62
     7
 10
0.0
 20
0.0
 30
0.0
 40
0.5
  0
LINE
  5
125BF
  8
0
  6
CONTINUOUS
 62
     7
 10
0.0
 20
0.0
 30
0.0
 11
-1.0
 21
0.0
 31
0.0
  0
ENDBLK
  5
125C0
  8
0
  0
ENDSEC
  0
SECTION
  2
ENTITIES
  0
TEXT
  5
125C1
  8
ETC
  6
CONTINUOUS
 62
    61
 10
745.8338221323847
 20
1338.116083324326
 30
0.0
 40
64.0
  1
V-754SHL2-R-S_5
 41
0.9
  0
TEXT
  5
125C2
  8
ETC
  6
CONTINUOUS
 62
    61
 10
741.6478281323843
 20
1220.160773309495
 30
0.0
 40
64.0
  1
換気扇
 41
0.9
  0
TEXT
  5
125C3
  8
ETC
  6
CONTINUOUS
 62
    61
 10
792.3492263809403
 20
1112.012000423269
 30
0.0
 40
40.0
  1
V-754SHL2-R-S
 41
0.9
  0
CIRCLE
  5
125C4
  8
ARRANGE
  6
CONTINUOUS
 62
     1
 10
0.0
 20
0.0
 30
0.0
 40
40.0
  0
POINT
  5
125C5
  8
ARRANGE
  6
CONTINUOUS
 62
     1
 39
50.0
 10
0.0
 20
0.0
 30
0.0
 50
180.0
  0
LINE
  5
125C6
  8
BASIS
  6
DASHDOT
 62
     6
 39
50.0
 10
0.0
 20
-20.62939102656489
 30
0.0
 11
0.0
 21
376.9579498998228
 31
0.0
  0
LINE
  5
125C7
  8
BASIS
  6
DASHDOT
 62
     6
 39
50.0
 10
-125.4561247050906
 20
0.0
 30
0.0
 11
627.4049357699951
 21
0.0
 31
0.0
  0
ARC
  5
125C8
  8
DETAIL
  6
CONTINUOUS
 62
     5
 10
1.601067375995626
 20
298.6024018070002
 30
0.0
 40
0.8005336880006405
 50
90.0
 51
180.0
  0
ARC
  5
125C9
  8
DETAIL
  6
CONTINUOUS
 62
     5
 10
1.601067375995626
 20
298.6024018070002
 30
0.0
 40
1.60106737599991
 50
90.0
 51
180.0
  0
ARC
  5
125CA
  8
DETAIL
  6
CONTINUOUS
 62
     5
 10
70.24683112199637
 20
279.3895928729999
 30
0.0
 40
0.8005336879997199
 50
270.0
 51
0.0
  0
ARC
  5
125CB
  8
DETAIL
  6
CONTINUOUS
 62
     5
 10
69.64643085599891
 20
276.9879918090001
 30
0.0
 40
1.60106737599945
 50
90.0
 51
180.0
  0
ARC
  5
125CC
  8
DETAIL
  6
CONTINUOUS
 62
     5
 10
60.04002659999969
 20
272.3849231029999
 30
0.0
 40
8.00533688000001
 50
317.5208960369156
 51
0.0
  0
ARC
  5
125CD
  8
DETAIL
  6
CONTINUOUS
 62
     5
 10
1.601067375995626
 20
147.2014676419994
 30
0.0
 40
0.8005336879999501
 50
180.0
 51
270.0
  0
ARC
  5
125CE
  8
DETAIL
  6
CONTINUOUS
 62
     5
 10
1.601067375995626
 20
147.2014676419994
 30
0.0
 40
1.60106737599989
 50
180.0
 51
270.0
  0
ARC
  5
125CF
  8
DETAIL
  6
DIVIDE
 62
     5
 10
449.0993989679992
 20
699.169445518
 30
0.0
 40
0.60040026599995
 50
0.0
 51
90.0
  0
ARC
  5
125D0
  8
DETAIL
  6
DIVIDE
 62
     5
 10
449.0993989679992
 20
699.169445518
 30
0.0
 40
1.20080053200005
 50
0.0
 51
90.0
  0
ARC
  5
125D1
  8
DETAIL
  6
CONTINUOUS
 62
     5
 10
360.1816084915081
 20
300.4036021829997
 30
0.0
 40
300.2001330000001
 50
270.0
 51
285.2112457493859
  0
ARC
  5
125D2
  8
DETAIL
  6
DIVIDE
 62
     5
 10
450.9005997659988
 20
150.4036023939998
 30
0.0
 40
0.60040026600002
 50
180.0
 51
270.0
  0
ARC
  5
125D3
  8
DETAIL
  6
DIVIDE
 62
     5
 10
450.9005997659988
 20
150.4036023939998
 30
0.0
 40
1.20080053199992
 50
180.0
 51
270.0
  0
ARC
  5
125D4
  8
DETAIL
  6
CONTINUOUS
 62
     5
 10
607.4049357699951
 20
141.99799867
 30
0.0
 40
3.00200133000001
 50
0.0
 51
90.0
  0
ARC
  5
125D5
  8
DETAIL
  6
CONTINUOUS
 62
     5
 10
604.4029344400005
 20
106.9746498199997
 30
0.0
 40
15.01000664999984
 50
335.3756816477869
 51
24.62431835221313
  0
ARC
  5
125D6
  8
DETAIL
  6
CONTINUOUS
 62
     5
 10
595.3969304499988
 20
68.815243850162
 30
0.0
 40
15.01000665
 50
285.2112457493861
 51
0.0
  0
LINE
  5
125D7
  8
DETAIL
  6
DIVIDE
 62
     5
 10
401.4676445319965
 20
700.3702460499999
 30
0.0
 11
449.0993989679992
 21
700.3702460499999
 31
0.0
  0
LINE
  5
125D8
  8
DETAIL
  6
DIVIDE
 62
     5
 10
448.6991321239984
 20
699.7698457839997
 30
0.0
 11
449.0993989679992
 21
699.7698457839997
 31
0.0
  0
LINE
  5
125D9
  8
DETAIL
  6
DIVIDE
 62
     5
 10
449.6997992339984
 20
699.169445518
 30
0.0
 11
450.3001994999977
 21
699.169445518
 31
0.0
  0
LINE
  5
125DA
  8
DETAIL
  6
DIVIDE
 62
     5
 10
400.2668439999979
 20
699.169445518
 30
0.0
 11
401.4676445319965
 21
699.169445518
 31
0.0
  0
LINE
  5
125DB
  8
DETAIL
  6
CONTINUOUS
 62
     5
 10
0.0
 20
147.2014676419994
 30
0.0
 11
0.0
 21
298.2021349630004
 31
0.0
  0
LINE
  5
125DC
  8
DETAIL
  6
CONTINUOUS
 62
     5
 10
0.0
 20
0.2034691829998962
 30
0.0
 11
0.0
 21
145.6004002660002
 31
0.0
  0
LINE
  5
125DD
  8
DETAIL
  6
CONTINUOUS
 62
     5
 10
0.8005336879978131
 20
147.2014676419994
 30
0.0
 11
0.8005336879978131
 21
147.6017344860002
 31
0.0
  0
LINE
  5
125DE
  8
DETAIL
  6
CONTINUOUS
 62
     5
 10
0.8005336879978131
 20
348.6360904399999
 30
0.0
 11
0.8005336879978131
 21
348.235823596
 31
0.0
  0
LINE
  5
125DF
  8
DETAIL
  6
CONTINUOUS
 62
     5
 10
2.001334219996352
 20
146.4009339539998
 30
0.0
 11
2.001334219996352
 21
146.8012007979996
 31
0.0
  0
LINE
  5
125E0
  8
DETAIL
  6
CONTINUOUS
 62
     5
 10
2.001334219996352
 20
145.6004002660002
 30
0.0
 11
2.001334219996352
 21
145.0
 31
0.0
  0
LINE
  5
125E1
  8
DETAIL
  6
CONTINUOUS
 62
     5
 10
2.011340891098371
 20
146.2008005319999
 30
0.0
 11
2.011340891098371
 21
146.8112074690998
 31
0.0
  0
LINE
  5
125E2
  8
DETAIL
  6
CONTINUOUS
 62
     5
 10
2.011340891098371
 20
145.6004002660002
 30
0.0
 11
2.011340891098371
 21
146.2008005319999
 31
0.0
  0
LINE
  5
125E3
  8
DETAIL
  6
CONTINUOUS
 62
     5
 10
15.0100066499981
 20
298.2021349630004
 30
0.0
 11
15.0100066499981
 21
149.6030687060002
 31
0.0
  0
LINE
  5
125E4
  8
DETAIL
  6
CONTINUOUS
 62
     5
 10
15.0100066499981
 20
300.2034691829999
 30
0.0
 11
15.0100066499981
 21
299.4029354949998
 31
0.0
  0
LINE
  5
125E5
  8
DETAIL
  6
CONTINUOUS
 62
     5
 10
45.03001994999795
 20
263.5790525349998
 30
0.0
 11
45.03001994999795
 21
266.9813207090001
 31
0.0
  0
LINE
  5
125E6
  8
DETAIL
  6
CONTINUOUS
 62
     5
 10
68.04536347999965
 20
272.3849231029999
 30
0.0
 11
68.04536347999965
 21
276.9879918090001
 31
0.0
  0
LINE
  5
125E7
  8
DETAIL
  6
CONTINUOUS
 62
     5
 10
71.04736480999782
 20
279.3895928729999
 30
0.0
 11
71.04736480999782
 21
318.615743585
 31
0.0
  0
LINE
  5
125E8
  8
DETAIL
  6
CONTINUOUS
 62
     5
 10
219.1460970899989
 20
279.3895928729999
 30
0.0
 11
219.1460970900007
 21
318.615743585
 31
0.0
  0
LINE
  5
125E9
  8
DETAIL
  6
CONTINUOUS
 62
     5
 10
15.0100066499981
 20
149.6030687060002
 30
0.0
 11
13.00867243000175
 21
147.6017344860002
 31
0.0
  0
LINE
  5
125EA
  8
DETAIL
  6
CONTINUOUS
 62
     5
 10
1.601067375995626
 20
300.2034691829999
 30
0.0
 11
15.0100066499981
 21
300.2034691829999
 31
0.0
  0
LINE
  5
125EB
  8
DETAIL
  6
CONTINUOUS
 62
     5
 10
1.601067375995626
 20
299.4029354949998
 30
0.0
 11
15.0100066499981
 21
299.4029354949998
 31
0.0
  0
LINE
  5
125EC
  8
DETAIL
  6
CONTINUOUS
 62
     5
 10
0.0
 20
298.2021349630004
 30
0.0
 11
15.0100066499981
 21
298.2021349630004
 31
0.0
  0
LINE
  5
125ED
  8
DETAIL
  6
DIVIDE
 62
     5
 10
397.8652429360009
 20
146.2008005319999
 30
0.0
 11
397.8652429360009
 21
148.6024015960002
 31
0.0
  0
LINE
  5
125EE
  8
DETAIL
  6
DIVIDE
 62
     5
 10
400.2668439999979
 20
147.4016010639998
 30
0.0
 11
400.2668439999979
 21
699.169445518
 31
0.0
  0
LINE
  5
125EF
  8
DETAIL
  6
DIVIDE
 62
     5
 10
401.4676445319965
 20
146.2008005319999
 30
0.0
 11
401.4676445319965
 21
147.4016010639998
 31
0.0
  0
LINE
  5
125F0
  8
DETAIL
  6
DIVIDE
 62
     5
 10
401.4676445319965
 20
700.3702460499999
 30
0.0
 11
401.4676445319965
 21
699.169445518
 31
0.0
  0
LINE
  5
125F1
  8
DETAIL
  6
CONTINUOUS
 62
     5
 10
219.1460970900007
 20
318.615743585
 30
0.0
 11
71.04736480999782
 21
318.615743585
 31
0.0
  0
LINE
  5
125F2
  8
DETAIL
  6
DIVIDE
 62
     5
 10
400.2668439999979
 20
296.3008670319996
 30
0.0
 11
390.260172899998
 21
296.3008670319996
 31
0.0
  0
LINE
  5
125F3
  8
DETAIL
  6
DIVIDE
 62
     5
 10
200.133421999999
 20
156.2074716320003
 30
0.0
 11
390.260172899998
 21
296.3008670319996
 31
0.0
  0
LINE
  5
125F4
  8
DETAIL
  6
CONTINUOUS
 62
     5
 10
330.2201462999983
 20
263.5790525349998
 30
0.0
 11
345.8519960827107
 21
263.5790525349998
 31
0.0
  0
LINE
  5
125F5
  8
DETAIL
  6
CONTINUOUS
 62
     5
 10
15.0100066499981
 20
263.5790525349998
 30
0.0
 11
280.1867907999986
 21
263.5790525349998
 31
0.0
  0
LINE
  5
125F6
  8
DETAIL
  6
DIVIDE
 62
     5
 10
449.0993989679992
 20
146.2008005319999
 30
0.0
 11
449.0993989679992
 21
150.4036023939998
 31
0.0
  0
LINE
  5
125F7
  8
DETAIL
  6
DIVIDE
 62
     5
 10
449.0993989679992
 20
700.3702460499999
 30
0.0
 11
449.0993989679992
 21
699.7698457839997
 31
0.0
  0
LINE
  5
125F8
  8
DETAIL
  6
DIVIDE
 62
     5
 10
450.3001994999977
 20
699.169445518
 30
0.0
 11
450.3001994999977
 21
150.4036023939998
 31
0.0
  0
LINE
  5
125F9
  8
DETAIL
  6
DIVIDE
 62
     5
 10
463.3088719299994
 20
149.8032021279996
 30
0.0
 11
463.3088719299994
 21
149.2028018619999
 31
0.0
  0
LINE
  5
125FA
  8
DETAIL
  6
DIVIDE
 62
     5
 10
465.3102061499994
 20
149.8032021279996
 30
0.0
 11
465.3102061499994
 21
149.2028018619999
 31
0.0
  0
LINE
  5
125FB
  8
DETAIL
  6
DIVIDE
 62
     5
 10
449.0993989679992
 20
150.4036023939998
 30
0.0
 11
450.3001994999977
 21
150.4036023939998
 31
0.0
  0
LINE
  5
125FC
  8
DETAIL
  6
DIVIDE
 62
     5
 10
465.3102061499994
 20
149.8032021279996
 30
0.0
 11
450.9005997659988
 21
149.8032021279996
 31
0.0
  0
LINE
  5
125FD
  8
DETAIL
  6
DIVIDE
 62
     5
 10
465.3102061499994
 20
149.2028018619999
 30
0.0
 11
450.9005997659988
 21
149.2028018619999
 31
0.0
  0
LINE
  5
125FE
  8
DETAIL
  6
DIVIDE
 62
     5
 10
400.2668439999979
 20
148.6024015960002
 30
0.0
 11
397.8652429360009
 21
148.6024015960002
 31
0.0
  0
LINE
  5
125FF
  8
DETAIL
  6
CONTINUOUS
 62
     5
 10
0.0
 20
147.6017344860002
 30
0.0
 11
13.00867243000175
 21
147.6017344860002
 31
0.0
  0
LINE
  5
12600
  8
DETAIL
  6
DIVIDE
 62
     5
 10
400.2668439999979
 20
147.4016010639998
 30
0.0
 11
401.4676445319965
 21
147.4016010639998
 31
0.0
  0
LINE
  5
12601
  8
DETAIL
  6
CONTINUOUS
 62
     5
 10
2.011340891098371
 20
146.8112074690998
 30
0.0
 11
0.9028160160742118
 21
146.8112074690998
 31
0.0
  0
LINE
  5
12602
  8
DETAIL
  6
CONTINUOUS
 62
     5
 10
2.001334219996352
 20
146.8012007979996
 30
0.0
 11
0.9084224036560045
 21
146.8012007979996
 31
0.0
  0
LINE
  5
12603
  8
DETAIL
  6
CONTINUOUS
 62
     5
 10
1.601067375995626
 20
146.4009339539998
 30
0.0
 11
2.011340891098371
 21
146.4009339539998
 31
0.0
  0
LINE
  5
12604
  8
DETAIL
  6
CONTINUOUS
 62
     5
 10
351.6344224539971
 20
146.2008005319999
 30
0.0
 11
2.011340891098371
 21
146.2008005319999
 31
0.0
  0
LINE
  5
12605
  8
DETAIL
  6
DIVIDE
 62
     5
 10
401.4676445319965
 20
146.2008005319999
 30
0.0
 11
449.0993989679992
 21
146.2008005319999
 31
0.0
  0
LINE
  5
12606
  8
DETAIL
  6
CONTINUOUS
 62
     5
 10
368.6457633239988
 20
145.0
 30
0.0
 11
1.000667109998176
 21
145.0
 31
0.0
  0
LINE
  5
12607
  8
DETAIL
  6
CONTINUOUS
 62
     5
 10
368.6457633239988
 20
145.0
 30
0.0
 11
607.4049357699951
 21
145.0
 31
0.0
  0
LINE
  5
12608
  8
DETAIL
  6
CONTINUOUS
 62
     5
 10
0.0
 20
145.0
 30
0.0
 11
1.000667109998176
 21
145.0
 31
0.0
  0
LINE
  5
12609
  8
DETAIL
  6
CONTINUOUS
 62
     5
 10
613.4089384299987
 20
121.9846564700001
 30
0.0
 11
610.4069370999969
 21
121.9846564700001
 31
0.0
  0
LINE
  5
1260A
  8
DETAIL
  6
CONTINUOUS
 62
     5
 10
610.4069370999969
 20
141.99799867
 30
0.0
 11
610.4069370999969
 21
68.815243850162
 31
0.0
  0
LINE
  5
1260B
  8
DETAIL
  6
CONTINUOUS
 62
     5
 10
613.4089384299987
 20
91.96464316999982
 30
0.0
 11
613.4089384299987
 21
121.9846564700001
 31
0.0
  0
LINE
  5
1260C
  8
DETAIL
  6
CONTINUOUS
 62
     5
 10
613.4089384299987
 20
113.2288192574997
 30
0.0
 11
618.0479212216742
 21
113.2288192574997
 31
0.0
  0
LINE
  5
1260D
  8
DETAIL
  6
CONTINUOUS
 62
     5
 10
613.4089384299987
 20
100.7204803824998
 30
0.0
 11
618.0479212216742
 21
100.7204803824998
 31
0.0
  0
LINE
  5
1260E
  8
DETAIL
  6
CONTINUOUS
 62
     5
 10
613.4089384299987
 20
91.96464316999982
 30
0.0
 11
610.4069370999969
 21
91.96464316999982
 31
0.0
  0
LINE
  5
1260F
  8
DETAIL
  6
CONTINUOUS
 62
     5
 10
599.335234718732
 20
54.33111256402299
 30
0.0
 11
438.9476938678672
 21
10.7209764567306
 31
0.0
  0
LINE
  5
12610
  8
DETAIL
  6
CONTINUOUS
 62
     5
 10
360.1816084915081
 20
0.2034691829998962
 30
0.0
 11
0.0
 21
0.2034691829998962
 31
0.0
  0
LINE
  5
12611
  8
DETAIL
  6
CONTINUOUS
 62
     5
 10
2.001334219996352
 20
146.2008005319999
 30
0.0
 11
2.011340891098371
 21
146.2008005319999
 31
0.0
  0
LINE
  5
12612
  8
DETAIL
  6
DIVIDE
 62
     5
 10
401.4676445319965
 20
146.8012007979996
 30
0.0
 11
449.0993989679992
 21
146.8012007979996
 31
0.0
  0
LINE
  5
12613
  8
DETAIL
  6
CONTINUOUS
 62
     5
 10
0.9084224036560045
 20
146.8012007979996
 30
0.0
 11
0.8005336879978131
 21
146.8012007979996
 31
0.0
  0
LINE
  5
12614
  8
DETAIL
  6
CONTINUOUS
 62
     5
 10
0.9028160160742118
 20
146.8112074690998
 30
0.0
 11
0.8005336879978131
 21
146.8112074690998
 31
0.0
  0
LINE
  5
12615
  8
DETAIL
  6
DIVIDE
 62
     5
 10
200.133421999999
 20
147.4016010639998
 30
0.0
 11
397.8652429360009
 21
147.4016010639998
 31
0.0
  0
LINE
  5
12616
  8
DETAIL
  6
DIVIDE
 62
     5
 10
449.6997992340002
 20
699.169445518
 30
0.0
 11
449.6997992340002
 21
150.4036023939998
 31
0.0
  0
LINE
  5
12617
  8
DETAIL
  6
DIVIDE
 62
     5
 10
447.8985984360006
 20
700.3702460499999
 30
0.0
 11
447.8985984360006
 21
699.7698457839997
 31
0.0
  0
LINE
  5
12618
  8
DETAIL
  6
CONTINUOUS
 62
     5
 10
354.0360235179978
 20
263.5790525349998
 30
0.0
 11
345.8519960827107
 21
263.5790525349998
 31
0.0
  0
LINE
  5
12619
  8
DETAIL
  6
CONTINUOUS
 62
     5
 10
330.2201462999983
 20
263.5790525349998
 30
0.0
 11
280.1867907999986
 21
263.5790525349998
 31
0.0
  0
LINE
  5
1261A
  8
DETAIL
  6
DIVIDE
 62
     5
 10
435.2901928499996
 20
700.3702460499999
 30
0.0
 11
435.2901928499996
 21
699.7698457839997
 31
0.0
  0
LINE
  5
1261B
  8
DETAIL
  6
DIVIDE
 62
     5
 10
434.089392318001
 20
700.3702460499999
 30
0.0
 11
434.089392318001
 21
699.7698457839997
 31
0.0
  0
LINE
  5
1261C
  8
DETAIL
  6
DIVIDE
 62
     5
 10
401.9679780869992
 20
648.1354622672393
 30
0.0
 11
401.9679780869992
 21
648.735820220531
 31
0.0
  0
LINE
  5
1261D
  8
DETAIL
  6
DIVIDE
 62
     5
 10
401.9679780869992
 20
651.9379608794688
 30
0.0
 11
401.9679780869992
 21
652.5383188322603
 31
0.0
  0
LINE
  5
1261E
  8
DETAIL
  6
DIVIDE
 62
     5
 10
401.9679780869992
 20
648.735820220531
 30
0.0
 11
401.9679780869992
 21
651.9379608794688
 31
0.0
  0
LINE
  5
1261F
  8
DETAIL
  6
DIVIDE
 62
     5
 10
400.867244265999
 20
699.169445518
 30
0.0
 11
400.867244265999
 21
147.4016010639998
 31
0.0
  0
LINE
  5
12620
  8
DETAIL
  6
DIVIDE
 62
     5
 10
399.0660434679994
 20
296.3008670319996
 30
0.0
 11
399.0660434679994
 21
148.6024015960002
 31
0.0
  0
LINE
  5
12621
  8
DETAIL
  6
CONTINUOUS
 62
     5
 10
355.23682405
 20
146.8012007979996
 30
0.0
 11
355.23682405
 21
262.3782520029999
 31
0.0
  0
LINE
  5
12622
  8
DETAIL
  6
CONTINUOUS
 62
     5
 10
2.001334219996352
 20
145.6004002660002
 30
0.0
 11
2.001334219996352
 21
146.4009339539998
 31
0.0
  0
LINE
  5
12623
  8
DETAIL
  6
CONTINUOUS
 62
     5
 10
0.8005336879978131
 20
147.2014676419994
 30
0.0
 11
0.8005336879978131
 21
146.8012007979996
 31
0.0
  0
LINE
  5
12624
  8
DETAIL
  6
DIVIDE
 62
     5
 10
401.4676445319965
 20
648.1354229079998
 30
0.0
 11
401.9679780869992
 21
648.1354229079998
 31
0.0
  0
LINE
  5
12625
  8
DETAIL
  6
DIVIDE
 62
     5
 10
401.4676445319965
 20
648.735823174
 30
0.0
 11
401.9679780869992
 21
648.735823174
 31
0.0
  0
LINE
  5
12626
  8
DETAIL
  6
DIVIDE
 62
     5
 10
401.4676445319965
 20
651.9379579260003
 30
0.0
 11
401.9679780869992
 21
651.9379579260003
 31
0.0
  0
LINE
  5
12627
  8
DETAIL
  6
DIVIDE
 62
     5
 10
401.4676445319965
 20
652.538358192
 30
0.0
 11
401.9679780869992
 21
652.538358192
 31
0.0
  0
LINE
  5
12628
  8
DETAIL
  6
DIVIDE
 62
     5
 10
401.4676445319965
 20
699.7698457839997
 30
0.0
 11
448.6991321239984
 21
699.7698457839997
 31
0.0
  0
ARC
  5
12629
  8
DETAIL
  6
CONTINUOUS
 62
     5
 10
355.8372243159974
 20
146.8012007979996
 30
0.0
 40
0.60040026600002
 50
180.0
 51
270.0
  0
ARC
  5
1262A
  8
DETAIL
  6
CONTINUOUS
 62
     5
 10
354.0360235179978
 20
262.3782520029999
 30
0.0
 40
1.20080053200005
 50
0.0
 51
90.0
  0
ARC
  5
1262B
  8
DETAIL
  6
DIVIDE
 62
     5
 10
401.4676445319965
 20
653.1387584580002
 30
0.0
 40
1.20080053200005
 50
180.0
 51
270.0
  0
ARC
  5
1262C
  8
DETAIL
  6
DIVIDE
 62
     5
 10
401.4676445319965
 20
647.5350226420001
 30
0.0
 40
1.20080053199976
 50
90.0
 51
180.0
  0
ARC
  5
1262D
  8
DETAIL
  6
DIVIDE
 62
     5
 10
401.4676445319965
 20
653.1387584580002
 30
0.0
 40
0.60040026600002
 50
180.0
 51
270.0
  0
ARC
  5
1262E
  8
DETAIL
  6
DIVIDE
 62
     5
 10
401.4676445319965
 20
647.5350226420001
 30
0.0
 40
0.6004002659998798
 50
90.0
 51
180.0
  0
LINE
  5
1262F
  8
NOTE
  6
CONTINUOUS
 62
     4
 10
289.9999999999982
 20
256.0598233465648
 30
0.0
 11
289.9999999999982
 21
410.2504736585256
 31
0.0
  0
ARC
  5
12630
  8
DETAIL
  6
DIVIDE
 62
     5
 10
185.1234153499936
 20
293.3989324129998
 30
0.0
 40
110.3869629630544
 50
92.59784533586144
 51
166.794747470278
  0
LINE
  5
12631
  8
DETAIL
  6
CONTINUOUS
 62
     5
 10
180.1200797999954
 20
369.8922109582763
 30
0.0
 11
175.3764467166802
 21
358.8094525880106
 31
0.0
  0
LINE
  5
12632
  8
DETAIL
  6
CONTINUOUS
 62
     5
 10
175.3764467166802
 20
358.8094525880106
 30
0.0
 11
171.5985089175956
 21
348.0353566189997
 31
0.0
  0
LINE
  5
12633
  8
DETAIL
  6
CONTINUOUS
 62
     5
 10
171.5985089175956
 20
348.0353566189997
 30
0.0
 11
171.5985089175956
 21
348.0353566189997
 31
0.0
  0
LINE
  5
12634
  8
DETAIL
  6
CONTINUOUS
 62
     5
 10
171.5985089175956
 20
348.0353566189997
 30
0.0
 11
169.5437048912718
 21
337.7628370520288
 31
0.0
  0
LINE
  5
12635
  8
DETAIL
  6
CONTINUOUS
 62
     5
 10
169.5437048912718
 20
337.7628370520288
 30
0.0
 11
169.1364459434335
 21
327.7218142860002
 31
0.0
  0
LINE
  5
12636
  8
DETAIL
  6
CONTINUOUS
 62
     5
 10
169.1364459434335
 20
327.7218142860002
 30
0.0
 11
169.1364459434335
 21
327.7218142860002
 31
0.0
  0
LINE
  5
12637
  8
DETAIL
  6
CONTINUOUS
 62
     5
 10
169.1364459434335
 20
327.7218142860002
 30
0.0
 11
169.9070400344535
 21
318.615743585
 31
0.0
  0
LINE
  5
12638
  8
DETAIL
  6
CONTINUOUS
 62
     5
 10
169.9070400344535
 20
318.615743585
 30
0.0
 11
169.9070400344535
 21
318.615743585
 31
0.0
  0
LINE
  5
12639
  8
DETAIL
  6
CONTINUOUS
 62
     5
 10
180.1200797999954
 20
403.6724479349996
 30
0.0
 11
180.1200797999954
 21
369.8922109582454
 31
0.0
  0
LINE
  5
1263A
  8
DETAIL
  6
DIVIDE
 62
     5
 10
180.4202799330014
 20
403.6724479349996
 30
0.0
 11
180.1200797999954
 21
403.6724479349996
 31
0.0
  0
LINE
  5
1263B
  8
DETAIL
  6
CONTINUOUS
 62
     5
 10
180.4202799330014
 20
403.6724479349996
 30
0.0
 11
180.4202799330014
 21
318.615743585
 31
0.0
  0
LINE
  5
1263C
  8
DETAIL
  6
CONTINUOUS
 62
     5
 10
355.23682405
 20
248.4189135745037
 30
0.0
 11
355.23682405
 21
242.9153089569954
 31
0.0
  0
LINE
  5
1263D
  8
DETAIL
  6
CONTINUOUS
 62
     5
 10
355.23682405
 20
168.3655447745041
 30
0.0
 11
355.23682405
 21
162.8619401569954
 31
0.0
  0
LINE
  5
1263E
  8
BASIS
  6
DASHDOT
 62
     6
 10
145.0967309499974
 20
229.8126208491753
 30
0.0
 11
145.0967309499974
 21
360.2873729934272
 31
0.0
  0
ARC
  5
1263F
  8
OUTLINE
  6
CONTINUOUS
 62
     3
 10
1.601067375995626
 20
298.6024018070002
 30
0.0
 40
0.8005336880006405
 50
90.0
 51
180.0
  0
ARC
  5
12640
  8
OUTLINE
  6
CONTINUOUS
 62
     3
 10
1.601067375995626
 20
298.6024018070002
 30
0.0
 40
1.60106737599991
 50
90.0
 51
180.0
  0
ARC
  5
12641
  8
OUTLINE
  6
CONTINUOUS
 62
     3
 10
70.24683112199637
 20
279.3895928729999
 30
0.0
 40
0.8005336879997199
 50
270.0
 51
0.0
  0
ARC
  5
12642
  8
OUTLINE
  6
CONTINUOUS
 62
     3
 10
69.64643085599891
 20
276.9879918090001
 30
0.0
 40
1.60106737599945
 50
90.0
 51
180.0
  0
ARC
  5
12643
  8
OUTLINE
  6
CONTINUOUS
 62
     3
 10
60.04002659999969
 20
272.3849231029999
 30
0.0
 40
8.00533688000001
 50
317.5208960369156
 51
0.0
  0
ARC
  5
12644
  8
OUTLINE
  6
CONTINUOUS
 62
     3
 10
1.601067375995626
 20
147.2014676419994
 30
0.0
 40
0.8005336879999501
 50
180.0
 51
270.0
  0
ARC
  5
12645
  8
OUTLINE
  6
CONTINUOUS
 62
     3
 10
1.601067375995626
 20
147.2014676419994
 30
0.0
 40
1.60106737599989
 50
180.0
 51
270.0
  0
ARC
  5
12646
  8
OUTLINE
  6
CONTINUOUS
 62
     3
 10
360.1816084915081
 20
300.4036021829997
 30
0.0
 40
300.2001330000001
 50
270.0
 51
285.211245749413
  0
ARC
  5
12647
  8
OUTLINE
  6
CONTINUOUS
 62
     3
 10
607.4049357699951
 20
141.99799867
 30
0.0
 40
3.00200133000001
 50
0.0
 51
90.0
  0
ARC
  5
12648
  8
OUTLINE
  6
CONTINUOUS
 62
     3
 10
595.3969304499988
 20
68.815243850162
 30
0.0
 40
15.01000665
 50
285.2112457493861
 51
0.0
  0
LINE
  5
12649
  8
OUTLINE
  6
CONTINUOUS
 62
     3
 10
0.0
 20
147.2014676419994
 30
0.0
 11
0.0
 21
298.2021349630004
 31
0.0
  0
LINE
  5
1264A
  8
OUTLINE
  6
CONTINUOUS
 62
     3
 10
0.0
 20
0.2034691829998962
 30
0.0
 11
0.0
 21
145.6004002660002
 31
0.0
  0
LINE
  5
1264B
  8
OUTLINE
  6
CONTINUOUS
 62
     3
 10
0.8005336879978131
 20
147.2014676419994
 30
0.0
 11
0.8005336879978131
 21
147.6017344860002
 31
0.0
  0
LINE
  5
1264C
  8
OUTLINE
  6
CONTINUOUS
 62
     3
 10
2.001334219996352
 20
146.4009339539998
 30
0.0
 11
2.001334219996352
 21
146.8012007979996
 31
0.0
  0
LINE
  5
1264D
  8
OUTLINE
  6
CONTINUOUS
 62
     3
 10
2.001334219996352
 20
145.6004002660002
 30
0.0
 11
2.001334219996352
 21
145.0
 31
0.0
  0
LINE
  5
1264E
  8
OUTLINE
  6
CONTINUOUS
 62
     3
 10
2.011340891098371
 20
146.2008005319999
 30
0.0
 11
2.011340891098371
 21
146.8112074690998
 31
0.0
  0
LINE
  5
1264F
  8
OUTLINE
  6
CONTINUOUS
 62
     3
 10
2.011340891098371
 20
145.6004002660002
 30
0.0
 11
2.011340891098371
 21
146.2008005319999
 31
0.0
  0
LINE
  5
12650
  8
OUTLINE
  6
CONTINUOUS
 62
     3
 10
15.0100066499981
 20
298.2021349630004
 30
0.0
 11
15.0100066499981
 21
149.6030687060002
 31
0.0
  0
LINE
  5
12651
  8
OUTLINE
  6
CONTINUOUS
 62
     3
 10
15.0100066499981
 20
300.2034691829999
 30
0.0
 11
15.0100066499981
 21
299.4029354949998
 31
0.0
  0
LINE
  5
12652
  8
OUTLINE
  6
CONTINUOUS
 62
     3
 10
45.03001994999795
 20
263.5790525349998
 30
0.0
 11
45.03001994999795
 21
266.9813207090001
 31
0.0
  0
LINE
  5
12653
  8
OUTLINE
  6
CONTINUOUS
 62
     3
 10
68.04536347999965
 20
272.3849231029999
 30
0.0
 11
68.04536347999965
 21
276.9879918090001
 31
0.0
  0
LINE
  5
12654
  8
OUTLINE
  6
CONTINUOUS
 62
     3
 10
71.04736480999782
 20
279.3895928729999
 30
0.0
 11
71.04736480999782
 21
318.615743585
 31
0.0
  0
LINE
  5
12655
  8
OUTLINE
  6
CONTINUOUS
 62
     3
 10
219.1460970899989
 20
279.3895928729999
 30
0.0
 11
219.1460970900007
 21
318.615743585
 31
0.0
  0
LINE
  5
12656
  8
OUTLINE
  6
CONTINUOUS
 62
     3
 10
15.0100066499981
 20
149.6030687060002
 30
0.0
 11
13.00867243000175
 21
147.6017344860002
 31
0.0
  0
LINE
  5
12657
  8
OUTLINE
  6
CONTINUOUS
 62
     3
 10
1.601067375995626
 20
300.2034691829999
 30
0.0
 11
15.0100066499981
 21
300.2034691829999
 31
0.0
  0
LINE
  5
12658
  8
OUTLINE
  6
CONTINUOUS
 62
     3
 10
1.601067375995626
 20
299.4029354949998
 30
0.0
 11
15.0100066499981
 21
299.4029354949998
 31
0.0
  0
LINE
  5
12659
  8
OUTLINE
  6
CONTINUOUS
 62
     3
 10
0.0
 20
298.2021349630004
 30
0.0
 11
15.0100066499981
 21
298.2021349630004
 31
0.0
  0
LINE
  5
1265A
  8
OUTLINE
  6
CONTINUOUS
 62
     3
 10
219.1460970900007
 20
318.615743585
 30
0.0
 11
71.04736480999782
 21
318.615743585
 31
0.0
  0
LINE
  5
1265B
  8
OUTLINE
  6
CONTINUOUS
 62
     3
 10
330.2201462999983
 20
263.5790525349998
 30
0.0
 11
345.8519960827107
 21
263.5790525349998
 31
0.0
  0
LINE
  5
1265C
  8
OUTLINE
  6
CONTINUOUS
 62
     3
 10
15.0100066499981
 20
263.5790525349998
 30
0.0
 11
280.1867907999986
 21
263.5790525349998
 31
0.0
  0
LINE
  5
1265D
  8
OUTLINE
  6
CONTINUOUS
 62
     3
 10
0.0
 20
147.6017344860002
 30
0.0
 11
13.00867243000175
 21
147.6017344860002
 31
0.0
  0
LINE
  5
1265E
  8
OUTLINE
  6
CONTINUOUS
 62
     3
 10
2.011340891098371
 20
146.8112074690998
 30
0.0
 11
0.9028160160742118
 21
146.8112074690998
 31
0.0
  0
LINE
  5
1265F
  8
OUTLINE
  6
CONTINUOUS
 62
     3
 10
2.001334219996352
 20
146.8012007979996
 30
0.0
 11
0.9084224036560045
 21
146.8012007979996
 31
0.0
  0
LINE
  5
12660
  8
OUTLINE
  6
CONTINUOUS
 62
     3
 10
1.601067375995626
 20
146.4009339539998
 30
0.0
 11
2.011340891098371
 21
146.4009339539998
 31
0.0
  0
LINE
  5
12661
  8
OUTLINE
  6
CONTINUOUS
 62
     3
 10
351.6344224539971
 20
146.2008005319999
 30
0.0
 11
2.011340891098371
 21
146.2008005319999
 31
0.0
  0
LINE
  5
12662
  8
OUTLINE
  6
CONTINUOUS
 62
     3
 10
368.6457633239988
 20
145.0
 30
0.0
 11
607.4049357699951
 21
145.0
 31
0.0
  0
LINE
  5
12663
  8
OUTLINE
  6
CONTINUOUS
 62
     3
 10
0.0
 20
145.0
 30
0.0
 11
1.000667109998176
 21
145.0
 31
0.0
  0
LINE
  5
12664
  8
OUTLINE
  6
CONTINUOUS
 62
     3
 10
610.4069370999969
 20
141.99799867
 30
0.0
 11
610.4069370999969
 21
68.815243850162
 31
0.0
  0
LINE
  5
12665
  8
OUTLINE
  6
CONTINUOUS
 62
     3
 10
599.335234718732
 20
54.33111256402299
 30
0.0
 11
438.9476938678672
 21
10.7209764567306
 31
0.0
  0
LINE
  5
12666
  8
OUTLINE
  6
CONTINUOUS
 62
     3
 10
360.1816084915081
 20
0.2034691829998962
 30
0.0
 11
0.0
 21
0.2034691829998962
 31
0.0
  0
LINE
  5
12667
  8
OUTLINE
  6
CONTINUOUS
 62
     3
 10
2.001334219996352
 20
146.2008005319999
 30
0.0
 11
2.011340891098371
 21
146.2008005319999
 31
0.0
  0
LINE
  5
12668
  8
OUTLINE
  6
CONTINUOUS
 62
     3
 10
0.9084224036560045
 20
146.8012007979996
 30
0.0
 11
0.8005336879978131
 21
146.8012007979996
 31
0.0
  0
LINE
  5
12669
  8
OUTLINE
  6
CONTINUOUS
 62
     3
 10
0.9028160160742118
 20
146.8112074690998
 30
0.0
 11
0.8005336879978131
 21
146.8112074690998
 31
0.0
  0
LINE
  5
1266A
  8
OUTLINE
  6
CONTINUOUS
 62
     3
 10
354.0360235179978
 20
263.5790525349998
 30
0.0
 11
345.8519960827107
 21
263.5790525349998
 31
0.0
  0
LINE
  5
1266B
  8
OUTLINE
  6
CONTINUOUS
 62
     3
 10
330.2201462999983
 20
263.5790525349998
 30
0.0
 11
280.1867907999986
 21
263.5790525349998
 31
0.0
  0
LINE
  5
1266C
  8
OUTLINE
  6
CONTINUOUS
 62
     3
 10
355.23682405
 20
146.8012007979996
 30
0.0
 11
355.23682405
 21
262.3782520029999
 31
0.0
  0
LINE
  5
1266D
  8
OUTLINE
  6
CONTINUOUS
 62
     3
 10
2.001334219996352
 20
145.6004002660002
 30
0.0
 11
2.001334219996352
 21
146.4009339539998
 31
0.0
  0
LINE
  5
1266E
  8
OUTLINE
  6
CONTINUOUS
 62
     3
 10
0.8005336879978131
 20
147.2014676419994
 30
0.0
 11
0.8005336879978131
 21
146.8012007979996
 31
0.0
  0
ARC
  5
1266F
  8
OUTLINE
  6
CONTINUOUS
 62
     3
 10
355.8372243159974
 20
146.8012007979996
 30
0.0
 40
0.60040026600002
 50
180.0
 51
270.0
  0
ARC
  5
12670
  8
OUTLINE
  6
CONTINUOUS
 62
     3
 10
354.0360235179978
 20
262.3782520029999
 30
0.0
 40
1.20080053200005
 50
0.0
 51
90.0
  0
LINE
  5
12671
  8
OUTLINE
  6
CONTINUOUS
 62
     3
 10
355.23682405
 20
248.4189135745037
 30
0.0
 11
355.23682405
 21
242.9153089569954
 31
0.0
  0
LINE
  5
12672
  8
OUTLINE
  6
CONTINUOUS
 62
     3
 10
355.23682405
 20
168.3655447745041
 30
0.0
 11
355.23682405
 21
162.8619401569954
 31
0.0
  0
LINE
  5
12673
  8
DETAIL
  6
DIVIDE
 62
     5
 10
200.133421999999
 20
146.2008005319999
 30
0.0
 11
200.133421999999
 21
156.2074716320003
 31
0.0
  0
LINE
  5
12674
  8
NOTE
  6
CONTINUOUS
 62
     4
 10
-24.0160106400017
 20
283.2034691829999
 30
0.0
 11
24.0160106400017
 21
283.2034691829999
 31
0.0
  0
LINE
  5
12675
  8
NOTE
  6
CONTINUOUS
 62
     4
 10
0.000000000001819
 20
307.2194798229998
 30
0.0
 11
0.000000000001819
 21
259.1874585429996
 31
0.0
  0
LINE
  5
12676
  8
NOTE
  6
CONTINUOUS
 62
     4
 10
-23.51567708499897
 20
101.2034691829999
 30
0.0
 11
23.51567708499897
 21
101.2034691829999
 31
0.0
  0
LINE
  5
12677
  8
NOTE
  6
CONTINUOUS
 62
     4
 10
-0.000000000001819
 20
124.7191462679998
 30
0.0
 11
-0.000000000001819
 21
77.68779209799959
 31
0.0
  0
CIRCLE
  5
12678
  8
FIX
  6
CONTINUOUS
 62
    11
 39
50.0
 10
0.0
 20
101.2034691829999
 30
0.0
 40
5.0
  0
CIRCLE
  5
12679
  8
FIX
  6
CONTINUOUS
 62
    11
 39
50.0
 10
0.0
 20
283.2034691829999
 30
0.0
 40
5.0
  0
LINE
  5
1267A
  8
DETAIL
  6
CONTINUOUS
 62
     4
 10
284.1105776382102
 20
302.1781599270057
 30
0.0
 11
289.9999999999991
 21
300.2034691830008
 31
0.0
  0
LINE
  5
1267B
  8
DETAIL
  6
CONTINUOUS
 62
     4
 10
289.9999999999991
 20
300.2034691830008
 30
0.0
 11
285.8869630076682
 21
304.8583189109422
 31
0.0
  0
LINE
  5
1267C
  8
DETAIL
  6
CONTINUOUS
 62
     4
 10
289.9999999999991
 20
300.2034691830008
 30
0.0
 11
279.9975406458793
 21
306.8330096549471
 31
0.0
  0
LINE
  5
1267D
  8
NOTE
  6
CONTINUOUS
 62
     4
 10
279.9975406458789
 20
306.8330096549471
 30
0.0
 11
-95.30901607618671
 21
552.9582507922446
 31
0.0
  0
LINE
  5
1267E
  8
NOTE
  6
CONTINUOUS
 62
     4
 10
-95.30901607618671
 20
552.9582507922446
 30
0.0
 11
-730.7689748893426
 21
552.9582507922446
 31
0.0
  0
TEXT
  5
1267F
  8
NOTE
  6
CONTINUOUS
 62
     4
 10
-720.8023760864141
 20
601.4305498285912
 30
0.0
 40
64.0
  1
AH 2-Φ12×47
 41
0.9
 72
     2
 11
-117.3738046578428
 21
601.4305498285912
 31
0.0
  0
CIRCLE
  5
12680
  8
FIX
  6
CONTINUOUS
 62
    11
 39
50.0
 10
290.0
 20
300.2034691829999
 30
0.0
 40
5.0
  0
LINE
  5
12681
  8
SIZE
  6
CONTINUOUS
 62
    30
 10
219.1460970900007
 20
338.615743585
 30
0.0
 11
219.1460970900007
 21
668.3705397010126
 31
0.0
  0
LINE
  5
12682
  8
SIZE
  6
CONTINUOUS
 62
    30
 10
71.04736480999782
 20
338.615743585
 30
0.0
 11
71.04736480999784
 21
668.3705397010126
 31
0.0
  0
LINE
  5
12683
  8
SIZE
  6
CONTINUOUS
 62
    30
 10
207.1460970900007
 20
648.3705397010126
 30
0.0
 11
83.04736480999783
 21
648.3705397010126
 31
0.0
  0
CIRCLE
  5
12684
  8
SIZE
  6
CONTINUOUS
 62
    30
 10
219.1460970900007
 20
648.3705397010126
 30
0.0
 40
6.0
  0
LINE
  5
12685
  8
SIZE
  6
CONTINUOUS
 62
    30
 10
219.1460970900007
 20
648.3705397010126
 30
0.0
 11
207.1460970900007
 21
648.3705397010126
 31
0.0
  0
CIRCLE
  5
12686
  8
SIZE
  6
CONTINUOUS
 62
    30
 10
71.04736480999783
 20
648.3705397010126
 30
0.0
 40
6.0
  0
LINE
  5
12687
  8
SIZE
  6
CONTINUOUS
 62
    30
 10
71.04736480999783
 20
648.3705397010126
 30
0.0
 11
83.04736480999783
 21
648.3705397010126
 31
0.0
  0
TEXT
  5
12688
  8
SIZE
  6
CONTINUOUS
 62
    30
 10
38.12530237857074
 20
684.0372063676792
 30
0.0
 40
64.0
  1
φ148
 41
0.9
 72
     1
 11
145.0967309499993
 21
684.0372063676792
 31
0.0
  0
POINT
  5
12689
  8
DEFPOINTS
  6
CONTINUOUS
 62
    30
 10
219.1460970900007
 20
318.615743585
 30
0.0
  0
POINT
  5
1268A
  8
DEFPOINTS
  6
CONTINUOUS
 62
    30
 10
71.04736480999782
 20
318.615743585
 30
0.0
  0
POINT
  5
1268B
  8
DEFPOINTS
  6
CONTINUOUS
 62
    30
 10
71.04736480999783
 20
648.3705397010126
 30
0.0
  0
LINE
  5
1268C
  8
SIZE
  6
CONTINUOUS
 62
    30
 10
450.3001994999977
 20
719.169445518
 30
0.0
 11
450.3001994999977
 21
847.3069353690826
 31
0.0
  0
LINE
  5
1268D
  8
SIZE
  6
CONTINUOUS
 62
    30
 10
400.2668439999979
 20
719.169445518
 30
0.0
 11
400.2668439999979
 21
847.3069353690826
 31
0.0
  0
LINE
  5
1268E
  8
SIZE
  6
CONTINUOUS
 62
    30
 10
388.2668439999979
 20
827.3069353690826
 30
0.0
 11
376.2668439999979
 21
827.3069353690826
 31
0.0
  0
LINE
  5
1268F
  8
SIZE
  6
CONTINUOUS
 62
    30
 10
462.3001994999977
 20
827.3069353690826
 30
0.0
 11
617.5573423571404
 21
827.3069353690826
 31
0.0
  0
LINE
  5
12690
  8
SIZE
  6
CONTINUOUS
 62
    30
 10
400.2668439999979
 20
827.3069353690826
 30
0.0
 11
450.3001994999977
 21
827.3069353690826
 31
0.0
  0
CIRCLE
  5
12691
  8
SIZE
  6
CONTINUOUS
 62
    30
 10
400.2668439999979
 20
827.3069353690826
 30
0.0
 40
6.0
  0
LINE
  5
12692
  8
SIZE
  6
CONTINUOUS
 62
    30
 10
400.2668439999979
 20
827.3069353690826
 30
0.0
 11
388.2668439999979
 21
827.3069353690826
 31
0.0
  0
CIRCLE
  5
12693
  8
SIZE
  6
CONTINUOUS
 62
    30
 10
450.3001994999977
 20
827.3069353690826
 30
0.0
 40
6.0
  0
LINE
  5
12694
  8
SIZE
  6
CONTINUOUS
 62
    30
 10
450.3001994999977
 20
827.3069353690826
 30
0.0
 11
462.3001994999977
 21
827.3069353690826
 31
0.0
  0
TEXT
  5
12695
  8
SIZE
  6
CONTINUOUS
 62
    30
 10
491.0716280714262
 20
852.3069353690826
 30
0.0
 40
64.0
  1
50
 41
0.9
 72
     1
 11
545.9287709285691
 21
852.3069353690826
 31
0.0
  0
POINT
  5
12696
  8
DEFPOINTS
  6
CONTINUOUS
 62
    30
 10
450.3001994999977
 20
699.169445518
 30
0.0
  0
POINT
  5
12697
  8
DEFPOINTS
  6
CONTINUOUS
 62
    30
 10
400.2668439999979
 20
699.169445518
 30
0.0
  0
POINT
  5
12698
  8
DEFPOINTS
  6
CONTINUOUS
 62
    30
 10
400.2668439999979
 20
827.3069353690826
 30
0.0
  0
LINE
  5
12699
  8
SIZE
  6
CONTINUOUS
 62
    30
 10
610.4069370999969
 20
48.81524385016201
 30
0.0
 11
610.4069370999969
 21
-253.5557871736564
 31
0.0
  0
LINE
  5
1269A
  8
SIZE
  6
CONTINUOUS
 62
    30
 10
-0.0000000000000012
 20
-40.62939102656489
 30
0.0
 11
-0.0000000000000143
 21
-253.5557871736564
 31
0.0
  0
LINE
  5
1269B
  8
SIZE
  6
CONTINUOUS
 62
    30
 10
598.4069370999969
 20
-233.5557871736564
 30
0.0
 11
11.99999999999999
 21
-233.5557871736564
 31
0.0
  0
CIRCLE
  5
1269C
  8
SIZE
  6
CONTINUOUS
 62
    30
 10
610.4069370999969
 20
-233.5557871736564
 30
0.0
 40
6.0
  0
LINE
  5
1269D
  8
SIZE
  6
CONTINUOUS
 62
    30
 10
610.4069370999969
 20
-233.5557871736564
 30
0.0
 11
598.4069370999969
 21
-233.5557871736564
 31
0.0
  0
CIRCLE
  5
1269E
  8
SIZE
  6
CONTINUOUS
 62
    30
 10
-0.000000000000013
 20
-233.5557871736564
 30
0.0
 40
6.0
  0
LINE
  5
1269F
  8
SIZE
  6
CONTINUOUS
 62
    30
 10
-0.000000000000013
 20
-233.5557871736564
 30
0.0
 11
11.99999999999999
 21
-233.5557871736564
 31
0.0
  0
TEXT
  5
126A0
  8
SIZE
  6
CONTINUOUS
 62
    30
 10
221.5463256928555
 20
-208.5557871736564
 30
0.0
 40
64.0
  1
610
 41
0.9
 72
     1
 11
305.2034685499984
 21
-208.5557871736564
 31
0.0
  0
POINT
  5
126A1
  8
DEFPOINTS
  6
CONTINUOUS
 62
    30
 10
610.4069370999969
 20
68.815243850162
 30
0.0
  0
POINT
  5
126A2
  8
DEFPOINTS
  6
CONTINUOUS
 62
    30
 10
0.0
 20
-20.62939102656489
 30
0.0
  0
POINT
  5
126A3
  8
DEFPOINTS
  6
CONTINUOUS
 62
    30
 10
-0.000000000000013
 20
-233.5557871736564
 30
0.0
  0
LINE
  5
126A4
  8
SIZE
  6
CONTINUOUS
 62
    30
 10
647.4049357699951
 20
145.0
 30
0.0
 11
899.7232250217758
 21
144.9999999999999
 31
0.0
  0
LINE
  5
126A5
  8
SIZE
  6
CONTINUOUS
 62
    30
 10
624.6543767714338
 20
56.99999999999999
 30
0.0
 11
899.7232250217758
 21
56.99999999999991
 31
0.0
  0
LINE
  5
126A6
  8
SIZE
  6
CONTINUOUS
 62
    30
 10
879.7232250217758
 20
132.9999999999999
 30
0.0
 11
879.7232250217758
 21
68.99999999999991
 31
0.0
  0
LINE
  5
126A7
  8
SIZE
  6
CONTINUOUS
 62
    30
 10
879.7232250217758
 20
56.99999999999991
 30
0.0
 11
879.7232250217756
 21
-235.2483097490298
 31
0.0
  0
CIRCLE
  5
126A8
  8
SIZE
  6
CONTINUOUS
 62
    30
 10
879.7232250217758
 20
144.9999999999999
 30
0.0
 40
6.0
  0
LINE
  5
126A9
  8
SIZE
  6
CONTINUOUS
 62
    30
 10
879.7232250217758
 20
144.9999999999999
 30
0.0
 11
879.7232250217758
 21
132.9999999999999
 31
0.0
  0
CIRCLE
  5
126AA
  8
SIZE
  6
CONTINUOUS
 62
    30
 10
879.7232250217758
 20
56.99999999999991
 30
0.0
 40
6.0
  0
LINE
  5
126AB
  8
SIZE
  6
CONTINUOUS
 62
    30
 10
879.7232250217758
 20
56.99999999999991
 30
0.0
 11
879.7232250217758
 21
68.99999999999991
 31
0.0
  0
TEXT
  5
126AC
  8
SIZE
  6
CONTINUOUS
 62
    30
 10
854.7232250217758
 20
-226.9797383204583
 30
0.0
 40
64.0
  1
（88）
 50
90.0
 41
0.9
 72
     1
 11
854.7232250217758
 21
-122.7511668918869
 31
0.0
  0
POINT
  5
126AD
  8
DEFPOINTS
  6
CONTINUOUS
 62
    30
 10
627.4049357699951
 20
145.0
 30
0.0
  0
POINT
  5
126AE
  8
DEFPOINTS
  6
CONTINUOUS
 62
    30
 10
604.6543767714338
 20
57.0
 30
0.0
  0
POINT
  5
126AF
  8
DEFPOINTS
  6
CONTINUOUS
 62
    30
 10
879.7232250217758
 20
56.99999999999991
 30
0.0
  0
LINE
  5
126B0
  8
SIZE
  6
CONTINUOUS
 62
    30
 10
647.4049357699951
 20
145.0
 30
0.0
 11
1033.351484760746
 21
144.9999999999999
 31
0.0
  0
LINE
  5
126B1
  8
SIZE
  6
CONTINUOUS
 62
    30
 10
647.4049357699951
 20
0.0
 30
0.0
 11
1033.351484760746
 21
-0.0000000000001137
 31
0.0
  0
LINE
  5
126B2
  8
SIZE
  6
CONTINUOUS
 62
    30
 10
1013.351484760746
 20
132.9999999999999
 30
0.0
 11
1013.351484760746
 21
11.99999999999989
 31
0.0
  0
LINE
  5
126B3
  8
SIZE
  6
CONTINUOUS
 62
    30
 10
1013.351484760746
 20
-0.0000000000001137
 30
0.0
 11
1013.351484760746
 21
-199.1428571428572
 31
0.0
  0
CIRCLE
  5
126B4
  8
SIZE
  6
CONTINUOUS
 62
    30
 10
1013.351484760746
 20
144.9999999999999
 30
0.0
 40
6.0
  0
LINE
  5
126B5
  8
SIZE
  6
CONTINUOUS
 62
    30
 10
1013.351484760746
 20
144.9999999999999
 30
0.0
 11
1013.351484760746
 21
132.9999999999999
 31
0.0
  0
CIRCLE
  5
126B6
  8
SIZE
  6
CONTINUOUS
 62
    30
 10
1013.351484760746
 20
-0.0000000000001137
 30
0.0
 40
6.0
  0
LINE
  5
126B7
  8
SIZE
  6
CONTINUOUS
 62
    30
 10
1013.351484760746
 20
-0.0000000000001137
 30
0.0
 11
1013.351484760746
 21
11.99999999999989
 31
0.0
  0
TEXT
  5
126B8
  8
SIZE
  6
CONTINUOUS
 62
    30
 10
988.3514847607457
 20
-191.9714285714285
 30
0.0
 40
64.0
  1
145
 50
90.0
 41
0.9
 72
     1
 11
988.3514847607457
 21
-105.5714285714285
 31
0.0
  0
POINT
  5
126B9
  8
DEFPOINTS
  6
CONTINUOUS
 62
    30
 10
627.4049357699951
 20
145.0
 30
0.0
  0
POINT
  5
126BA
  8
DEFPOINTS
  6
CONTINUOUS
 62
    30
 10
627.4049357699951
 20
0.0
 30
0.0
  0
POINT
  5
126BB
  8
DEFPOINTS
  6
CONTINUOUS
 62
    30
 10
1013.351484760746
 20
-0.0000000000001137
 30
0.0
  0
LINE
  5
126BC
  8
SIZE
  6
CONTINUOUS
 62
    30
 10
469.0993989679992
 20
700.3702460499999
 30
0.0
 11
899.7232250217759
 21
700.3702460499998
 31
0.0
  0
LINE
  5
126BD
  8
SIZE
  6
CONTINUOUS
 62
    30
 10
647.4049357699951
 20
145.0
 30
0.0
 11
899.7232250217758
 21
144.9999999999999
 31
0.0
  0
LINE
  5
126BE
  8
SIZE
  6
CONTINUOUS
 62
    30
 10
879.7232250217759
 20
688.3702460499998
 30
0.0
 11
879.7232250217758
 21
156.9999999999999
 31
0.0
  0
CIRCLE
  5
126BF
  8
SIZE
  6
CONTINUOUS
 62
    30
 10
879.7232250217759
 20
700.3702460499998
 30
0.0
 40
6.0
  0
LINE
  5
126C0
  8
SIZE
  6
CONTINUOUS
 62
    30
 10
879.7232250217759
 20
700.3702460499998
 30
0.0
 11
879.7232250217759
 21
688.3702460499998
 31
0.0
  0
CIRCLE
  5
126C1
  8
SIZE
  6
CONTINUOUS
 62
    30
 10
879.7232250217758
 20
144.9999999999999
 30
0.0
 40
6.0
  0
LINE
  5
126C2
  8
SIZE
  6
CONTINUOUS
 62
    30
 10
879.7232250217758
 20
144.9999999999999
 30
0.0
 11
879.7232250217758
 21
156.9999999999999
 31
0.0
  0
TEXT
  5
126C3
  8
SIZE
  6
CONTINUOUS
 62
    30
 10
854.7232250217758
 20
291.027980167857
 30
0.0
 40
64.0
  1
（555）
 50
90.0
 41
0.9
 72
     1
 11
854.7232250217758
 21
422.6851230249999
 31
0.0
  0
POINT
  5
126C4
  8
DEFPOINTS
  6
CONTINUOUS
 62
    30
 10
449.0993989679992
 20
700.3702460499999
 30
0.0
  0
POINT
  5
126C5
  8
DEFPOINTS
  6
CONTINUOUS
 62
    30
 10
627.4049357699951
 20
145.0
 30
0.0
  0
POINT
  5
126C6
  8
DEFPOINTS
  6
CONTINUOUS
 62
    30
 10
879.7232250217758
 20
144.9999999999999
 30
0.0
  0
LINE
  5
126C7
  8
SIZE
  6
CONTINUOUS
 62
    30
 10
145.0967309499974
 20
380.2873729934272
 30
0.0
 11
145.0967309499975
 21
819.0992361061753
 31
0.0
  0
LINE
  5
126C8
  8
SIZE
  6
CONTINUOUS
 62
    30
 10
0.0000000000000012
 20
396.9579498998228
 30
0.0
 11
0.0000000000000271
 21
819.0992361061753
 31
0.0
  0
LINE
  5
126C9
  8
SIZE
  6
CONTINUOUS
 62
    30
 10
133.0967309499975
 20
799.0992361061753
 30
0.0
 11
12.00000000000003
 21
799.0992361061753
 31
0.0
  0
LINE
  5
126CA
  8
SIZE
  6
CONTINUOUS
 62
    30
 10
0.0000000000000258
 20
799.0992361061753
 30
0.0
 11
-199.1428571428571
 21
799.0992361061753
 31
0.0
  0
CIRCLE
  5
126CB
  8
SIZE
  6
CONTINUOUS
 62
    30
 10
145.0967309499975
 20
799.0992361061753
 30
0.0
 40
6.0
  0
LINE
  5
126CC
  8
SIZE
  6
CONTINUOUS
 62
    30
 10
145.0967309499975
 20
799.0992361061753
 30
0.0
 11
133.0967309499975
 21
799.0992361061753
 31
0.0
  0
CIRCLE
  5
126CD
  8
SIZE
  6
CONTINUOUS
 62
    30
 10
0.0000000000000258
 20
799.0992361061753
 30
0.0
 40
6.0
  0
LINE
  5
126CE
  8
SIZE
  6
CONTINUOUS
 62
    30
 10
0.0000000000000258
 20
799.0992361061753
 30
0.0
 11
12.00000000000003
 21
799.0992361061753
 31
0.0
  0
TEXT
  5
126CF
  8
SIZE
  6
CONTINUOUS
 62
    30
 10
-191.9714285714285
 20
824.0992361061753
 30
0.0
 40
64.0
  1
145
 41
0.9
 72
     1
 11
-105.5714285714285
 21
824.0992361061753
 31
0.0
  0
POINT
  5
126D0
  8
DEFPOINTS
  6
CONTINUOUS
 62
    30
 10
145.0967309499974
 20
360.2873729934272
 30
0.0
  0
POINT
  5
126D1
  8
DEFPOINTS
  6
CONTINUOUS
 62
    30
 10
0.0
 20
376.9579498998228
 30
0.0
  0
POINT
  5
126D2
  8
DEFPOINTS
  6
CONTINUOUS
 62
    30
 10
0.0000000000000258
 20
799.0992361061753
 30
0.0
  0
LINE
  5
126D3
  8
SIZE
  6
CONTINUOUS
 62
    30
 10
450.3001994999977
 20
719.169445518
 30
0.0
 11
450.3001994999977
 21
1090.273867523523
 31
0.0
  0
LINE
  5
126D4
  8
SIZE
  6
CONTINUOUS
 62
    30
 10
0.0000000000000012
 20
396.9579498998228
 30
0.0
 11
0.0000000000000437
 21
1090.273867523523
 31
0.0
  0
LINE
  5
126D5
  8
SIZE
  6
CONTINUOUS
 62
    30
 10
438.3001994999977
 20
1070.273867523523
 30
0.0
 11
12.00000000000004
 21
1070.273867523523
 31
0.0
  0
CIRCLE
  5
126D6
  8
SIZE
  6
CONTINUOUS
 62
    30
 10
450.3001994999977
 20
1070.273867523523
 30
0.0
 40
6.0
  0
LINE
  5
126D7
  8
SIZE
  6
CONTINUOUS
 62
    30
 10
450.3001994999977
 20
1070.273867523523
 30
0.0
 11
438.3001994999977
 21
1070.273867523523
 31
0.0
  0
CIRCLE
  5
126D8
  8
SIZE
  6
CONTINUOUS
 62
    30
 10
0.0000000000000425
 20
1070.273867523523
 30
0.0
 40
6.0
  0
LINE
  5
126D9
  8
SIZE
  6
CONTINUOUS
 62
    30
 10
0.0000000000000425
 20
1070.273867523523
 30
0.0
 11
12.00000000000004
 21
1070.273867523523
 31
0.0
  0
TEXT
  5
126DA
  8
SIZE
  6
CONTINUOUS
 62
    30
 10
35.89295689285592
 20
1095.273867523523
 30
0.0
 40
64.0
  1
360～450
 41
0.9
 72
     1
 11
225.1500997499988
 21
1095.273867523523
 31
0.0
  0
POINT
  5
126DB
  8
DEFPOINTS
  6
CONTINUOUS
 62
    30
 10
450.3001994999977
 20
699.169445518
 30
0.0
  0
POINT
  5
126DC
  8
DEFPOINTS
  6
CONTINUOUS
 62
    30
 10
0.0
 20
376.9579498998228
 30
0.0
  0
POINT
  5
126DD
  8
DEFPOINTS
  6
CONTINUOUS
 62
    30
 10
0.0000000000000425
 20
1070.273867523523
 30
0.0
  0
LINE
  5
126DE
  8
DETAIL
  6
CONTINUOUS
 62
     5
 10
306.7909900000031
 20
251.8124791829964
 30
0.0
 11
303.6090100000001
 21
254.9944591829976
 31
0.0
  0
LINE
  5
126DF
  8
DETAIL
  6
CONTINUOUS
 62
     5
 10
276.7909900000031
 20
251.8124791829964
 30
0.0
 11
273.6090100000001
 21
254.9944591829976
 31
0.0
  0
LINE
  5
126E0
  8
DETAIL
  6
CONTINUOUS
 62
     5
 10
315.2000000000007
 20
149.7034691829963
 30
0.0
 11
315.2000000000007
 21
300.2034691829999
 31
0.0
  0
LINE
  5
126E1
  8
DETAIL
  6
CONTINUOUS
 62
     5
 10
315.2000000000007
 20
149.7034691829963
 30
0.0
 11
313.2000000000025
 21
147.7034691829999
 31
0.0
  0
LINE
  5
126E2
  8
DETAIL
  6
CONTINUOUS
 62
     5
 10
299.9500000000025
 20
251.153469182997
 30
0.0
 11
299.9500000000025
 21
155.6534691830007
 31
0.0
  0
LINE
  5
126E3
  8
DETAIL
  6
CONTINUOUS
 62
     5
 10
295.4500000000007
 20
153.403469182997
 30
0.0
 11
295.4500000000007
 21
253.403469182997
 31
0.0
  0
LINE
  5
126E4
  8
DETAIL
  6
CONTINUOUS
 62
     5
 10
313.2000000000025
 20
147.7034691829999
 30
0.0
 11
257.2000000000007
 21
147.7034691829999
 31
0.0
  0
LINE
  5
126E5
  8
DETAIL
  6
CONTINUOUS
 62
     5
 10
305.2000000000007
 20
151.153469182997
 30
0.0
 11
297.7000000000007
 21
151.153469182997
 31
0.0
  0
LINE
  5
126E6
  8
DETAIL
  6
CONTINUOUS
 62
     5
 10
275.2000000000007
 20
151.153469182997
 30
0.0
 11
267.7000000000007
 21
151.153469182997
 31
0.0
  0
LINE
  5
126E7
  8
DETAIL
  6
CONTINUOUS
 62
     5
 10
269.9500000000025
 20
155.6534691830007
 30
0.0
 11
275.2000000000007
 21
155.6534691830007
 31
0.0
  0
LINE
  5
126E8
  8
DETAIL
  6
CONTINUOUS
 62
     5
 10
299.9500000000025
 20
155.6534691830007
 30
0.0
 11
305.2000000000007
 21
155.6534691830007
 31
0.0
  0
LINE
  5
126E9
  8
DETAIL
  6
CONTINUOUS
 62
     5
 10
269.9500000000025
 20
251.153469182997
 30
0.0
 11
269.9500000000025
 21
155.6534691830007
 31
0.0
  0
LINE
  5
126EA
  8
DETAIL
  6
CONTINUOUS
 62
     5
 10
265.4500000000007
 20
153.403469182997
 30
0.0
 11
265.4500000000007
 21
253.403469182997
 31
0.0
  0
LINE
  5
126EB
  8
DETAIL
  6
CONTINUOUS
 62
     5
 10
255.2000000000007
 20
149.7034691829963
 30
0.0
 11
255.2000000000007
 21
300.2034691829999
 31
0.0
  0
LINE
  5
126EC
  8
DETAIL
  6
CONTINUOUS
 62
     5
 10
257.2000000000007
 20
147.7034691829999
 30
0.0
 11
255.2000000000007
 21
149.7034691829963
 31
0.0
  0
LINE
  5
126ED
  8
DETAIL
  6
CONTINUOUS
 62
     5
 10
226.8000000000011
 20
290.2034691829999
 30
0.0
 11
226.8000000000011
 21
297.0034691829992
 31
0.0
  0
LINE
  5
126EE
  8
DETAIL
  6
CONTINUOUS
 62
     5
 10
225.2000000000025
 20
297.0034691829992
 30
0.0
 11
225.2000000000025
 21
290.2034691829999
 31
0.0
  0
LINE
  5
126EF
  8
DETAIL
  6
CONTINUOUS
 62
     5
 10
306.7909900000031
 20
254.9944591829976
 30
0.0
 11
303.6090100000001
 21
251.8124791829964
 31
0.0
  0
LINE
  5
126F0
  8
DETAIL
  6
CONTINUOUS
 62
     5
 10
301.0830500000029
 20
251.153469182997
 30
0.0
 11
299.9500000000025
 21
251.153469182997
 31
0.0
  0
LINE
  5
126F1
  8
DETAIL
  6
CONTINUOUS
 62
     5
 10
271.0830500000029
 20
251.153469182997
 30
0.0
 11
269.9500000000025
 21
251.153469182997
 31
0.0
  0
LINE
  5
126F2
  8
DETAIL
  6
CONTINUOUS
 62
     5
 10
276.7909900000031
 20
254.9944591829976
 30
0.0
 11
273.6090100000001
 21
251.8124791829964
 31
0.0
  0
LINE
  5
126F3
  8
DETAIL
  6
CONTINUOUS
 62
     5
 10
267.7000000000007
 20
255.6534691830007
 30
0.0
 11
271.0830500000029
 21
255.6534691830007
 31
0.0
  0
LINE
  5
126F4
  8
DETAIL
  6
CONTINUOUS
 62
     5
 10
297.7000000000007
 20
255.6534691830007
 30
0.0
 11
301.0830500000029
 21
255.6534691830007
 31
0.0
  0
LINE
  5
126F5
  8
DETAIL
  6
CONTINUOUS
 62
     5
 10
226.8000000000011
 20
290.2034691829999
 30
0.0
 11
225.2000000000025
 21
290.2034691829999
 31
0.0
  0
LINE
  5
126F6
  8
DETAIL
  6
CONTINUOUS
 62
     5
 10
225.2000000000025
 20
292.2034691829963
 30
0.0
 11
226.8000000000011
 21
292.2034691829963
 31
0.0
  0
LINE
  5
126F7
  8
DETAIL
  6
CONTINUOUS
 62
     5
 10
228.4000000000015
 20
298.6034691829977
 30
0.0
 11
255.2000000000007
 21
298.6034691829977
 31
0.0
  0
LINE
  5
126F8
  8
DETAIL
  6
CONTINUOUS
 62
     5
 10
228.4000000000015
 20
300.2034691829999
 30
0.0
 11
315.2000000000007
 21
300.2034691829999
 31
0.0
  0
ARC
  5
126F9
  8
DETAIL
  6
CONTINUOUS
 62
     5
 10
305.2000000000007
 20
153.403469182997
 30
0.0
 40
2.25
 50
270.0
 51
90.0
  0
ARC
  5
126FA
  8
DETAIL
  6
CONTINUOUS
 62
     5
 10
297.7000000000007
 20
153.403469182997
 30
0.0
 40
2.25
 50
180.0
 51
270.0
  0
CIRCLE
  5
126FB
  8
DETAIL
  6
CONTINUOUS
 62
     5
 10
305.2000000000007
 20
253.403469182997
 30
0.0
 40
4.699999999999999
  0
ARC
  5
126FC
  8
DETAIL
  6
CONTINUOUS
 62
     5
 10
297.7000000000007
 20
253.403469182997
 30
0.0
 40
2.25
 50
278.4777879552254
 51
180.0
  0
ARC
  5
126FD
  8
DETAIL
  6
CONTINUOUS
 62
     5
 10
275.2000000000007
 20
153.403469182997
 30
0.0
 40
2.25
 50
270.0
 51
90.0
  0
ARC
  5
126FE
  8
DETAIL
  6
CONTINUOUS
 62
     5
 10
267.7000000000007
 20
153.403469182997
 30
0.0
 40
2.25
 50
180.0
 51
270.0
  0
CIRCLE
  5
126FF
  8
DETAIL
  6
CONTINUOUS
 62
     5
 10
276.7909900000031
 20
251.8124791829964
 30
0.0
 40
4.699999999999999
  0
ARC
  5
12700
  8
DETAIL
  6
CONTINUOUS
 62
     5
 10
228.4000000000015
 20
297.0034691829992
 30
0.0
 40
3.2
 50
90.0
 51
180.0
  0
ARC
  5
12701
  8
DETAIL
  6
CONTINUOUS
 62
     5
 10
267.7000000000007
 20
253.403469182997
 30
0.0
 40
2.25
 50
90.0
 51
180.0
  0
ARC
  5
12702
  8
DETAIL
  6
CONTINUOUS
 62
     5
 10
228.4000000000015
 20
297.0034691829992
 30
0.0
 40
1.6
 50
90.0
 51
180.0
  0
LINE
  5
12703
  8
DETAIL
  6
DASHDOT
 62
     5
 10
293.4000000000015
 20
284.903469182997
 30
0.0
 11
293.4000000000015
 21
429.6448291830006
 31
0.0
  0
LINE
  5
12704
  8
DETAIL
  6
DASHDOT
 62
     5
 10
286.6000000000022
 20
284.903469182997
 30
0.0
 11
286.6000000000022
 21
430.2631391829987
 31
0.0
  0
LINE
  5
12705
  8
DETAIL
  6
DASHDOT
 62
     5
 10
293.4000000000015
 20
284.903469182997
 30
0.0
 11
286.6000000000022
 21
284.903469182997
 31
0.0
  0
LINE
  5
12706
  8
DETAIL
  6
CONTINUOUS
 62
     5
 10
290.0
 20
276.738409182994
 30
0.0
 11
290.0
 21
454.3771091829972
 31
0.0
  0
LINE
  5
12707
  8
SIZE
  6
CONTINUOUS
 62
    30
 10
290.0
 20
474.3771091829972
 30
0.0
 11
290.0000000000001
 21
971.5550082384389
 31
0.0
  0
LINE
  5
12708
  8
SIZE
  6
CONTINUOUS
 62
    30
 10
0.0000000000000012
 20
416.9579498998228
 30
0.0
 11
0.0000000000000352
 21
971.5550082384389
 31
0.0
  0
LINE
  5
12709
  8
SIZE
  6
CONTINUOUS
 62
    30
 10
278.0000000000001
 20
951.5550082384389
 30
0.0
 11
12.00000000000003
 21
951.5550082384389
 31
0.0
  0
LINE
  5
1270A
  8
SIZE
  6
CONTINUOUS
 62
    30
 10
0.000000000000034
 20
951.5550082384389
 30
0.0
 11
-455.0994916040108
 21
951.5550082384389
 31
0.0
  0
CIRCLE
  5
1270B
  8
SIZE
  6
CONTINUOUS
 62
    30
 10
290.0000000000001
 20
951.5550082384389
 30
0.0
 40
6.0
  0
LINE
  5
1270C
  8
SIZE
  6
CONTINUOUS
 62
    30
 10
290.0000000000001
 20
951.5550082384389
 30
0.0
 11
278.0000000000001
 21
951.5550082384389
 31
0.0
  0
CIRCLE
  5
1270D
  8
SIZE
  6
CONTINUOUS
 62
    30
 10
0.000000000000034
 20
951.5550082384389
 30
0.0
 40
6.0
  0
LINE
  5
1270E
  8
SIZE
  6
CONTINUOUS
 62
    30
 10
0.000000000000034
 20
951.5550082384389
 30
0.0
 11
12.00000000000003
 21
951.5550082384389
 31
0.0
  0
TEXT
  5
1270F
  8
SIZE
  6
CONTINUOUS
 62
    30
 10
-435.5852058897251
 20
976.5550082384389
 30
0.0
 40
64.0
  1
255~290
 41
0.9
 72
     1
 11
-238.0994916040108
 21
976.5550082384389
 31
0.0
  0
POINT
  5
12710
  8
DEFPOINTS
  6
CONTINUOUS
 62
    30
 10
290.0
 20
454.3771091829972
 30
0.0
  0
POINT
  5
12711
  8
DEFPOINTS
  6
CONTINUOUS
 62
    30
 10
0.0
 20
396.9579498998228
 30
0.0
  0
POINT
  5
12712
  8
DEFPOINTS
  6
CONTINUOUS
 62
    30
 10
0.000000000000034
 20
951.5550082384389
 30
0.0
  0
LINE
  5
12713
  8
SIZE
  6
CONTINUOUS
 62
    30
 10
647.4049357699951
 20
0.0
 30
0.0
 11
1137.272342555756
 21
-0.0000000000001137
 31
0.0
  0
LINE
  5
12714
  8
SIZE
  6
CONTINUOUS
 62
    30
 10
335.2000000000007
 20
300.2034691829999
 30
0.0
 11
1137.272342555756
 21
300.2034691829997
 31
0.0
  0
LINE
  5
12715
  8
SIZE
  6
CONTINUOUS
 62
    30
 10
1117.272342555756
 20
11.99999999999989
 30
0.0
 11
1117.272342555756
 21
288.2034691829997
 31
0.0
  0
LINE
  5
12716
  8
SIZE
  6
CONTINUOUS
 62
    30
 10
1117.272342555756
 20
300.2034691829997
 30
0.0
 11
1117.272342555756
 21
1059.986326325857
 31
0.0
  0
CIRCLE
  5
12717
  8
SIZE
  6
CONTINUOUS
 62
    30
 10
1117.272342555756
 20
-0.0000000000001137
 30
0.0
 40
6.0
  0
LINE
  5
12718
  8
SIZE
  6
CONTINUOUS
 62
    30
 10
1117.272342555756
 20
-0.0000000000001137
 30
0.0
 11
1117.272342555756
 21
11.99999999999989
 31
0.0
  0
CIRCLE
  5
12719
  8
SIZE
  6
CONTINUOUS
 62
    30
 10
1117.272342555756
 20
300.2034691829997
 30
0.0
 40
6.0
  0
LINE
  5
1271A
  8
SIZE
  6
CONTINUOUS
 62
    30
 10
1117.272342555756
 20
300.2034691829997
 30
0.0
 11
1117.272342555756
 21
288.2034691829997
 31
0.0
  0
TEXT
  5
1271B
  8
SIZE
  6
CONTINUOUS
 62
    30
 10
1092.272342555756
 20
373.4091834687142
 30
0.0
 40
64.0
  1
300（400に変更可）
 50
90.0
 41
0.9
 72
     1
 11
1092.272342555756
 21
686.0948977544285
 31
0.0
  0
POINT
  5
1271C
  8
DEFPOINTS
  6
CONTINUOUS
 62
    30
 10
627.4049357699951
 20
0.0
 30
0.0
  0
POINT
  5
1271D
  8
DEFPOINTS
  6
CONTINUOUS
 62
    30
 10
315.2000000000007
 20
300.2034691829999
 30
0.0
  0
POINT
  5
1271E
  8
DEFPOINTS
  6
CONTINUOUS
 62
    30
 10
1117.272342555756
 20
300.2034691829997
 30
0.0
  0
LINE
  5
1271F
  8
SIZE
  6
CONTINUOUS
 62
    30
 10
-18.39893262400437
 20
300.2034691829999
 30
0.0
 11
-573.5000913884251
 21
300.2034691830001
 31
0.0
  0
LINE
  5
12720
  8
SIZE
  6
CONTINUOUS
 62
    30
 10
-145.4561247050906
 20
0.0
 30
0.0
 11
-573.5000913884251
 21
0.0000000000001137
 31
0.0
  0
LINE
  5
12721
  8
SIZE
  6
CONTINUOUS
 62
    30
 10
-553.5000913884251
 20
288.2034691830001
 30
0.0
 11
-553.5000913884251
 21
12.00000000000011
 31
0.0
  0
CIRCLE
  5
12722
  8
SIZE
  6
CONTINUOUS
 62
    30
 10
-553.5000913884251
 20
300.2034691830001
 30
0.0
 40
6.0
  0
LINE
  5
12723
  8
SIZE
  6
CONTINUOUS
 62
    30
 10
-553.5000913884251
 20
300.2034691830001
 30
0.0
 11
-553.5000913884251
 21
288.2034691830001
 31
0.0
  0
CIRCLE
  5
12724
  8
SIZE
  6
CONTINUOUS
 62
    30
 10
-553.5000913884251
 20
0.0000000000001137
 30
0.0
 40
6.0
  0
LINE
  5
12725
  8
SIZE
  6
CONTINUOUS
 62
    30
 10
-553.5000913884251
 20
0.0000000000001137
 30
0.0
 11
-553.5000913884251
 21
12.00000000000011
 31
0.0
  0
TEXT
  5
12726
  8
SIZE
  6
CONTINUOUS
 62
    30
 10
-578.5000913884251
 20
67.91775489728575
 30
0.0
 40
64.0
  1
300
 50
90.0
 41
0.9
 72
     1
 11
-578.5000913884251
 21
150.203469183
 31
0.0
  0
POINT
  5
12727
  8
DEFPOINTS
  6
CONTINUOUS
 62
    30
 10
1.601067375995626
 20
300.2034691829999
 30
0.0
  0
POINT
  5
12728
  8
DEFPOINTS
  6
CONTINUOUS
 62
    30
 10
-125.4561247050906
 20
0.0
 30
0.0
  0
POINT
  5
12729
  8
DEFPOINTS
  6
CONTINUOUS
 62
    30
 10
-553.5000913884251
 20
0.0000000000001137
 30
0.0
  0
LINE
  5
1272A
  8
SIZE
  6
CONTINUOUS
 62
    30
 10
-43.51567708499896
 20
101.2034691829999
 30
0.0
 11
-196.6567930870424
 21
101.203469183
 31
0.0
  0
LINE
  5
1272B
  8
SIZE
  6
CONTINUOUS
 62
    30
 10
-145.4561247050906
 20
0.0
 30
0.0
 11
-196.6567930870424
 21
0.0
 31
0.0
  0
LINE
  5
1272C
  8
SIZE
  6
CONTINUOUS
 62
    30
 10
-176.6567930870424
 20
89.20346918299997
 30
0.0
 11
-176.6567930870424
 21
12.0
 31
0.0
  0
LINE
  5
1272D
  8
SIZE
  6
CONTINUOUS
 62
    30
 10
-176.6567930870424
 20
0.0
 30
0.0
 11
-176.6567930870424
 21
-181.1007965216837
 31
0.0
  0
CIRCLE
  5
1272E
  8
SIZE
  6
CONTINUOUS
 62
    30
 10
-176.6567930870424
 20
101.203469183
 30
0.0
 40
6.0
  0
LINE
  5
1272F
  8
SIZE
  6
CONTINUOUS
 62
    30
 10
-176.6567930870424
 20
101.203469183
 30
0.0
 11
-176.6567930870424
 21
89.20346918299997
 31
0.0
  0
CIRCLE
  5
12730
  8
SIZE
  6
CONTINUOUS
 62
    30
 10
-176.6567930870424
 20
0.0
 30
0.0
 40
6.0
  0
LINE
  5
12731
  8
SIZE
  6
CONTINUOUS
 62
    30
 10
-176.6567930870424
 20
0.0
 30
0.0
 11
-176.6567930870424
 21
12.0
 31
0.0
  0
TEXT
  5
12732
  8
SIZE
  6
CONTINUOUS
 62
    30
 10
-201.6567930870424
 20
-178.0436536645409
 30
0.0
 40
64.0
  1
101
 50
90.0
 41
0.9
 72
     1
 11
-201.6567930870424
 21
-99.87222509311229
 31
0.0
  0
POINT
  5
12733
  8
DEFPOINTS
  6
CONTINUOUS
 62
    30
 10
-23.51567708499897
 20
101.2034691829999
 30
0.0
  0
POINT
  5
12734
  8
DEFPOINTS
  6
CONTINUOUS
 62
    30
 10
-125.4561247050906
 20
0.0
 30
0.0
  0
POINT
  5
12735
  8
DEFPOINTS
  6
CONTINUOUS
 62
    30
 10
-176.6567930870424
 20
0.0
 30
0.0
  0
LINE
  5
12736
  8
SIZE
  6
CONTINUOUS
 62
    30
 10
-44.0160106400017
 20
283.2034691829999
 30
0.0
 11
-448.8684489214701
 21
283.2034691830001
 31
0.0
  0
LINE
  5
12737
  8
SIZE
  6
CONTINUOUS
 62
    30
 10
-145.4561247050906
 20
0.0
 30
0.0
 11
-448.8684489214702
 21
0.0000000000001137
 31
0.0
  0
LINE
  5
12738
  8
SIZE
  6
CONTINUOUS
 62
    30
 10
-428.8684489214702
 20
271.2034691830001
 30
0.0
 11
-428.8684489214702
 21
12.00000000000011
 31
0.0
  0
CIRCLE
  5
12739
  8
SIZE
  6
CONTINUOUS
 62
    30
 10
-428.8684489214701
 20
283.203469183
 30
0.0
 40
6.0
  0
LINE
  5
1273A
  8
SIZE
  6
CONTINUOUS
 62
    30
 10
-428.8684489214701
 20
283.203469183
 30
0.0
 11
-428.8684489214701
 21
271.203469183
 31
0.0
  0
CIRCLE
  5
1273B
  8
SIZE
  6
CONTINUOUS
 62
    30
 10
-428.8684489214702
 20
0.0000000000001137
 30
0.0
 40
6.0
  0
LINE
  5
1273C
  8
SIZE
  6
CONTINUOUS
 62
    30
 10
-428.8684489214702
 20
0.0000000000001137
 30
0.0
 11
-428.8684489214702
 21
12.00000000000011
 31
0.0
  0
TEXT
  5
1273D
  8
SIZE
  6
CONTINUOUS
 62
    30
 10
-453.8684489214702
 20
59.41775489728518
 30
0.0
 40
64.0
  1
283
 50
90.0
 41
0.9
 72
     1
 11
-453.8684489214702
 21
141.7034691829995
 31
0.0
  0
POINT
  5
1273E
  8
DEFPOINTS
  6
CONTINUOUS
 62
    30
 10
-24.0160106400017
 20
283.2034691829999
 30
0.0
  0
POINT
  5
1273F
  8
DEFPOINTS
  6
CONTINUOUS
 62
    30
 10
-125.4561247050906
 20
0.0
 30
0.0
  0
POINT
  5
12740
  8
DEFPOINTS
  6
CONTINUOUS
 62
    30
 10
-428.8684489214702
 20
0.0000000000001137
 30
0.0
  0
LINE
  5
12741
  8
SIZE
  6
CONTINUOUS
 62
    30
 10
-4.989993350001896
 20
263.5790525349998
 30
0.0
 11
-344.6065280228395
 21
263.5790525349999
 31
0.0
  0
LINE
  5
12742
  8
SIZE
  6
CONTINUOUS
 62
    30
 10
-145.4561247050906
 20
0.0
 30
0.0
 11
-344.6065280228395
 21
0.0000000000001137
 31
0.0
  0
LINE
  5
12743
  8
SIZE
  6
CONTINUOUS
 62
    30
 10
-324.6065280228395
 20
251.5790525349999
 30
0.0
 11
-324.6065280228395
 21
12.00000000000011
 31
0.0
  0
CIRCLE
  5
12744
  8
SIZE
  6
CONTINUOUS
 62
    30
 10
-324.6065280228395
 20
263.5790525349999
 30
0.0
 40
6.0
  0
LINE
  5
12745
  8
SIZE
  6
CONTINUOUS
 62
    30
 10
-324.6065280228395
 20
263.5790525349999
 30
0.0
 11
-324.6065280228395
 21
251.5790525349999
 31
0.0
  0
CIRCLE
  5
12746
  8
SIZE
  6
CONTINUOUS
 62
    30
 10
-324.6065280228395
 20
0.0000000000001137
 30
0.0
 40
6.0
  0
LINE
  5
12747
  8
SIZE
  6
CONTINUOUS
 62
    30
 10
-324.6065280228395
 20
0.0000000000001137
 30
0.0
 11
-324.6065280228395
 21
12.00000000000011
 31
0.0
  0
TEXT
  5
12748
  8
SIZE
  6
CONTINUOUS
 62
    30
 10
-349.6065280228395
 20
49.60554657328571
 30
0.0
 40
64.0
  1
263
 50
90.0
 41
0.9
 72
     1
 11
-349.6065280228395
 21
131.891260859
 31
0.0
  0
POINT
  5
12749
  8
DEFPOINTS
  6
CONTINUOUS
 62
    30
 10
15.0100066499981
 20
263.5790525349998
 30
0.0
  0
POINT
  5
1274A
  8
DEFPOINTS
  6
CONTINUOUS
 62
    30
 10
-125.4561247050906
 20
0.0
 30
0.0
  0
POINT
  5
1274B
  8
DEFPOINTS
  6
CONTINUOUS
 62
    30
 10
-324.6065280228395
 20
0.0000000000001137
 30
0.0
  0
LINE
  5
1274C
  8
SIZE
  6
CONTINUOUS
 62
    30
 10
35.0100066499981
 20
263.5790525349998
 30
0.0
 11
773.5640803958854
 21
263.5790525349996
 31
0.0
  0
LINE
  5
1274D
  8
SIZE
  6
CONTINUOUS
 62
    30
 10
91.04736480999782
 20
318.615743585
 30
0.0
 11
773.5640803958854
 21
318.6157435849998
 31
0.0
  0
LINE
  5
1274E
  8
SIZE
  6
CONTINUOUS
 62
    30
 10
753.5640803958854
 20
330.6157435849998
 30
0.0
 11
753.5640803958854
 21
342.6157435849998
 31
0.0
  0
LINE
  5
1274F
  8
SIZE
  6
CONTINUOUS
 62
    30
 10
753.5640803958854
 20
251.5790525349996
 30
0.0
 11
753.5640803958854
 21
73.3714285714284
 31
0.0
  0
LINE
  5
12750
  8
SIZE
  6
CONTINUOUS
 62
    30
 10
753.5640803958854
 20
318.6157435849998
 30
0.0
 11
753.5640803958854
 21
263.5790525349996
 31
0.0
  0
CIRCLE
  5
12751
  8
SIZE
  6
CONTINUOUS
 62
    30
 10
753.5640803958854
 20
318.6157435849998
 30
0.0
 40
6.0
  0
LINE
  5
12752
  8
SIZE
  6
CONTINUOUS
 62
    30
 10
753.5640803958854
 20
318.6157435849998
 30
0.0
 11
753.5640803958854
 21
330.6157435849998
 31
0.0
  0
CIRCLE
  5
12753
  8
SIZE
  6
CONTINUOUS
 62
    30
 10
753.5640803958854
 20
263.5790525349996
 30
0.0
 40
6.0
  0
LINE
  5
12754
  8
SIZE
  6
CONTINUOUS
 62
    30
 10
753.5640803958854
 20
263.5790525349996
 30
0.0
 11
753.5640803958854
 21
251.5790525349996
 31
0.0
  0
TEXT
  5
12755
  8
SIZE
  6
CONTINUOUS
 62
    30
 10
728.5640803958854
 20
90.14285714285708
 30
0.0
 40
64.0
  1
55
 50
90.0
 41
0.9
 72
     1
 11
728.5640803958854
 21
144.9999999999999
 31
0.0
  0
POINT
  5
12756
  8
DEFPOINTS
  6
CONTINUOUS
 62
    30
 10
15.0100066499981
 20
263.5790525349998
 30
0.0
  0
POINT
  5
12757
  8
DEFPOINTS
  6
CONTINUOUS
 62
    30
 10
71.04736480999782
 20
318.615743585
 30
0.0
  0
POINT
  5
12758
  8
DEFPOINTS
  6
CONTINUOUS
 62
    30
 10
753.5640803958854
 20
318.6157435849998
 30
0.0
  0
LINE
  5
12759
  8
SIZE
  6
CONTINUOUS
 62
    30
 10
91.04736480999782
 20
318.615743585
 30
0.0
 11
773.5640803958853
 21
318.6157435849998
 31
0.0
  0
LINE
  5
1275A
  8
SIZE
  6
CONTINUOUS
 62
    30
 10
200.1200797999422
 20
403.6724479349978
 30
0.0
 11
773.5640803958855
 21
403.6724479349976
 31
0.0
  0
LINE
  5
1275B
  8
SIZE
  6
CONTINUOUS
 62
    30
 10
753.5640803958853
 20
330.6157435849998
 30
0.0
 11
753.5640803958853
 21
391.6724479349976
 31
0.0
  0
LINE
  5
1275C
  8
SIZE
  6
CONTINUOUS
 62
    30
 10
753.5640803958854
 20
403.6724479349976
 30
0.0
 11
753.5640803958854
 21
558.929590792141
 31
0.0
  0
CIRCLE
  5
1275D
  8
SIZE
  6
CONTINUOUS
 62
    30
 10
753.5640803958853
 20
318.6157435849998
 30
0.0
 40
6.0
  0
LINE
  5
1275E
  8
SIZE
  6
CONTINUOUS
 62
    30
 10
753.5640803958853
 20
318.6157435849998
 30
0.0
 11
753.5640803958853
 21
330.6157435849998
 31
0.0
  0
CIRCLE
  5
1275F
  8
SIZE
  6
CONTINUOUS
 62
    30
 10
753.5640803958854
 20
403.6724479349976
 30
0.0
 40
6.0
  0
LINE
  5
12760
  8
SIZE
  6
CONTINUOUS
 62
    30
 10
753.5640803958854
 20
403.6724479349976
 30
0.0
 11
753.5640803958854
 21
391.6724479349976
 31
0.0
  0
TEXT
  5
12761
  8
SIZE
  6
CONTINUOUS
 62
    30
 10
728.5640803958853
 20
432.4438765064268
 30
0.0
 40
64.0
  1
85
 50
90.0
 41
0.9
 72
     1
 11
728.5640803958853
 21
487.3010193635697
 31
0.0
  0
POINT
  5
12762
  8
DEFPOINTS
  6
CONTINUOUS
 62
    30
 10
71.04736480999782
 20
318.615743585
 30
0.0
  0
POINT
  5
12763
  8
DEFPOINTS
  6
CONTINUOUS
 62
    30
 10
180.1200797999422
 20
403.6724479349978
 30
0.0
  0
POINT
  5
12764
  8
DEFPOINTS
  6
CONTINUOUS
 62
    30
 10
753.5640803958854
 20
403.6724479349976
 30
0.0
  0
LINE
  5
12765
  8
DETAIL
  6
CONTINUOUS
 62
     5
 10
103.6999999999989
 20
266.9813207090001
 30
0.0
 11
45.03001994999795
 21
266.9813207090001
 31
0.0
  0
LINE
  5
12766
  8
DETAIL
  6
CONTINUOUS
 62
     5
 10
103.6999999999989
 20
278.5890591850002
 30
0.0
 11
69.6464308579998
 21
278.5890591850002
 31
0.0
  0
LINE
  5
12767
  8
OUTLINE
  6
CONTINUOUS
 62
     3
 10
103.6999999999989
 20
266.9813207090001
 30
0.0
 11
45.03001994999795
 21
266.9813207090001
 31
0.0
  0
LINE
  5
12768
  8
OUTLINE
  6
CONTINUOUS
 62
     3
 10
103.6999999999989
 20
278.5890591850002
 30
0.0
 11
69.6464308579998
 21
278.5890591850002
 31
0.0
  0
LINE
  5
12769
  8
DETAIL
  6
CONTINUOUS
 62
     5
 10
108.6999999999989
 20
290.6034691829977
 30
0.0
 11
191.6999999999998
 21
290.6034691829977
 31
0.0
  0
LINE
  5
1276A
  8
DETAIL
  6
CONTINUOUS
 62
     5
 10
196.6999999999998
 20
285.6034691829977
 30
0.0
 11
196.6999999999998
 21
263.5790525349998
 31
0.0
  0
LINE
  5
1276B
  8
DETAIL
  6
CONTINUOUS
 62
     5
 10
103.6999999999989
 20
285.6034691829977
 30
0.0
 11
103.6999999999989
 21
263.5790525349998
 31
0.0
  0
ARC
  5
1276C
  8
DETAIL
  6
CONTINUOUS
 62
     5
 10
191.6999999999998
 20
285.6034691829977
 30
0.0
 40
5.0
 50
0.0
 51
90.0
  0
ARC
  5
1276D
  8
DETAIL
  6
CONTINUOUS
 62
     5
 10
108.6999999999989
 20
285.6034691829977
 30
0.0
 40
5.0
 50
90.0
 51
180.0
  0
LINE
  5
1276E
  8
OUTLINE
  6
CONTINUOUS
 62
     3
 10
108.6999999999989
 20
290.6034691829977
 30
0.0
 11
191.6999999999998
 21
290.6034691829977
 31
0.0
  0
LINE
  5
1276F
  8
OUTLINE
  6
CONTINUOUS
 62
     3
 10
196.6999999999998
 20
285.6034691829977
 30
0.0
 11
196.6999999999998
 21
263.5790525349998
 31
0.0
  0
LINE
  5
12770
  8
OUTLINE
  6
CONTINUOUS
 62
     3
 10
103.6999999999989
 20
285.6034691829977
 30
0.0
 11
103.6999999999989
 21
263.5790525349998
 31
0.0
  0
ARC
  5
12771
  8
OUTLINE
  6
CONTINUOUS
 62
     3
 10
191.6999999999998
 20
285.6034691829977
 30
0.0
 40
5.0
 50
0.0
 51
90.0
  0
ARC
  5
12772
  8
OUTLINE
  6
CONTINUOUS
 62
     3
 10
108.6999999999989
 20
285.6034691829977
 30
0.0
 40
5.0
 50
90.0
 51
180.0
  0
ARC
  5
12773
  8
DETAIL
  6
CONTINUOUS
 62
     5
 10
219.9466307779985
 20
279.3895928729999
 30
0.0
 40
0.8005336879997199
 50
180.0
 51
270.0
  0
ARC
  5
12774
  8
DETAIL
  6
CONTINUOUS
 62
     5
 10
220.547031043996
 20
276.9879918090001
 30
0.0
 40
1.60106737599945
 50
0.0
 51
90.0
  0
ARC
  5
12775
  8
DETAIL
  6
CONTINUOUS
 62
     5
 10
230.1534352999952
 20
272.3849231029999
 30
0.0
 40
8.00533688000001
 50
180.0
 51
222.4791039630903
  0
LINE
  5
12776
  8
DETAIL
  6
CONTINUOUS
 62
     5
 10
245.1634419499969
 20
263.5790525349998
 30
0.0
 11
245.1634419499969
 21
266.9813207090001
 31
0.0
  0
LINE
  5
12777
  8
DETAIL
  6
CONTINUOUS
 62
     5
 10
222.1480984199952
 20
272.3849231029999
 30
0.0
 11
222.1480984199952
 21
276.9879918090001
 31
0.0
  0
LINE
  5
12778
  8
DETAIL
  6
CONTINUOUS
 62
     5
 10
196.6999999999998
 20
278.5890591850002
 30
0.0
 11
220.5470310419951
 21
278.5890591850002
 31
0.0
  0
ARC
  5
12779
  8
OUTLINE
  6
CONTINUOUS
 62
     3
 10
219.9466307779985
 20
279.3895928729999
 30
0.0
 40
0.8005336879997199
 50
180.0
 51
270.0
  0
ARC
  5
1277A
  8
OUTLINE
  6
CONTINUOUS
 62
     3
 10
220.547031043996
 20
276.9879918090001
 30
0.0
 40
1.60106737599945
 50
0.0
 51
90.0
  0
ARC
  5
1277B
  8
OUTLINE
  6
CONTINUOUS
 62
     3
 10
230.1534352999952
 20
272.3849231029999
 30
0.0
 40
8.00533688000001
 50
180.0
 51
222.4791039630903
  0
LINE
  5
1277C
  8
OUTLINE
  6
CONTINUOUS
 62
     3
 10
245.1634419499969
 20
263.5790525349998
 30
0.0
 11
245.1634419499969
 21
266.9813207090001
 31
0.0
  0
LINE
  5
1277D
  8
OUTLINE
  6
CONTINUOUS
 62
     3
 10
222.1480984199952
 20
272.3849231029999
 30
0.0
 11
222.1480984199952
 21
276.9879918090001
 31
0.0
  0
LINE
  5
1277E
  8
OUTLINE
  6
CONTINUOUS
 62
     3
 10
196.6999999999998
 20
278.5890591850002
 30
0.0
 11
220.5470310419951
 21
278.5890591850002
 31
0.0
  0
LINE
  5
1277F
  8
SIZE
  6
CONTINUOUS
 62
    30
 10
239.1460970899971
 20
318.615743585
 30
0.0
 11
673.5249445738609
 21
318.6157435849999
 31
0.0
  0
LINE
  5
12780
  8
SIZE
  6
CONTINUOUS
 62
    30
 10
240.5470310419951
 20
278.5890591850002
 30
0.0
 11
673.5249445738609
 21
278.5890591850001
 31
0.0
  0
LINE
  5
12781
  8
SIZE
  6
CONTINUOUS
 62
    30
 10
653.5249445738609
 20
266.5890591850001
 30
0.0
 11
653.5249445738609
 21
254.5890591850001
 31
0.0
  0
LINE
  5
12782
  8
SIZE
  6
CONTINUOUS
 62
    30
 10
653.5249445738609
 20
330.6157435849999
 30
0.0
 11
653.524944573861
 21
537.2443631513252
 31
0.0
  0
LINE
  5
12783
  8
SIZE
  6
CONTINUOUS
 62
    30
 10
653.5249445738609
 20
278.5890591850001
 30
0.0
 11
653.5249445738609
 21
318.6157435849999
 31
0.0
  0
CIRCLE
  5
12784
  8
SIZE
  6
CONTINUOUS
 62
    30
 10
653.5249445738609
 20
278.5890591850001
 30
0.0
 40
6.0
  0
LINE
  5
12785
  8
SIZE
  6
CONTINUOUS
 62
    30
 10
653.5249445738609
 20
278.5890591850001
 30
0.0
 11
653.5249445738609
 21
266.5890591850001
 31
0.0
  0
CIRCLE
  5
12786
  8
SIZE
  6
CONTINUOUS
 62
    30
 10
653.5249445738609
 20
318.6157435849999
 30
0.0
 40
6.0
  0
LINE
  5
12787
  8
SIZE
  6
CONTINUOUS
 62
    30
 10
653.5249445738609
 20
318.6157435849999
 30
0.0
 11
653.5249445738609
 21
330.6157435849999
 31
0.0
  0
TEXT
  5
12788
  8
SIZE
  6
CONTINUOUS
 62
    30
 10
628.5249445738609
 20
410.7586488656109
 30
0.0
 40
64.0
  1
40
 50
90.0
 41
0.9
 72
     1
 11
628.5249445738609
 21
465.6157917227538
 31
0.0
  0
POINT
  5
12789
  8
DEFPOINTS
  6
CONTINUOUS
 62
    30
 10
219.1460970899971
 20
318.615743585
 30
0.0
  0
POINT
  5
1278A
  8
DEFPOINTS
  6
CONTINUOUS
 62
    30
 10
220.5470310419951
 20
278.5890591850002
 30
0.0
  0
POINT
  5
1278B
  8
DEFPOINTS
  6
CONTINUOUS
 62
    30
 10
653.5249445738609
 20
278.5890591850001
 30
0.0
  0
LINE
  5
1278C
  8
DETAIL
  6
CONTINUOUS
 62
     5
 10
196.6999999999998
 20
266.9813207090001
 30
0.0
 11
245.1634419499969
 21
266.9813207090001
 31
0.0
  0
LINE
  5
1278D
  8
OUTLINE
  6
CONTINUOUS
 62
     3
 10
196.6999999999998
 20
266.9813207090001
 30
0.0
 11
245.1634419499969
 21
266.9813207090001
 31
0.0
  0
ENDSEC
  0
EOF
