  0
SECTION
  2
HEADER
  9
$ACADVER
  1
AC1009
  9
$DWGCODEPAGE
  3
dos932
  9
$INSBASE
 10
0.0
 20
0.0
 30
0.0
  9
$EXTMIN
 10
-781.7458942669291
 20
-827.36204928644293
 30
-0.0015258207003583
  9
$EXTMAX
 10
1445.6634642040151
 20
628.05176587781352
 30
0.0000000349246037
  9
$LIMMIN
 10
-2970.0
 20
-2100.0
  9
$LIMMAX
 10
2970.0
 20
2100.0
  9
$ORTHOMODE
 70
     1
  9
$REGENMODE
 70
     1
  9
$FILLMODE
 70
     1
  9
$QTEXTMODE
 70
     0
  9
$MIRRTEXT
 70
     0
  9
$LTSCALE
 40
20.0
  9
$ATTMODE
 70
     1
  9
$TEXTSIZE
 40
64.0
  9
$TRACEWID
 40
0.05
  9
$TEXTSTYLE
  7
STANDARD
  9
$CLAYER
  8
SIZE
  9
$CELTYPE
  6
CONTINUOUS
  9
$CECOLOR
 62
     7
  9
$DIMSCALE
 40
1.0
  9
$DIMASZ
 40
12.0
  9
$DIMEXO
 40
20.0
  9
$DIMDLI
 40
200.0
  9
$DIMRND
 40
0.0
  9
$DIMDLE
 40
0.0
  9
$DIMEXE
 40
20.0
  9
$DIMTP
 40
0.0
  9
$DIMTM
 40
0.0
  9
$DIMTXT
 40
64.0
  9
$DIMCEN
 40
0.09
  9
$DIMTSZ
 40
0.0
  9
$DIMTOL
 70
     0
  9
$DIMLIM
 70
     0
  9
$DIMTIH
 70
     0
  9
$DIMTOH
 70
     0
  9
$DIMSE1
 70
     0
  9
$DIMSE2
 70
     0
  9
$DIMTAD
 70
     1
  9
$DIMZIN
 70
     8
  9
$DIMBLK
  1

  9
$DIMASO
 70
     1
  9
$DIMSHO
 70
     0
  9
$DIMPOST
  1

  9
$DIMAPOST
  1

  9
$DIMALT
 70
     0
  9
$DIMALTD
 70
     2
  9
$DIMALTF
 40
25.399999999999999
  9
$DIMLFAC
 40
1.0
  9
$DIMTOFL
 70
     1
  9
$DIMTVP
 40
0.0
  9
$DIMTIX
 70
     1
  9
$DIMSOXD
 70
     0
  9
$DIMSAH
 70
     0
  9
$DIMBLK1
  1

  9
$DIMBLK2
  1

  9
$DIMSTYLE
  2
STANDARD
  9
$DIMCLRD
 70
     7
  9
$DIMCLRE
 70
     7
  9
$DIMCLRT
 70
     7
  9
$DIMTFAC
 40
1.0
  9
$DIMGAP
 40
25.0
  9
$LUNITS
 70
     2
  9
$LUPREC
 70
     4
  9
$SKETCHINC
 40
0.1
  9
$FILLETRAD
 40
3.0
  9
$AUNITS
 70
     1
  9
$AUPREC
 70
     3
  9
$MENU
  1
ACAD
  9
$ELEVATION
 40
0.0
  9
$PELEVATION
 40
0.0
  9
$THICKNESS
 40
0.0
  9
$LIMCHECK
 70
     0
  9
$CHAMFERA
 40
0.0
  9
$CHAMFERB
 40
0.0
  9
$SKPOLY
 70
     0
  9
$TDCREATE
 40
2453019.62301037
  9
$TDUPDATE
 40
2459025.594530209
  9
$TDINDWG
 40
1.7139395949
  9
$TDUSRTIMER
 40
1.7139395949
  9
$USRTIMER
 70
     1
  9
$ANGBASE
 50
0.0
  9
$ANGDIR
 70
     0
  9
$PDMODE
 70
     3
  9
$PDSIZE
 40
-2.0
  9
$PLINEWID
 40
0.0
  9
$SPLFRAME
 70
     0
  9
$SPLINETYPE
 70
     6
  9
$SPLINESEGS
 70
     8
  9
$SURFTAB1
 70
     6
  9
$SURFTAB2
 70
     6
  9
$SURFTYPE
 70
     6
  9
$SURFU
 70
     6
  9
$SURFV
 70
     6
  9
$UCSNAME
  2

  9
$UCSORG
 10
0.0
 20
0.0
 30
0.0
  9
$UCSXDIR
 10
1.0
 20
0.0
 30
0.0
  9
$UCSYDIR
 10
0.0
 20
1.0
 30
0.0
  9
$PUCSNAME
  2

  9
$PUCSORG
 10
0.0
 20
0.0
 30
0.0
  9
$PUCSXDIR
 10
1.0
 20
0.0
 30
0.0
  9
$PUCSYDIR
 10
0.0
 20
1.0
 30
0.0
  9
$USERI1
 70
     0
  9
$USERI2
 70
     0
  9
$USERI3
 70
     0
  9
$USERI4
 70
     0
  9
$USERI5
 70
     0
  9
$USERR1
 40
20.0
  9
$USERR2
 40
0.0
  9
$USERR3
 40
0.0
  9
$USERR4
 40
0.0
  9
$USERR5
 40
0.0
  9
$WORLDVIEW
 70
     1
  9
$SHADEDGE
 70
     3
  9
$SHADEDIF
 70
    70
  9
$TILEMODE
 70
     1
  9
$MAXACTVP
 70
    48
  9
$PINSBASE
 10
0.0
 20
0.0
 30
0.0
  9
$PLIMCHECK
 70
     0
  9
$PEXTMIN
 10
-100000000000000000000.0
 20
-100000000000000000000.0
 30
-100000000000000000000.0
  9
$PEXTMAX
 10
100000000000000000000.0
 20
100000000000000000000.0
 30
100000000000000000000.0
  9
$PLIMMIN
 10
0.0
 20
0.0
  9
$PLIMMAX
 10
12.0
 20
9.0
  9
$UNITMODE
 70
     0
  9
$VISRETAIN
 70
     0
  9
$PLINEGEN
 70
     0
  9
$PSLTSCALE
 70
     0
  9
$TREEDEPTH
 70
  3020
  9
$ATTDIA
 70
     0
  9
$ATTREQ
 70
     1
  9
$BLIPMODE
 70
     1
  9
$COORDS
 70
     1
  9
$DRAGMODE
 70
     2
  9
$OSMODE
 70
     0
  9
$HANDLING
 70
     0
  9
$HANDSEED
  5
F9EE
  0
ENDSEC
  0
SECTION
  2
TABLES
  0
TABLE
  2
LTYPE
 70
     4
  0
LTYPE
  2
CONTINUOUS
 70
     0
  3
実線
 72
    65
 73
     0
 40
0.0
  0
LTYPE
  2
DASHDOT
 70
     0
  3
____ _ ____ _ ____ _ ____ _ ____ _ ____ _ ____
 72
    65
 73
     4
 40
5.5
 49
4.0
 49
-0.6
 49
0.3
 49
-0.6
  0
LTYPE
  2
CENTER
 70
     0
  3
Center ____ _ ____ _ ____ _ ____ _ ____ _ ____
 72
    65
 73
     4
 40
1.0
 49
0.5
 49
-0.25
 49
0.0
 49
-0.25
  0
LTYPE
  2
DIVIDE
 70
     0
  3
Divide ____ . . ____ . . ____ . . ____ . . ____
 72
    65
 73
     6
 40
1.25
 49
0.5
 49
-0.25
 49
0.0
 49
-0.25
 49
0.0
 49
-0.25
  0
ENDTAB
  0
TABLE
  2
LAYER
 70
    12
  0
LAYER
  2
0
 70
     0
 62
     7
  6
CONTINUOUS
  0
LAYER
  2
BASIS
 70
     0
 62
     6
  6
DASHDOT
  0
LAYER
  2
OUTLINE
 70
     0
 62
     3
  6
CONTINUOUS
  0
LAYER
  2
DETAIL
 70
     0
 62
     5
  6
CONTINUOUS
  0
LAYER
  2
SIZE
 70
     0
 62
    30
  6
CONTINUOUS
  0
LAYER
  2
ARRANGE
 70
     0
 62
     1
  6
CONTINUOUS
  0
LAYER
  2
ETC
 70
     0
 62
    61
  6
CONTINUOUS
  0
LAYER
  2
FIX
 70
     0
 62
    11
  6
CONTINUOUS
  0
LAYER
  2
NOTE
 70
     0
 62
     4
  6
CONTINUOUS
  0
LAYER
  2
DEFPOINTS
 70
    64
 62
     7
  6
CONTINUOUS
  0
LAYER
  2
SERVICESPACE
 70
    64
 62
     2
  6
DASHDOT
  0
LAYER
  2
SYMBOLLINE
 70
    64
 62
    15
  6
CONTINUOUS
  0
ENDTAB
  0
TABLE
  2
STYLE
 70
     1
  0
STYLE
  2
STANDARD
 70
     0
 40
64.0
 41
0.9
 50
0.0
 71
     0
 42
64.0
  3
SIMPLEX.shx
  4
BIGFONT.shx
  0
ENDTAB
  0
TABLE
  2
APPID
 70
    19
  0
APPID
  2
ACAD
 70
     0
  0
APPID
  2
AUTOCAD_POSTSCRIPT_FIGURE
 70
     0
  0
APPID
  2
ACAD_EXEMPT_FROM_CAD_STANDARDS
 70
     0
  0
APPID
  2
ACAD_PSEXT
 70
     0
  0
APPID
  2
ACAUTHENVIRON
 70
     0
  0
APPID
  2
GENIUS_GENOENT_13
 70
     0
  0
APPID
  2
GENIUS_GENCFG_13
 70
     0
  0
APPID
  2
GENIUS_GENCFG0_13
 70
     0
  0
APPID
  2
GENIUS_GENCFG1_13
 70
     0
  0
APPID
  2
GENIUS_GENCFG2_13
 70
     0
  0
APPID
  2
GENIUS_GENCFG3_13
 70
     0
  0
APPID
  2
GENIUS_GENCFG4_13
 70
     0
  0
APPID
  2
GENIUS_GEVCFG0_13
 70
     0
  0
APPID
  2
CONTENTBLOCKICON
 70
     0
  0
APPID
  2
CONTENTBLOCKDESCRIPTION
 70
     0
  0
APPID
  2
ACAD_NAV_VCDISPLAY
 70
     0
  0
APPID
  2
ACAD_MLEADERVER
 70
     0
  0
APPID
  2
ACDBDYNAMICBLOCKTRUENAME
 70
     0
  0
APPID
  2
ACDBDYNAMICBLOCKGUID
 70
     0
  0
ENDTAB
  0
TABLE
  2
DIMSTYLE
 70
     1
  0
DIMSTYLE
  2
STANDARD
 70
     0
  3

  4

  5
_ORIGIN
  6

  7

 40
1.0
 41
12.0
 42
20.0
 43
200.0
 44
20.0
 45
0.0
 46
0.0
 47
0.0
 48
0.0
140
64.0
141
0.09
142
0.0
143
25.399999999999999
144
1.0
145
0.0
146
1.0
147
25.0
 71
     0
 72
     0
 73
     0
 74
     0
 75
     0
 76
     0
 77
     1
 78
     8
170
     0
171
     2
172
     1
173
     0
174
     1
175
     0
176
     7
177
     7
178
     7
  0
ENDTAB
  0
TABLE
  2
VIEW
 70
     1
  0
VIEW
  2
ALL
 70
     0
 40
4282.6198079999986
 10
0.0
 20
41.309904000000003
 41
5940.0
 11
0.0
 21
0.0
 31
1.0
 12
0.0
 22
0.0
 32
0.0
 42
50.0
 43
0.0
 44
0.0
 50
0.0
 71
     0
  0
ENDTAB
  0
TABLE
  2
UCS
 70
     0
  0
ENDTAB
  0
TABLE
  2
VPORT
 70
     1
  0
VPORT
  2
*ACTIVE
 70
     0
 10
0.0
 20
0.0
 11
1.0
 21
1.0
 12
331.95878496854323
 22
-99.655141704314701
 13
0.0
 23
0.0
 14
1.0
 24
1.0
 15
0.0
 25
0.0
 16
0.0
 26
0.0
 36
1.0
 17
0.0
 27
0.0
 37
0.0
 40
1465.0629675299861
 41
1.747787610619469
 42
50.0
 43
0.0
 44
0.0
 50
0.0
 51
0.0
 71
     0
 72
  1000
 73
     1
 74
     3
 75
     0
 76
     0
 77
     0
 78
     0
  0
ENDTAB
  0
ENDSEC
  0
SECTION
  2
BLOCKS
  0
BLOCK
  8
0
  2
_ORIGIN
 70
     0
 10
0.0
 20
0.0
 30
0.0
  3
_ORIGIN
  1
_ORIGIN
  0
CIRCLE
  8
0
  6
CONTINUOUS
 62
     7
 10
0.0
 20
0.0
 30
0.0
 40
0.5
  0
LINE
  8
0
  6
CONTINUOUS
 62
     7
 10
0.0
 20
0.0
 30
0.0
 11
-1.0
 21
0.0
 31
0.0
  0
ENDBLK
  8
0
  0
ENDSEC
  0
SECTION
  2
ENTITIES
  0
TEXT
  8
ETC
  6
CONTINUOUS
 62
    61
 10
603.25352807981471
 20
524.59923879444636
 30
0.0
 40
64.0
  1
V-754SHL3-R-S_1
 41
0.9
  0
TEXT
  8
ETC
  6
CONTINUOUS
 62
    61
 10
599.06753407981432
 20
406.64392877961518
 30
0.0
 40
64.0
  1
換気扇
 41
0.9
  0
CIRCLE
  8
ARRANGE
  6
CONTINUOUS
 62
     1
 10
0.0
 20
0.0
 30
0.0
 40
40.0
  0
POINT
  8
ARRANGE
  6
CONTINUOUS
 62
     1
 10
0.0
 20
0.0
 30
0.0
  0
LINE
  8
BASIS
  6
DASHDOT
 62
     6
 10
504.42827110143207
 20
0.0
 30
0.0
 11
-451.5251984608949
 21
0.0
 31
0.0
  0
TEXT
  8
ETC
  6
CONTINUOUS
 62
    61
 10
649.76893232837028
 20
298.49515589338989
 30
0.0
 40
40.0
  1
V-754SHL3-R-S
 41
0.9
  0
LINE
  8
BASIS
  6
DASHDOT
 62
     6
 10
135.49005985000079
 20
-51.834556297999598
 30
0.0
 11
135.49005985000079
 21
-238.35890560199999
 31
0.0
  0
LINE
  8
BASIS
  6
DASHDOT
 62
     6
 10
42.227885198002703
 20
-145.09673094999991
 30
0.0
 11
228.75223450200249
 21
-145.09673094999991
 31
0.0
  0
LINE
  8
BASIS
  6
DASHDOT
 62
     6
 10
0.0
 20
-646.26563519319598
 30
0.0
 11
0.0
 21
91.398561801433971
 31
0.0
  0
CIRCLE
  8
FIX
  6
CONTINUOUS
 62
    11
 10
-240.0
 20
-290.0
 30
0.0
 40
5.0
  0
CIRCLE
  8
FIX
  6
CONTINUOUS
 62
    11
 10
240.0
 20
-290.0
 30
0.0
 40
5.0
  0
LINE
  8
SIZE
  6
CONTINUOUS
 62
    30
 10
135.49005985000079
 20
-31.834556297999601
 30
0.0
 11
135.49005985000079
 21
199.35751088676079
 31
0.0
  0
LINE
  8
SIZE
  6
CONTINUOUS
 62
    30
 10
0.3999999999996362
 20
111.398561801434
 30
0.0
 11
0.3999999999996362
 21
199.35751088676079
 31
0.0
  0
LINE
  8
SIZE
  6
CONTINUOUS
 62
    30
 10
123.4900598500008
 20
179.35751088676079
 30
0.0
 11
12.39999999999964
 21
179.35751088676079
 31
0.0
  0
CIRCLE
  8
SIZE
  6
CONTINUOUS
 62
    30
 10
135.49005985000079
 20
179.35751088676079
 30
0.0
 40
6.0
  0
LINE
  8
SIZE
  6
CONTINUOUS
 62
    30
 10
135.49005985000079
 20
179.35751088676079
 30
0.0
 11
123.4900598500008
 21
179.35751088676079
 31
0.0
  0
CIRCLE
  8
SIZE
  6
CONTINUOUS
 62
    30
 10
0.3999999999996362
 20
179.35751088676079
 30
0.0
 40
6.0
  0
LINE
  8
SIZE
  6
CONTINUOUS
 62
    30
 10
0.3999999999996362
 20
179.35751088676079
 30
0.0
 11
12.39999999999964
 21
179.35751088676079
 31
0.0
  0
TEXT
  8
SIZE
  6
CONTINUOUS
 62
    30
 10
-0.6263986464283704
 20
204.35751088676079
 30
0.0
 40
64.0
  1
135
 41
0.9
 72
     1
 11
67.945029925000199
 21
204.35751088676079
 31
0.0
  0
LINE
  8
SIZE
  6
CONTINUOUS
 62
    30
 10
524.42827110143207
 20
0.0
 30
0.0
 11
684.76130669026315
 21
0.0
 31
0.0
  0
LINE
  8
SIZE
  6
CONTINUOUS
 62
    30
 10
248.75223450200249
 20
-145.09673094999991
 30
0.0
 11
684.76130669026315
 21
-145.09673095000019
 31
0.0
  0
LINE
  8
SIZE
  6
CONTINUOUS
 62
    30
 10
664.76130669026315
 20
-12.0
 30
0.0
 11
664.76130669026315
 21
-133.09673095000019
 31
0.0
  0
LINE
  8
SIZE
  6
CONTINUOUS
 62
    30
 10
664.76130669026315
 20
-145.09673095000019
 30
0.0
 11
664.76130669026315
 21
-357.50723571772068
 31
0.0
  0
CIRCLE
  8
SIZE
  6
CONTINUOUS
 62
    30
 10
664.76130669026315
 20
0.0
 30
0.0
 40
6.0
  0
LINE
  8
SIZE
  6
CONTINUOUS
 62
    30
 10
664.76130669026315
 20
0.0
 30
0.0
 11
664.76130669026315
 21
-12.0
 31
0.0
  0
CIRCLE
  8
SIZE
  6
CONTINUOUS
 62
    30
 10
664.76130669026315
 20
-145.09673095000019
 30
0.0
 40
6.0
  0
LINE
  8
SIZE
  6
CONTINUOUS
 62
    30
 10
664.76130669026315
 20
-145.09673095000019
 30
0.0
 11
664.76130669026315
 21
-133.09673095000019
 31
0.0
  0
TEXT
  8
SIZE
  6
CONTINUOUS
 62
    30
 10
639.76130669026315
 20
-332.50723571772062
 30
0.0
 40
64.0
  1
145
 50
90.0
 41
0.9
 72
     1
 11
639.76130669026315
 21
-263.93580714629212
 31
0.0
  0
LINE
  8
SIZE
  6
CONTINUOUS
 62
    30
 10
524.42827110143207
 20
0.0
 30
0.0
 11
819.28523304403643
 21
-0.0000000000001137
 31
0.0
  0
LINE
  8
SIZE
  6
CONTINUOUS
 62
    30
 10
314.99666402799988
 20
-610.40693710000016
 30
0.0
 11
819.28523304403643
 21
-610.40693710000028
 31
0.0
  0
LINE
  8
SIZE
  6
CONTINUOUS
 62
    30
 10
799.28523304403643
 20
-12.00000000000011
 30
0.0
 11
799.28523304403643
 21
-598.40693710000028
 31
0.0
  0
CIRCLE
  8
SIZE
  6
CONTINUOUS
 62
    30
 10
799.28523304403643
 20
-0.0000000000001137
 30
0.0
 40
6.0
  0
LINE
  8
SIZE
  6
CONTINUOUS
 62
    30
 10
799.28523304403643
 20
-0.0000000000001137
 30
0.0
 11
799.28523304403643
 21
-12.00000000000011
 31
0.0
  0
CIRCLE
  8
SIZE
  6
CONTINUOUS
 62
    30
 10
799.28523304403643
 20
-610.40693710000028
 30
0.0
 40
6.0
  0
LINE
  8
SIZE
  6
CONTINUOUS
 62
    30
 10
799.28523304403643
 20
-610.40693710000028
 30
0.0
 11
799.28523304403643
 21
-598.40693710000028
 31
0.0
  0
TEXT
  8
SIZE
  6
CONTINUOUS
 62
    30
 10
774.28523304403643
 20
-373.77489712142858
 30
0.0
 40
64.0
  1
610
 50
90.0
 41
0.9
 72
     1
 11
774.28523304403643
 21
-305.20346855000003
 31
0.0
  0
LINE
  8
SIZE
  6
CONTINUOUS
 62
    30
 10
556.60170501110406
 20
172.85292549097349
 30
0.0
 11
57.239695858940649
 21
-204.1776816509016
 31
0.0
  0
TEXT
  8
SIZE
  6
CONTINUOUS
 62
    30
 10
359.1624179572932
 20
55.106934783505878
 30
0.0
 40
64.0
  1
φ148
 50
37.053702704628179
 41
0.9
 72
     1
 11
446.0655184735615
 21
120.7209145209513
 31
0.0
  0
CIRCLE
  8
SIZE
  6
CONTINUOUS
 62
    30
 10
76.393401892123165
 20
-189.7161621873588
 30
0.0
 40
6.0
  0
CIRCLE
  8
SIZE
  6
CONTINUOUS
 62
    30
 10
194.58671780787839
 20
-100.477299712641
 30
0.0
 40
6.0
  0
LINE
  8
SIZE
  6
CONTINUOUS
 62
    30
 10
-471.5251984608949
 20
0.0
 30
0.0
 11
-712.39236391995837
 21
0.0000000000001137
 31
0.0
  0
LINE
  8
SIZE
  6
CONTINUOUS
 62
    30
 10
-393.60000000000042
 20
-454.59000000000009
 30
0.0
 11
-712.39236391995837
 21
-454.58999999999992
 31
0.0
  0
LINE
  8
SIZE
  6
CONTINUOUS
 62
    30
 10
-692.39236391995837
 20
-11.99999999999989
 30
0.0
 11
-692.39236391995837
 21
-442.58999999999992
 31
0.0
  0
CIRCLE
  8
SIZE
  6
CONTINUOUS
 62
    30
 10
-692.39236391995837
 20
0.0000000000001137
 30
0.0
 40
6.0
  0
LINE
  8
SIZE
  6
CONTINUOUS
 62
    30
 10
-692.39236391995837
 20
0.0000000000001137
 30
0.0
 11
-692.39236391995837
 21
-11.99999999999989
 31
0.0
  0
CIRCLE
  8
SIZE
  6
CONTINUOUS
 62
    30
 10
-692.39236391995837
 20
-454.58999999999992
 30
0.0
 40
6.0
  0
LINE
  8
SIZE
  6
CONTINUOUS
 62
    30
 10
-692.39236391995837
 20
-454.58999999999992
 30
0.0
 11
-692.39236391995837
 21
-442.58999999999992
 31
0.0
  0
TEXT
  8
SIZE
  6
CONTINUOUS
 62
    30
 10
-717.39236391995837
 20
-416.05295689285708
 30
0.0
 40
64.0
  1
360～450
 50
90.0
 41
0.9
 72
     1
 11
-717.39236391995837
 21
-225.15009975000001
 31
0.0
  0
LINE
  8
SIZE
  6
CONTINUOUS
 62
    30
 10
-379.80000000000018
 20
-404.29000000000087
 30
0.0
 11
-592.37308738382762
 21
-404.29000000000087
 31
0.0
  0
LINE
  8
SIZE
  6
CONTINUOUS
 62
    30
 10
-572.37308738382762
 20
-392.29000000000087
 30
0.0
 11
-572.37308738382762
 21
-380.29000000000087
 31
0.0
  0
LINE
  8
SIZE
  6
CONTINUOUS
 62
    30
 10
-572.37308738382762
 20
-466.59000000000009
 30
0.0
 11
-572.37308738382762
 21
-623.21857142857141
 31
0.0
  0
LINE
  8
SIZE
  6
CONTINUOUS
 62
    30
 10
-572.37308738382762
 20
-404.29000000000087
 30
0.0
 11
-572.37308738382762
 21
-454.59000000000009
 31
0.0
  0
CIRCLE
  8
SIZE
  6
CONTINUOUS
 62
    30
 10
-572.37308738382762
 20
-404.29000000000087
 30
0.0
 40
6.0
  0
LINE
  8
SIZE
  6
CONTINUOUS
 62
    30
 10
-572.37308738382762
 20
-404.29000000000087
 30
0.0
 11
-572.37308738382762
 21
-392.29000000000087
 31
0.0
  0
CIRCLE
  8
SIZE
  6
CONTINUOUS
 62
    30
 10
-572.37308738382762
 20
-454.59000000000009
 30
0.0
 40
6.0
  0
LINE
  8
SIZE
  6
CONTINUOUS
 62
    30
 10
-572.37308738382762
 20
-454.59000000000009
 30
0.0
 11
-572.37308738382762
 21
-466.59000000000009
 31
0.0
  0
TEXT
  8
SIZE
  6
CONTINUOUS
 62
    30
 10
-597.37308738382762
 20
-598.21857142857152
 30
0.0
 40
64.0
  1
50
 50
90.0
 41
0.9
 72
     1
 11
-597.37308738382762
 21
-551.59000000000015
 31
0.0
  0
TEXT
  8
NOTE
  6
CONTINUOUS
 62
     4
 10
796.97675439701925
 20
136.1860348972601
 30
0.0
 40
64.0
  1
AH 2-Φ12×47
 41
0.9
  0
CIRCLE
  8
FIX
  6
CONTINUOUS
 62
    11
 10
275.0
 20
0.0
 30
0.0
 40
5.0
  0
CIRCLE
  8
FIX
  6
CONTINUOUS
 62
    11
 10
-275.0
 20
0.0
 30
0.0
 40
5.0
  0
LINE
  8
SIZE
  6
CONTINUOUS
 62
    30
 10
275.0
 20
41.681120716666783
 30
0.0
 11
275.0
 21
558.74777731862741
 31
0.0
  0
LINE
  8
SIZE
  6
CONTINUOUS
 62
    30
 10
-275.18345525000223
 20
41.681120716666783
 30
0.0
 11
-275.18345525000223
 21
558.74777731862741
 31
0.0
  0
LINE
  8
SIZE
  6
CONTINUOUS
 62
    30
 10
263.0
 20
538.74777731862741
 30
0.0
 11
-263.18345525000223
 21
538.74777731862741
 31
0.0
  0
CIRCLE
  8
SIZE
  6
CONTINUOUS
 62
    30
 10
275.0
 20
538.74777731862741
 30
0.0
 40
6.0
  0
LINE
  8
SIZE
  6
CONTINUOUS
 62
    30
 10
275.0
 20
538.74777731862741
 30
0.0
 11
263.0
 21
538.74777731862741
 31
0.0
  0
CIRCLE
  8
SIZE
  6
CONTINUOUS
 62
    30
 10
-275.18345525000223
 20
538.74777731862741
 30
0.0
 40
6.0
  0
LINE
  8
SIZE
  6
CONTINUOUS
 62
    30
 10
-275.18345525000223
 20
538.74777731862741
 30
0.0
 11
-263.18345525000223
 21
538.74777731862741
 31
0.0
  0
TEXT
  8
SIZE
  6
CONTINUOUS
 62
    30
 10
-74.148870482143963
 20
563.74777731862741
 30
0.0
 40
64.0
  1
550
 41
0.9
 72
     1
 11
-0.0917276250011128
 21
563.74777731862741
 31
0.0
  0
LINE
  8
NOTE
  6
CONTINUOUS
 62
     4
 10
275.0
 20
21.681120716666779
 30
0.0
 11
275.0
 21
-21.681120716666669
 31
0.0
  0
LINE
  8
NOTE
  6
CONTINUOUS
 62
     4
 10
-275.18345525000223
 20
21.681120716666779
 30
0.0
 11
-275.18345525000223
 21
-21.681120716666669
 31
0.0
  0
LINE
  8
NOTE
  6
CONTINUOUS
 62
     4
 10
-218.3188792833341
 20
0.0
 30
0.0
 11
-296.86457596666833
 21
0.0
 31
0.0
  0
LINE
  8
NOTE
  6
CONTINUOUS
 62
     4
 10
245.686666419414
 20
-287.5006952318073
 30
0.0
 11
240.0
 21
-290.0
 31
0.0
  0
LINE
  8
NOTE
  6
CONTINUOUS
 62
     4
 10
240.0
 20
-290.0
 30
0.0
 11
243.67513765149491
 21
-284.99219983100721
 31
0.0
  0
LINE
  8
NOTE
  6
CONTINUOUS
 62
     4
 10
240.0
 20
-290.0
 30
0.0
 11
249.3618040709089
 21
-282.49289506281463
 31
0.0
  0
LINE
  8
NOTE
  6
CONTINUOUS
 62
     4
 10
249.3618040709089
 20
-282.49289506281463
 30
0.0
 11
743.80597423702056
 21
114.59852512096219
 31
0.0
  0
LINE
  8
NOTE
  6
CONTINUOUS
 62
     4
 10
743.80597423702056
 20
114.59852512096219
 30
0.0
 11
1375.137696036028
 21
114.59852512096219
 31
0.0
  0
TEXT
  8
NOTE
  6
CONTINUOUS
 62
     4
 10
472.29106865795711
 20
369.72398948638511
 30
0.0
 40
64.0
  1
EL
 41
0.9
  0
LINE
  8
NOTE
  6
CONTINUOUS
 62
     4
 10
177.1169631592411
 20
55.440054752047438
 30
0.0
 11
171.70749631373289
 21
52.386799483101527
 31
0.0
  0
LINE
  8
NOTE
  6
CONTINUOUS
 62
     4
 10
171.70749631373289
 20
52.386799483101527
 30
0.0
 11
174.86559632785969
 21
57.73573429208659
 31
0.0
  0
LINE
  8
NOTE
  6
CONTINUOUS
 62
     4
 10
171.70749631373289
 20
52.386799483101527
 30
0.0
 11
180.2750631733679
 21
60.788989561032508
 31
0.0
  0
LINE
  8
NOTE
  6
CONTINUOUS
 62
     4
 10
180.2750631733679
 20
60.788989561032508
 30
0.0
 11
435.29106865795711
 21
312.72398948638511
 31
0.0
  0
LINE
  8
NOTE
  6
CONTINUOUS
 62
     4
 10
435.29106865795711
 20
312.72398948638511
 30
0.0
 11
557.31964008652858
 21
312.72398948638511
 31
0.0
  0
LINE
  8
NOTE
  6
CENTER
 62
     4
 10
261.76330999999851
 20
-290.0
 30
0.0
 11
219.67088999999939
 21
-290.0
 31
0.0
  0
LINE
  8
NOTE
  6
CENTER
 62
     4
 10
-261.76331000000027
 20
-290.0
 30
0.0
 11
-219.67089000000311
 21
-290.0
 31
0.0
  0
LINE
  8
NOTE
  6
CENTER
 62
     4
 10
240.0
 20
-233.99999999999639
 30
0.0
 11
240.0
 21
-309.9576399999969
 31
0.0
  0
LINE
  8
NOTE
  6
CENTER
 62
     4
 10
-240.0
 20
-233.99999999999639
 30
0.0
 11
-240.0
 21
-309.9576399999969
 31
0.0
  0
LINE
  8
SIZE
  6
CONTINUOUS
 62
    30
 10
-281.76331000000027
 20
-290.0
 30
0.0
 11
-594.21953906262206
 21
-289.99999999999989
 31
0.0
  0
LINE
  8
SIZE
  6
CONTINUOUS
 62
    30
 10
-574.21953906262206
 20
-277.99999999999989
 30
0.0
 11
-574.21953906262206
 21
-12.0
 31
0.0
  0
LINE
  8
SIZE
  6
CONTINUOUS
 62
    30
 10
-574.21953906262206
 20
0.0
 30
0.0
 11
-574.21953906262206
 21
467.317393149792
 31
0.0
  0
CIRCLE
  8
SIZE
  6
CONTINUOUS
 62
    30
 10
-574.21953906262206
 20
-289.99999999999989
 30
0.0
 40
6.0
  0
LINE
  8
SIZE
  6
CONTINUOUS
 62
    30
 10
-574.21953906262206
 20
-289.99999999999989
 30
0.0
 11
-574.21953906262206
 21
-277.99999999999989
 31
0.0
  0
CIRCLE
  8
SIZE
  6
CONTINUOUS
 62
    30
 10
-574.21953906262206
 20
0.0
 30
0.0
 40
6.0
  0
LINE
  8
SIZE
  6
CONTINUOUS
 62
    30
 10
-574.21953906262206
 20
0.0
 30
0.0
 11
-574.21953906262206
 21
-12.0
 31
0.0
  0
TEXT
  8
SIZE
  6
CONTINUOUS
 62
    30
 10
-599.21953906262206
 20
58.317393149791769
 30
0.0
 40
64.0
  1
255~290
 50
90.0
 41
0.9
 72
     1
 11
-599.21953906262206
 21
250.3173931497918
 31
0.0
  0
LINE
  8
SIZE
  6
CONTINUOUS
 62
    30
 10
-240.0
 20
-213.99999999999639
 30
0.0
 11
-240.0
 21
456.87178054820151
 31
0.0
  0
LINE
  8
SIZE
  6
CONTINUOUS
 62
    30
 10
240.0
 20
-213.99999999999639
 30
0.0
 11
240.0
 21
456.87178054820151
 31
0.0
  0
LINE
  8
SIZE
  6
CONTINUOUS
 62
    30
 10
-228.0
 20
436.87178054820151
 30
0.0
 11
228.0
 21
436.87178054820151
 31
0.0
  0
CIRCLE
  8
SIZE
  6
CONTINUOUS
 62
    30
 10
-240.0
 20
436.87178054820151
 30
0.0
 40
6.0
  0
LINE
  8
SIZE
  6
CONTINUOUS
 62
    30
 10
-240.0
 20
436.87178054820151
 30
0.0
 11
-228.0
 21
436.87178054820151
 31
0.0
  0
CIRCLE
  8
SIZE
  6
CONTINUOUS
 62
    30
 10
240.0
 20
436.87178054820151
 30
0.0
 40
6.0
  0
LINE
  8
SIZE
  6
CONTINUOUS
 62
    30
 10
240.0
 20
436.87178054820151
 30
0.0
 11
228.0
 21
436.87178054820151
 31
0.0
  0
TEXT
  8
SIZE
  6
CONTINUOUS
 62
    30
 10
-74.057142857142836
 20
461.87178054820151
 30
0.0
 40
64.0
  1
480
 41
0.9
 72
     1
 11
0.0
 21
461.87178054820151
 31
0.0
  0
LINE
  8
NOTE
  6
CONTINUOUS
 62
     4
 10
-240.0
 20
21.681120716666779
 30
0.0
 11
-240.0
 21
-21.681120716666669
 31
0.0
  0
CIRCLE
  8
FIX
  6
CONTINUOUS
 62
    11
 10
-240.0
 20
0.0
 30
0.0
 40
5.0
  0
LINE
  8
NOTE
  6
CONTINUOUS
 62
     4
 10
240.13342199999721
 20
21.681120716666669
 30
0.0
 11
240.13342199999721
 21
-21.681120716666669
 31
0.0
  0
LINE
  8
NOTE
  6
CONTINUOUS
 62
     4
 10
296.6811207166661
 20
0.0
 30
0.0
 11
218.45230128333111
 21
0.0
 31
0.0
  0
CIRCLE
  8
FIX
  6
CONTINUOUS
 62
    11
 10
240.0
 20
0.0
 30
0.0
 40
5.0
  0
LINE
  8
DETAIL
  6
CONTINUOUS
 62
     5
 10
-369.80000000000018
 20
-403.38999999999942
 30
0.0
 11
-369.80000000000018
 21
-404.59000000000009
 31
0.0
  0
LINE
  8
DETAIL
  6
CONTINUOUS
 62
     5
 10
-364.80000000000018
 20
-403.38999999999942
 30
0.0
 11
-364.80000000000018
 21
-404.59000000000009
 31
0.0
  0
LINE
  8
DETAIL
  6
CONTINUOUS
 62
     5
 10
-369.80000000000018
 20
-404.59000000000009
 30
0.0
 11
-364.80000000000018
 21
-404.59000000000009
 31
0.0
  0
LINE
  8
DETAIL
  6
CONTINUOUS
 62
     5
 10
365.19999999999982
 20
-404.59000000000009
 30
0.0
 11
370.19999999999982
 21
-404.59000000000009
 31
0.0
  0
LINE
  8
DETAIL
  6
CONTINUOUS
 62
     5
 10
365.19999999999982
 20
-403.38999999999942
 30
0.0
 11
365.19999999999982
 21
-404.59000000000009
 31
0.0
  0
LINE
  8
DETAIL
  6
CONTINUOUS
 62
     5
 10
370.19999999999982
 20
-403.38999999999942
 30
0.0
 11
370.19999999999982
 21
-404.59000000000009
 31
0.0
  0
LINE
  8
DETAIL
  6
CONTINUOUS
 62
     5
 10
374.0
 20
-402.18999999999858
 30
0.0
 11
365.19999999999982
 21
-402.18999999999858
 31
0.0
  0
LINE
  8
DETAIL
  6
CONTINUOUS
 62
     5
 10
365.19999999999982
 20
-211.59000000000009
 30
0.0
 11
365.19999999999982
 21
-402.18999999999858
 31
0.0
  0
ARC
  8
DETAIL
  6
CONTINUOUS
 62
     5
 10
-364.50000000000091
 20
-405.79000000000087
 30
0.0
 40
1.2
 50
90.0
 51
180.0
  0
ARC
  8
DETAIL
  6
CONTINUOUS
 62
     5
 10
-370.10000000000042
 20
-405.79000000000087
 30
0.0
 40
1.2
 50
0.0
 51
90.0
  0
ARC
  8
DETAIL
  6
CONTINUOUS
 62
     5
 10
370.49999999999909
 20
-405.79000000000087
 30
0.0
 40
1.2
 50
90.0
 51
180.0
  0
ARC
  8
DETAIL
  6
CONTINUOUS
 62
     5
 10
364.89999999999958
 20
-405.79000000000087
 30
0.0
 40
1.2
 50
0.0
 51
90.0
  0
LINE
  8
DETAIL
  6
CONTINUOUS
 62
     5
 10
374.00000161338357
 20
-452.18999523449747
 30
0.0
 11
374.00596420738788
 21
-452.1937911342801
 31
0.0
  0
LINE
  8
DETAIL
  6
CONTINUOUS
 62
     5
 10
374.00596420738788
 20
-452.1937911342801
 30
0.0
 11
374.01192673762489
 21
-452.19758708670571
 31
0.0
  0
LINE
  8
DETAIL
  6
CONTINUOUS
 62
     5
 10
374.01192673762489
 20
-452.19758708670571
 30
0.0
 11
374.01788914032841
 21
-452.20138314441652
 31
0.0
  0
LINE
  8
DETAIL
  6
CONTINUOUS
 62
     5
 10
374.01788914032841
 20
-452.20138314441652
 30
0.0
 11
374.02385135173063
 21
-452.20517936005598
 31
0.0
  0
LINE
  8
DETAIL
  6
CONTINUOUS
 62
     5
 10
374.02385135173063
 20
-452.20517936005598
 30
0.0
 11
374.02981330806603
 21
-452.20897578626722
 31
0.0
  0
LINE
  8
DETAIL
  6
CONTINUOUS
 62
     5
 10
374.02981330806603
 20
-452.20897578626722
 30
0.0
 11
374.03577494556703
 21
-452.21277247569333
 31
0.0
  0
LINE
  8
DETAIL
  6
CONTINUOUS
 62
     5
 10
374.03577494556703
 20
-452.21277247569333
 30
0.0
 11
374.0417362004664
 21
-452.21656948097711
 31
0.0
  0
LINE
  8
DETAIL
  6
CONTINUOUS
 62
     5
 10
374.0417362004664
 20
-452.21656948097711
 30
0.0
 11
374.04769703021378
 21
-452.2203668689657
 31
0.0
  0
LINE
  8
DETAIL
  6
CONTINUOUS
 62
     5
 10
374.04769703021378
 20
-452.2203668689657
 30
0.0
 11
374.05365747711858
 21
-452.22416476330193
 31
0.0
  0
LINE
  8
DETAIL
  6
CONTINUOUS
 62
     5
 10
374.05365747711858
 20
-452.22416476330193
 30
0.0
 11
374.05961760470609
 21
-452.22796330183269
 31
0.0
  0
LINE
  8
DETAIL
  6
CONTINUOUS
 62
     5
 10
374.05961760470609
 20
-452.22796330183269
 30
0.0
 11
374.06557747650191
 21
-452.23176262240491
 31
0.0
  0
LINE
  8
DETAIL
  6
CONTINUOUS
 62
     5
 10
374.06557747650191
 20
-452.23176262240491
 30
0.0
 11
374.07153715603272
 21
-452.23556286286572
 31
0.0
  0
LINE
  8
DETAIL
  6
CONTINUOUS
 62
     5
 10
374.07153715603272
 20
-452.23556286286572
 30
0.0
 11
374.07749670682279
 21
-452.23936416106181
 31
0.0
  0
LINE
  8
DETAIL
  6
CONTINUOUS
 62
     5
 10
374.07749670682279
 20
-452.23936416106181
 30
0.0
 11
374.08345619239839
 21
-452.24316665484002
 31
0.0
  0
LINE
  8
DETAIL
  6
CONTINUOUS
 62
     5
 10
374.08345619239839
 20
-452.24316665484002
 30
0.0
 11
374.0894155904848
 21
-452.24697042628082
 31
0.0
  0
LINE
  8
DETAIL
  6
CONTINUOUS
 62
     5
 10
374.0894155904848
 20
-452.24697042628082
 30
0.0
 11
374.09537453560688
 21
-452.25077533439799
 31
0.0
  0
LINE
  8
DETAIL
  6
CONTINUOUS
 62
     5
 10
374.09537453560688
 20
-452.25077533439799
 30
0.0
 11
374.1013325764884
 21
-452.25458118243921
 31
0.0
  0
LINE
  8
DETAIL
  6
CONTINUOUS
 62
     5
 10
374.1013325764884
 20
-452.25458118243921
 30
0.0
 11
374.10728926185402
 21
-452.25838777365129
 31
0.0
  0
LINE
  8
DETAIL
  6
CONTINUOUS
 62
     5
 10
374.10728926185402
 20
-452.25838777365129
 30
0.0
 11
374.11324414042878
 21
-452.26219491128228
 31
0.0
  0
LINE
  8
DETAIL
  6
CONTINUOUS
 62
     5
 10
374.11324414042878
 20
-452.26219491128228
 30
0.0
 11
374.11919676093657
 21
-452.26600239857942
 31
0.0
  0
LINE
  8
DETAIL
  6
CONTINUOUS
 62
     5
 10
374.11919676093657
 20
-452.26600239857942
 30
0.0
 11
374.12514667210229
 21
-452.26981003878967
 31
0.0
  0
LINE
  8
DETAIL
  6
CONTINUOUS
 62
     5
 10
374.12514667210229
 20
-452.26981003878967
 30
0.0
 11
374.13109374463511
 21
-452.27361784402802
 31
0.0
  0
LINE
  8
DETAIL
  6
CONTINUOUS
 62
     5
 10
374.13109374463511
 20
-452.27361784402802
 30
0.0
 11
374.13703913718649
 21
-452.27742666186862
 31
0.0
  0
LINE
  8
DETAIL
  6
CONTINUOUS
 62
     5
 10
374.13703913718649
 20
-452.27742666186862
 30
0.0
 11
374.14298433039357
 21
-452.28123754875207
 31
0.0
  0
LINE
  8
DETAIL
  6
CONTINUOUS
 62
     5
 10
374.14298433039357
 20
-452.28123754875207
 30
0.0
 11
374.14893080489219
 21
-452.28505156111942
 31
0.0
  0
LINE
  8
DETAIL
  6
CONTINUOUS
 62
     5
 10
374.14893080489219
 20
-452.28505156111942
 30
0.0
 11
374.1548800413193
 21
-452.28886975541161
 31
0.0
  0
LINE
  8
DETAIL
  6
CONTINUOUS
 62
     5
 10
374.1548800413193
 20
-452.28886975541161
 30
0.0
 11
374.16083352031092
 21
-452.29269318806968
 31
0.0
  0
LINE
  8
DETAIL
  6
CONTINUOUS
 62
     5
 10
374.16083352031092
 20
-452.29269318806968
 30
0.0
 11
374.1667927225044
 21
-452.2965229155343
 31
0.0
  0
LINE
  8
DETAIL
  6
CONTINUOUS
 62
     5
 10
374.1667927225044
 20
-452.2965229155343
 30
0.0
 11
374.17275792639521
 21
-452.30035921455368
 31
0.0
  0
LINE
  8
DETAIL
  6
CONTINUOUS
 62
     5
 10
374.17275792639521
 20
-452.30035921455368
 30
0.0
 11
374.17872460191302
 21
-452.30419924308723
 31
0.0
  0
LINE
  8
DETAIL
  6
CONTINUOUS
 62
     5
 10
374.17872460191302
 20
-452.30419924308723
 30
0.0
 11
374.18468701684702
 21
-452.30803937940101
 31
0.0
  0
LINE
  8
DETAIL
  6
CONTINUOUS
 62
     5
 10
374.18468701684702
 20
-452.30803937940101
 30
0.0
 11
374.19063943898658
 21
-452.31187600176202
 31
0.0
  0
LINE
  8
DETAIL
  6
CONTINUOUS
 62
     5
 10
374.19063943898658
 20
-452.31187600176202
 30
0.0
 11
374.19657613612071
 21
-452.31570548843717
 31
0.0
  0
LINE
  8
DETAIL
  6
CONTINUOUS
 62
     5
 10
374.19657613612071
 20
-452.31570548843717
 30
0.0
 11
374.20249137603878
 21
-452.31952421769302
 31
0.0
  0
LINE
  8
DETAIL
  6
CONTINUOUS
 62
     5
 10
374.20249137603878
 20
-452.31952421769302
 30
0.0
 11
374.20837942652912
 21
-452.32332856779612
 31
0.0
  0
LINE
  8
DETAIL
  6
CONTINUOUS
 62
     5
 10
374.20837942652912
 20
-452.32332856779612
 30
0.0
 11
374.21423644542938
 21
-452.32711614016807
 31
0.0
  0
LINE
  8
DETAIL
  6
CONTINUOUS
 62
     5
 10
374.21423644542938
 20
-452.32711614016807
 30
0.0
 11
374.22006615077271
 21
-452.33088942885121
 31
0.0
  0
LINE
  8
DETAIL
  6
CONTINUOUS
 62
     5
 10
374.22006615077271
 20
-452.33088942885121
 30
0.0
 11
374.22587415063839
 21
-452.33465215104172
 31
0.0
  0
LINE
  8
DETAIL
  6
CONTINUOUS
 62
     5
 10
374.22587415063839
 20
-452.33465215104172
 30
0.0
 11
374.23166605310729
 21
-452.33840802393678
 31
0.0
  0
LINE
  8
DETAIL
  6
CONTINUOUS
 62
     5
 10
374.23166605310729
 20
-452.33840802393678
 30
0.0
 11
374.23744746625971
 21
-452.34216076473359
 31
0.0
  0
LINE
  8
DETAIL
  6
CONTINUOUS
 62
     5
 10
374.23744746625971
 20
-452.34216076473359
 30
0.0
 11
374.24322399817629
 21
-452.34591409062932
 31
0.0
  0
LINE
  8
DETAIL
  6
CONTINUOUS
 62
     5
 10
374.24322399817629
 20
-452.34591409062932
 30
0.0
 11
374.24900125693688
 21
-452.3496717188209
 31
0.0
  0
LINE
  8
DETAIL
  6
CONTINUOUS
 62
     5
 10
374.24900125693688
 20
-452.3496717188209
 30
0.0
 11
374.25478368704808
 21
-452.35343661866091
 31
0.0
  0
LINE
  8
DETAIL
  6
CONTINUOUS
 62
     5
 10
374.25478368704808
 20
-452.35343661866091
 30
0.0
 11
374.26057107871748
 21
-452.35720876811592
 31
0.0
  0
LINE
  8
DETAIL
  6
CONTINUOUS
 62
     5
 10
374.26057107871748
 20
-452.35720876811592
 30
0.0
 11
374.26636205857812
 21
-452.36098739730772
 31
0.0
  0
LINE
  8
DETAIL
  6
CONTINUOUS
 62
     5
 10
374.26636205857812
 20
-452.36098739730772
 30
0.0
 11
374.27215525326437
 21
-452.36477173635882
 31
0.0
  0
LINE
  8
DETAIL
  6
CONTINUOUS
 62
     5
 10
374.27215525326437
 20
-452.36477173635882
 30
0.0
 11
374.27794928940881
 21
-452.36856101539121
 31
0.0
  0
LINE
  8
DETAIL
  6
CONTINUOUS
 62
     5
 10
374.27794928940881
 20
-452.36856101539121
 30
0.0
 11
374.28374279364562
 21
-452.37235446452718
 31
0.0
  0
LINE
  8
DETAIL
  6
CONTINUOUS
 62
     5
 10
374.28374279364562
 20
-452.37235446452718
 30
0.0
 11
374.28953439260749
 21
-452.37615131388878
 31
0.0
  0
LINE
  8
DETAIL
  6
CONTINUOUS
 62
     5
 10
374.28953439260749
 20
-452.37615131388878
 30
0.0
 11
374.29532287145372
 21
-452.37995088942853
 31
0.0
  0
LINE
  8
DETAIL
  6
CONTINUOUS
 62
     5
 10
374.29532287145372
 20
-452.37995088942853
 30
0.0
 11
374.3011076494422
 21
-452.38375290043751
 31
0.0
  0
LINE
  8
DETAIL
  6
CONTINUOUS
 62
     5
 10
374.3011076494422
 20
-452.38375290043751
 30
0.0
 11
374.30688830435702
 21
-452.38755715203718
 31
0.0
  0
LINE
  8
DETAIL
  6
CONTINUOUS
 62
     5
 10
374.30688830435702
 20
-452.38755715203718
 30
0.0
 11
374.31266441398111
 21
-452.39136344934877
 31
0.0
  0
LINE
  8
DETAIL
  6
CONTINUOUS
 62
     5
 10
374.31266441398111
 20
-452.39136344934877
 30
0.0
 11
374.31843555609839
 21
-452.39517159749312
 31
0.0
  0
LINE
  8
DETAIL
  6
CONTINUOUS
 62
     5
 10
374.31843555609839
 20
-452.39517159749312
 30
0.0
 11
374.32420130849368
 21
-452.39898140159198
 31
0.0
  0
LINE
  8
DETAIL
  6
CONTINUOUS
 62
     5
 10
374.32420130849368
 20
-452.39898140159198
 30
0.0
 11
374.32996124894999
 21
-452.40279266676572
 31
0.0
  0
LINE
  8
DETAIL
  6
CONTINUOUS
 62
     5
 10
374.32996124894999
 20
-452.40279266676572
 30
0.0
 11
374.33571548472543
 21
-452.40660556265289
 31
0.0
  0
LINE
  8
DETAIL
  6
CONTINUOUS
 62
     5
 10
374.33571548472543
 20
-452.40660556265289
 30
0.0
 11
374.34146624097502
 21
-452.4104217169355
 31
0.0
  0
LINE
  8
DETAIL
  6
CONTINUOUS
 62
     5
 10
374.34146624097502
 20
-452.4104217169355
 30
0.0
 11
374.3472162723283
 21
-452.41424312181272
 31
0.0
  0
LINE
  8
DETAIL
  6
CONTINUOUS
 62
     5
 10
374.3472162723283
 20
-452.41424312181272
 30
0.0
 11
374.35296833341448
 21
-452.41807176948282
 31
0.0
  0
LINE
  8
DETAIL
  6
CONTINUOUS
 62
     5
 10
374.35296833341448
 20
-452.41807176948282
 30
0.0
 11
374.35872517886401
 21
-452.4219096521449
 31
0.0
  0
LINE
  8
DETAIL
  6
CONTINUOUS
 62
     5
 10
374.35872517886401
 20
-452.4219096521449
 30
0.0
 11
374.36448956330611
 21
-452.42575876199771
 31
0.0
  0
LINE
  8
DETAIL
  6
CONTINUOUS
 62
     5
 10
374.36448956330611
 20
-452.42575876199771
 30
0.0
 11
374.37026424137002
 21
-452.42962109123982
 31
0.0
  0
LINE
  8
DETAIL
  6
CONTINUOUS
 62
     5
 10
374.37026424137002
 20
-452.42962109123982
 30
0.0
 11
374.37604969126318
 21
-452.43349707818709
 31
0.0
  0
LINE
  8
DETAIL
  6
CONTINUOUS
 62
     5
 10
374.37604969126318
 20
-452.43349707818709
 30
0.0
 11
374.38183728550302
 21
-452.43738094561343
 31
0.0
  0
LINE
  8
DETAIL
  6
CONTINUOUS
 62
     5
 10
374.38183728550302
 20
-452.43738094561343
 30
0.0
 11
374.38761612018698
 21
-452.44126536240913
 31
0.0
  0
LINE
  8
DETAIL
  6
CONTINUOUS
 62
     5
 10
374.38761612018698
 20
-452.44126536240913
 30
0.0
 11
374.39337529140988
 21
-452.44514299746402
 31
0.0
  0
LINE
  8
DETAIL
  6
CONTINUOUS
 62
     5
 10
374.39337529140988
 20
-452.44514299746402
 30
0.0
 11
374.39910389526767
 21
-452.44900651966873
 31
0.0
  0
LINE
  8
DETAIL
  6
CONTINUOUS
 62
     5
 10
374.39910389526767
 20
-452.44900651966873
 30
0.0
 11
374.4047910278573
 21
-452.45284859791292
 31
0.0
  0
LINE
  8
DETAIL
  6
CONTINUOUS
 62
     5
 10
374.4047910278573
 20
-452.45284859791292
 30
0.0
 11
374.41042578527407
 21
-452.4566619010875
 31
0.0
  0
LINE
  8
DETAIL
  6
CONTINUOUS
 62
     5
 10
374.41042578527407
 20
-452.4566619010875
 30
0.0
 11
374.41600088049609
 21
-452.46044155147041
 31
0.0
  0
LINE
  8
DETAIL
  6
CONTINUOUS
 62
     5
 10
374.41600088049609
 20
-452.46044155147041
 30
0.0
 11
374.42152349402932
 21
-452.46419248489411
 31
0.0
  0
LINE
  8
DETAIL
  6
CONTINUOUS
 62
     5
 10
374.42152349402932
 20
-452.46419248489411
 30
0.0
 11
374.42700442326083
 21
-452.46792209057861
 31
0.0
  0
LINE
  8
DETAIL
  6
CONTINUOUS
 62
     5
 10
374.42700442326083
 20
-452.46792209057861
 30
0.0
 11
374.43245446557881
 21
-452.4716377577447
 31
0.0
  0
LINE
  8
DETAIL
  6
CONTINUOUS
 62
     5
 10
374.43245446557881
 20
-452.4716377577447
 30
0.0
 11
374.43788441837069
 21
-452.47534687561279
 31
0.0
  0
LINE
  8
DETAIL
  6
CONTINUOUS
 62
     5
 10
374.43788441837069
 20
-452.47534687561279
 30
0.0
 11
374.44330507902441
 21
-452.47905683340332
 31
0.0
  0
LINE
  8
DETAIL
  6
CONTINUOUS
 62
     5
 10
374.44330507902441
 20
-452.47905683340332
 30
0.0
 11
374.44872724492689
 21
-452.4827750203367
 31
0.0
  0
LINE
  8
DETAIL
  6
CONTINUOUS
 62
     5
 10
374.44872724492689
 20
-452.4827750203367
 30
0.0
 11
374.45415946188501
 21
-452.48650731551879
 31
0.0
  0
LINE
  8
DETAIL
  6
CONTINUOUS
 62
     5
 10
374.45415946188501
 20
-452.48650731551879
 30
0.0
 11
374.45960126938007
 21
-452.49025355761609
 31
0.0
  0
LINE
  8
DETAIL
  6
CONTINUOUS
 62
     5
 10
374.45960126938007
 20
-452.49025355761609
 30
0.0
 11
374.46504995531131
 21
-452.49401207518031
 31
0.0
  0
LINE
  8
DETAIL
  6
CONTINUOUS
 62
     5
 10
374.46504995531131
 20
-452.49401207518031
 30
0.0
 11
374.47050280757821
 21
-452.49778119676353
 31
0.0
  0
LINE
  8
DETAIL
  6
CONTINUOUS
 62
     5
 10
374.47050280757821
 20
-452.49778119676353
 30
0.0
 11
374.47595711408121
 21
-452.50155925091741
 31
0.0
  0
LINE
  8
DETAIL
  6
CONTINUOUS
 62
     5
 10
374.47595711408121
 20
-452.50155925091741
 30
0.0
 11
374.48141016271887
 21
-452.50534456619351
 31
0.0
  0
LINE
  8
DETAIL
  6
CONTINUOUS
 62
     5
 10
374.48141016271887
 20
-452.50534456619351
 30
0.0
 11
374.48685924139141
 21
-452.50913547114402
 31
0.0
  0
LINE
  8
DETAIL
  6
CONTINUOUS
 62
     5
 10
374.48685924139141
 20
-452.50913547114402
 30
0.0
 11
374.49230202946683
 21
-452.51293054149602
 31
0.0
  0
LINE
  8
DETAIL
  6
CONTINUOUS
 62
     5
 10
374.49230202946683
 20
-452.51293054149602
 30
0.0
 11
374.49773777219622
 21
-452.51672934166891
 31
0.0
  0
LINE
  8
DETAIL
  6
CONTINUOUS
 62
     5
 10
374.49773777219622
 20
-452.51672934166891
 30
0.0
 11
374.50316610629937
 21
-452.52053168325767
 31
0.0
  0
LINE
  8
DETAIL
  6
CONTINUOUS
 62
     5
 10
374.50316610629937
 20
-452.52053168325767
 30
0.0
 11
374.50858666849581
 21
-452.52433737785708
 31
0.0
  0
LINE
  8
DETAIL
  6
CONTINUOUS
 62
     5
 10
374.50858666849581
 20
-452.52433737785708
 30
0.0
 11
374.51399909550582
 21
-452.52814623706217
 31
0.0
  0
LINE
  8
DETAIL
  6
CONTINUOUS
 62
     5
 10
374.51399909550582
 20
-452.52814623706217
 30
0.0
 11
374.51940302404819
 21
-452.53195807246772
 31
0.0
  0
LINE
  8
DETAIL
  6
CONTINUOUS
 62
     5
 10
374.51940302404819
 20
-452.53195807246772
 30
0.0
 11
374.52479809084252
 21
-452.53577269566802
 31
0.0
  0
LINE
  8
DETAIL
  6
CONTINUOUS
 62
     5
 10
374.52479809084252
 20
-452.53577269566802
 30
0.0
 11
374.5301846183097
 21
-452.53959043967347
 31
0.0
  0
LINE
  8
DETAIL
  6
CONTINUOUS
 62
     5
 10
374.5301846183097
 20
-452.53959043967347
 30
0.0
 11
374.53556567167698
 21
-452.54341372316048
 31
0.0
  0
LINE
  8
DETAIL
  6
CONTINUOUS
 62
     5
 10
374.53556567167698
 20
-452.54341372316048
 30
0.0
 11
374.54094500187063
 21
-452.54724548622158
 31
0.0
  0
LINE
  8
DETAIL
  6
CONTINUOUS
 62
     5
 10
374.54094500187063
 20
-452.54724548622158
 30
0.0
 11
374.54632635981898
 21
-452.5510886689483
 31
0.0
  0
LINE
  8
DETAIL
  6
CONTINUOUS
 62
     5
 10
374.54632635981898
 20
-452.5510886689483
 30
0.0
 11
374.55171349644888
 21
-452.55494621143288
 31
0.0
  0
LINE
  8
DETAIL
  6
CONTINUOUS
 62
     5
 10
374.55171349644888
 20
-452.55494621143288
 30
0.0
 11
374.55711016268742
 21
-452.55882105376708
 31
0.0
  0
LINE
  8
DETAIL
  6
CONTINUOUS
 62
     5
 10
374.55711016268742
 20
-452.55882105376708
 30
0.0
 11
374.56252010946258
 21
-452.56271613604258
 31
0.0
  0
LINE
  8
DETAIL
  6
CONTINUOUS
 62
     5
 10
374.56252010946258
 20
-452.56271613604258
 30
0.0
 11
374.56794395342598
 21
-452.56663206551741
 31
0.0
  0
LINE
  8
DETAIL
  6
CONTINUOUS
 62
     5
 10
374.56794395342598
 20
-452.56663206551741
 30
0.0
 11
374.57336977412979
 21
-452.57056011808521
 31
0.0
  0
LINE
  8
DETAIL
  6
CONTINUOUS
 62
     5
 10
374.57336977412979
 20
-452.57056011808521
 30
0.0
 11
374.57878251685088
 21
-452.57448923680602
 31
0.0
  0
LINE
  8
DETAIL
  6
CONTINUOUS
 62
     5
 10
374.57878251685088
 20
-452.57448923680602
 30
0.0
 11
374.58416712686488
 21
-452.5784083647402
 31
0.0
  0
LINE
  8
DETAIL
  6
CONTINUOUS
 62
     5
 10
374.58416712686488
 20
-452.5784083647402
 30
0.0
 11
374.58950854944851
 21
-452.58230644494768
 31
0.0
  0
LINE
  8
DETAIL
  6
CONTINUOUS
 62
     5
 10
374.58950854944851
 20
-452.58230644494768
 30
0.0
 11
374.59479172987812
 21
-452.58617242048831
 31
0.0
  0
LINE
  8
DETAIL
  6
CONTINUOUS
 62
     5
 10
374.59479172987812
 20
-452.58617242048831
 30
0.0
 11
374.60000161343032
 21
-452.58999523442247
 31
0.0
  0
LINE
  8
DETAIL
  6
CONTINUOUS
 62
     5
 10
374.60000161343032
 20
-452.58999523442247
 30
0.0
 11
374.60512815129368
 21
-452.5937675144761
 31
0.0
  0
LINE
  8
DETAIL
  6
CONTINUOUS
 62
     5
 10
374.60512815129368
 20
-452.5937675144761
 30
0.0
 11
374.61018131830718
 21
-452.59749662704081
 31
0.0
  0
LINE
  8
DETAIL
  6
CONTINUOUS
 62
     5
 10
374.61018131830718
 20
-452.59749662704081
 30
0.0
 11
374.61517609522252
 21
-452.60119362317459
 31
0.0
  0
LINE
  8
DETAIL
  6
CONTINUOUS
 62
     5
 10
374.61517609522252
 20
-452.60119362317459
 30
0.0
 11
374.62012746279021
 21
-452.60486955393571
 31
0.0
  0
LINE
  8
DETAIL
  6
CONTINUOUS
 62
     5
 10
374.62012746279021
 20
-452.60486955393571
 30
0.0
 11
374.62505040176171
 21
-452.608535470383
 31
0.0
  0
LINE
  8
DETAIL
  6
CONTINUOUS
 62
     5
 10
374.62505040176171
 20
-452.608535470383
 30
0.0
 11
374.62995989288811
 21
-452.61220242357422
 31
0.0
  0
LINE
  8
DETAIL
  6
CONTINUOUS
 62
     5
 10
374.62995989288811
 20
-452.61220242357422
 30
0.0
 11
374.6348709169215
 21
-452.61588146456779
 31
0.0
  0
LINE
  8
DETAIL
  6
CONTINUOUS
 62
     5
 10
374.6348709169215
 20
-452.61588146456779
 30
0.0
 11
374.63979532004493
 21
-452.61958137472573
 31
0.0
  0
LINE
  8
DETAIL
  6
CONTINUOUS
 62
     5
 10
374.63979532004493
 20
-452.61958137472573
 30
0.0
 11
374.64473241017089
 21
-452.6233018566262
 31
0.0
  0
LINE
  8
DETAIL
  6
CONTINUOUS
 62
     5
 10
374.64473241017089
 20
-452.6233018566262
 30
0.0
 11
374.64967836064352
 21
-452.62704034314999
 31
0.0
  0
LINE
  8
DETAIL
  6
CONTINUOUS
 62
     5
 10
374.64967836064352
 20
-452.62704034314999
 30
0.0
 11
374.65462934480769
 21
-452.63079426717911
 31
0.0
  0
LINE
  8
DETAIL
  6
CONTINUOUS
 62
     5
 10
374.65462934480769
 20
-452.63079426717911
 30
0.0
 11
374.65958153600792
 21
-452.63456106159452
 31
0.0
  0
LINE
  8
DETAIL
  6
CONTINUOUS
 62
     5
 10
374.65958153600792
 20
-452.63456106159452
 30
0.0
 11
374.66453110758812
 21
-452.63833815927802
 31
0.0
  0
LINE
  8
DETAIL
  6
CONTINUOUS
 62
     5
 10
374.66453110758812
 20
-452.63833815927802
 30
0.0
 11
374.66947423289281
 21
-452.64212299311112
 31
0.0
  0
LINE
  8
DETAIL
  6
CONTINUOUS
 62
     5
 10
374.66947423289281
 20
-452.64212299311112
 30
0.0
 11
374.67440767778947
 21
-452.64591339520638
 31
0.0
  0
LINE
  8
DETAIL
  6
CONTINUOUS
 62
     5
 10
374.67440767778947
 20
-452.64591339520638
 30
0.0
 11
374.6793305782312
 21
-452.64970879459167
 31
0.0
  0
LINE
  8
DETAIL
  6
CONTINUOUS
 62
     5
 10
374.6793305782312
 20
-452.64970879459167
 30
0.0
 11
374.68424266269398
 21
-452.6535090195257
 31
0.0
  0
LINE
  8
DETAIL
  6
CONTINUOUS
 62
     5
 10
374.68424266269398
 20
-452.6535090195257
 30
0.0
 11
374.68914365965338
 21
-452.65731389826738
 31
0.0
  0
LINE
  8
DETAIL
  6
CONTINUOUS
 62
     5
 10
374.68914365965338
 20
-452.65731389826738
 30
0.0
 11
374.69403329758512
 21
-452.661123259075
 31
0.0
  0
LINE
  8
DETAIL
  6
CONTINUOUS
 62
     5
 10
374.69403329758512
 20
-452.661123259075
 30
0.0
 11
374.69891130496489
 21
-452.66493693020738
 31
0.0
  0
LINE
  8
DETAIL
  6
CONTINUOUS
 62
     5
 10
374.69891130496489
 20
-452.66493693020738
 30
0.0
 11
374.70377741026817
 21
-452.66875473992332
 31
0.0
  0
LINE
  8
DETAIL
  6
CONTINUOUS
 62
     5
 10
374.70377741026817
 20
-452.66875473992332
 30
0.0
 11
374.70863210645172
 21
-452.67257718926038
 31
0.0
  0
LINE
  8
DETAIL
  6
CONTINUOUS
 62
     5
 10
374.70863210645172
 20
-452.67257718926038
 30
0.0
 11
374.71347894439208
 21
-452.67640747036631
 31
0.0
  0
LINE
  8
DETAIL
  6
CONTINUOUS
 62
     5
 10
374.71347894439208
 20
-452.67640747036631
 30
0.0
 11
374.71832223944688
 21
-452.68024944816727
 31
0.0
  0
LINE
  8
DETAIL
  6
CONTINUOUS
 62
     5
 10
374.71832223944688
 20
-452.68024944816727
 30
0.0
 11
374.72316630697469
 21
-452.68410698759129
 31
0.0
  0
LINE
  8
DETAIL
  6
CONTINUOUS
 62
     5
 10
374.72316630697469
 20
-452.68410698759129
 30
0.0
 11
374.72801546233222
 21
-452.68798395356521
 31
0.0
  0
LINE
  8
DETAIL
  6
CONTINUOUS
 62
     5
 10
374.72801546233222
 20
-452.68798395356521
 30
0.0
 11
374.73287402087732
 21
-452.69188421101637
 31
0.0
  0
LINE
  8
DETAIL
  6
CONTINUOUS
 62
     5
 10
374.73287402087732
 20
-452.69188421101637
 30
0.0
 11
374.73774629796748
 21
-452.69581162487162
 31
0.0
  0
LINE
  8
DETAIL
  6
CONTINUOUS
 62
     5
 10
374.73774629796748
 20
-452.69581162487162
 30
0.0
 11
374.74263295851779
 21
-452.69976696971469
 31
0.0
  0
LINE
  8
DETAIL
  6
CONTINUOUS
 62
     5
 10
374.74263295851779
 20
-452.69976696971469
 30
0.0
 11
374.74752006567002
 21
-452.70373865876559
 31
0.0
  0
LINE
  8
DETAIL
  6
CONTINUOUS
 62
     5
 10
374.74752006567002
 20
-452.70373865876559
 30
0.0
 11
374.75239003212209
 21
-452.70771201490078
 31
0.0
  0
LINE
  8
DETAIL
  6
CONTINUOUS
 62
     5
 10
374.75239003212209
 20
-452.70771201490078
 30
0.0
 11
374.75722527057411
 21
-452.71167236099723
 31
0.0
  0
LINE
  8
DETAIL
  6
CONTINUOUS
 62
     5
 10
374.75722527057411
 20
-452.71167236099723
 30
0.0
 11
374.7620081937248
 21
-452.7156050199311
 31
0.0
  0
LINE
  8
DETAIL
  6
CONTINUOUS
 62
     5
 10
374.7620081937248
 20
-452.7156050199311
 30
0.0
 11
374.76672121427242
 21
-452.71949531457972
 31
0.0
  0
LINE
  8
DETAIL
  6
CONTINUOUS
 62
     5
 10
374.76672121427242
 20
-452.71949531457972
 30
0.0
 11
374.77134674491663
 21
-452.72332856781941
 31
0.0
  0
LINE
  8
DETAIL
  6
CONTINUOUS
 62
     5
 10
374.77134674491663
 20
-452.72332856781941
 30
0.0
 11
374.77587305736012
 21
-452.72709497834921
 31
0.0
  0
LINE
  8
DETAIL
  6
CONTINUOUS
 62
     5
 10
374.77587305736012
 20
-452.72709497834921
 30
0.0
 11
374.78031185932377
 21
-452.73080424815771
 31
0.0
  0
LINE
  8
DETAIL
  6
CONTINUOUS
 62
     5
 10
374.78031185932377
 20
-452.73080424815771
 30
0.0
 11
374.78468071753292
 21
-452.73447095505509
 31
0.0
  0
LINE
  8
DETAIL
  6
CONTINUOUS
 62
     5
 10
374.78468071753292
 20
-452.73447095505509
 30
0.0
 11
374.78899719871202
 21
-452.73810967685239
 31
0.0
  0
LINE
  8
DETAIL
  6
CONTINUOUS
 62
     5
 10
374.78899719871202
 20
-452.73810967685239
 30
0.0
 11
374.79327886958617
 21
-452.74173499136009
 31
0.0
  0
LINE
  8
DETAIL
  6
CONTINUOUS
 62
     5
 10
374.79327886958617
 20
-452.74173499136009
 30
0.0
 11
374.79754329688058
 21
-452.74536147638861
 31
0.0
  0
LINE
  8
DETAIL
  6
CONTINUOUS
 62
     5
 10
374.79754329688058
 20
-452.74536147638861
 30
0.0
 11
374.80180804731941
 21
-452.74900370974848
 31
0.0
  0
LINE
  8
DETAIL
  6
CONTINUOUS
 62
     5
 10
374.80180804731941
 20
-452.74900370974848
 30
0.0
 11
374.80608699706772
 21
-452.75267326663692
 31
0.0
  0
LINE
  8
DETAIL
  6
CONTINUOUS
 62
     5
 10
374.80608699706772
 20
-452.75267326663692
 30
0.0
 11
374.81037926004768
 21
-452.75636971180171
 31
0.0
  0
LINE
  8
DETAIL
  6
CONTINUOUS
 62
     5
 10
374.81037926004768
 20
-452.75636971180171
 30
0.0
 11
374.81468025962067
 21
-452.76008960737607
 31
0.0
  0
LINE
  8
DETAIL
  6
CONTINUOUS
 62
     5
 10
374.81468025962067
 20
-452.76008960737607
 30
0.0
 11
374.8189854191487
 21
-452.76382951549408
 31
0.0
  0
LINE
  8
DETAIL
  6
CONTINUOUS
 62
     5
 10
374.8189854191487
 20
-452.76382951549408
 30
0.0
 11
374.8232901619931
 21
-452.7675859982885
 31
0.0
  0
LINE
  8
DETAIL
  6
CONTINUOUS
 62
     5
 10
374.8232901619931
 20
-452.7675859982885
 30
0.0
 11
374.82758991151599
 21
-452.77135561789282
 31
0.0
  0
LINE
  8
DETAIL
  6
CONTINUOUS
 62
     5
 10
374.82758991151599
 20
-452.77135561789282
 30
0.0
 11
374.83188009107829
 21
-452.77513493644068
 31
0.0
  0
LINE
  8
DETAIL
  6
CONTINUOUS
 62
     5
 10
374.83188009107829
 20
-452.77513493644068
 30
0.0
 11
374.83615686267831
 21
-452.77892106699881
 31
0.0
  0
LINE
  8
DETAIL
  6
CONTINUOUS
 62
     5
 10
374.83615686267831
 20
-452.77892106699881
 30
0.0
 11
374.84041934285727
 21
-452.78271332635768
 31
0.0
  0
LINE
  8
DETAIL
  6
CONTINUOUS
 62
     5
 10
374.84041934285727
 20
-452.78271332635768
 30
0.0
 11
374.84466738679248
 21
-452.78651158224147
 31
0.0
  0
LINE
  8
DETAIL
  6
CONTINUOUS
 62
     5
 10
374.84466738679248
 20
-452.78651158224147
 30
0.0
 11
374.84890084966082
 21
-452.79031570237328
 31
0.0
  0
LINE
  8
DETAIL
  6
CONTINUOUS
 62
     5
 10
374.84890084966082
 20
-452.79031570237328
 30
0.0
 11
374.85311958664079
 21
-452.79412555447738
 31
0.0
  0
LINE
  8
DETAIL
  6
CONTINUOUS
 62
     5
 10
374.85311958664079
 20
-452.79412555447738
 30
0.0
 11
374.85732345290899
 21
-452.79794100627748
 31
0.0
  0
LINE
  8
DETAIL
  6
CONTINUOUS
 62
     5
 10
374.85732345290899
 20
-452.79794100627748
 30
0.0
 11
374.86151230364339
 21
-452.80176192549698
 31
0.0
  0
LINE
  8
DETAIL
  6
CONTINUOUS
 62
     5
 10
374.86151230364339
 20
-452.80176192549698
 30
0.0
 11
374.86568673003882
 21
-452.80558897874562
 31
0.0
  0
LINE
  8
DETAIL
  6
CONTINUOUS
 62
     5
 10
374.86568673003882
 20
-452.80558897874562
 30
0.0
 11
374.8698502673551
 21
-452.80942602817782
 31
0.0
  0
LINE
  8
DETAIL
  6
CONTINUOUS
 62
     5
 10
374.8698502673551
 20
-452.80942602817782
 30
0.0
 11
374.87400718686968
 21
-452.81327773483389
 31
0.0
  0
LINE
  8
DETAIL
  6
CONTINUOUS
 62
     5
 10
374.87400718686968
 20
-452.81327773483389
 30
0.0
 11
374.87816175986057
 21
-452.81714875975479
 31
0.0
  0
LINE
  8
DETAIL
  6
CONTINUOUS
 62
     5
 10
374.87816175986057
 20
-452.81714875975479
 30
0.0
 11
374.88231825760607
 21
-452.82104376398092
 31
0.0
  0
LINE
  8
DETAIL
  6
CONTINUOUS
 62
     5
 10
374.88231825760607
 20
-452.82104376398092
 30
0.0
 11
374.88648095138302
 21
-452.82496740855288
 31
0.0
  0
LINE
  8
DETAIL
  6
CONTINUOUS
 62
     5
 10
374.88648095138302
 20
-452.82496740855288
 30
0.0
 11
374.89065411246878
 21
-452.82892435451129
 31
0.0
  0
LINE
  8
DETAIL
  6
CONTINUOUS
 62
     5
 10
374.89065411246878
 20
-452.82892435451129
 30
0.0
 11
374.89483832943921
 21
-452.83291551642202
 31
0.0
  0
LINE
  8
DETAIL
  6
CONTINUOUS
 62
     5
 10
374.89483832943921
 20
-452.83291551642202
 30
0.0
 11
374.89901946005688
 21
-452.83692682294259
 31
0.0
  0
LINE
  8
DETAIL
  6
CONTINUOUS
 62
     5
 10
374.89901946005688
 20
-452.83692682294259
 30
0.0
 11
374.90317967938432
 21
-452.84094045625602
 31
0.0
  0
LINE
  8
DETAIL
  6
CONTINUOUS
 62
     5
 10
374.90317967938432
 20
-452.84094045625602
 30
0.0
 11
374.90730116248102
 21
-452.84493859854479
 31
0.0
  0
LINE
  8
DETAIL
  6
CONTINUOUS
 62
     5
 10
374.90730116248102
 20
-452.84493859854479
 30
0.0
 11
374.91136608440871
 21
-452.84890343199208
 31
0.0
  0
LINE
  8
DETAIL
  6
CONTINUOUS
 62
     5
 10
374.91136608440871
 20
-452.84890343199208
 30
0.0
 11
374.91535662022852
 21
-452.85281713878021
 31
0.0
  0
LINE
  8
DETAIL
  6
CONTINUOUS
 62
     5
 10
374.91535662022852
 20
-452.85281713878021
 30
0.0
 11
374.91925494500168
 21
-452.85666190109259
 31
0.0
  0
LINE
  8
DETAIL
  6
CONTINUOUS
 62
     5
 10
374.91925494500168
 20
-452.85666190109259
 30
0.0
 11
374.92304918551957
 21
-452.86042580411481
 31
0.0
  0
LINE
  8
DETAIL
  6
CONTINUOUS
 62
     5
 10
374.92304918551957
 20
-452.86042580411481
 30
0.0
 11
374.92675127550228
 21
-452.86412054504831
 31
0.0
  0
LINE
  8
DETAIL
  6
CONTINUOUS
 62
     5
 10
374.92675127550228
 20
-452.86412054504831
 30
0.0
 11
374.93037910040039
 21
-452.86776372409798
 31
0.0
  0
LINE
  8
DETAIL
  6
CONTINUOUS
 62
     5
 10
374.93037910040039
 20
-452.86776372409798
 30
0.0
 11
374.93395054566372
 21
-452.87137294146902
 31
0.0
  0
LINE
  8
DETAIL
  6
CONTINUOUS
 62
     5
 10
374.93395054566372
 20
-452.87137294146902
 30
0.0
 11
374.93748349674303
 21
-452.87496579736631
 31
0.0
  0
LINE
  8
DETAIL
  6
CONTINUOUS
 62
     5
 10
374.93748349674303
 20
-452.87496579736631
 30
0.0
 11
374.94099583908968
 21
-452.87855989199511
 31
0.0
  0
LINE
  8
DETAIL
  6
CONTINUOUS
 62
     5
 10
374.94099583908968
 20
-452.87855989199511
 30
0.0
 11
374.94450545815289
 21
-452.8821728255607
 31
0.0
  0
LINE
  8
DETAIL
  6
CONTINUOUS
 62
     5
 10
374.94450545815289
 20
-452.8821728255607
 30
0.0
 11
374.94802645896931
 21
-452.88581856215433
 31
0.0
  0
LINE
  8
DETAIL
  6
CONTINUOUS
 62
     5
 10
374.94802645896931
 20
-452.88581856215433
 30
0.0
 11
374.95155782491162
 21
-452.88949652141542
 31
0.0
  0
LINE
  8
DETAIL
  6
CONTINUOUS
 62
     5
 10
374.95155782491162
 20
-452.88949652141542
 30
0.0
 11
374.95509475893959
 21
-452.89320248687051
 31
0.0
  0
LINE
  8
DETAIL
  6
CONTINUOUS
 62
     5
 10
374.95509475893959
 20
-452.89320248687051
 30
0.0
 11
374.95863246401223
 21
-452.89693224204552
 31
0.0
  0
LINE
  8
DETAIL
  6
CONTINUOUS
 62
     5
 10
374.95863246401223
 20
-452.89693224204552
 30
0.0
 11
374.96216614308742
 21
-452.90068157046773
 31
0.0
  0
LINE
  8
DETAIL
  6
CONTINUOUS
 62
     5
 10
374.96216614308742
 20
-452.90068157046773
 30
0.0
 11
374.9656909991254
 21
-452.90444625566278
 31
0.0
  0
LINE
  8
DETAIL
  6
CONTINUOUS
 62
     5
 10
374.9656909991254
 20
-452.90444625566278
 30
0.0
 11
374.96920223508459
 21
-452.90822208115782
 31
0.0
  0
LINE
  8
DETAIL
  6
CONTINUOUS
 62
     5
 10
374.96920223508459
 20
-452.90822208115782
 30
0.0
 11
374.9726958553747
 21
-452.91200552612122
 31
0.0
  0
LINE
  8
DETAIL
  6
CONTINUOUS
 62
     5
 10
374.9726958553747
 20
-452.91200552612122
 30
0.0
 11
374.97617107020778
 21
-452.91579585226168
 31
0.0
  0
LINE
  8
DETAIL
  6
CONTINUOUS
 62
     5
 10
374.97617107020778
 20
-452.91579585226168
 30
0.0
 11
374.97962789124631
 21
-452.9195930169285
 31
0.0
  0
LINE
  8
DETAIL
  6
CONTINUOUS
 62
     5
 10
374.97962789124631
 20
-452.9195930169285
 30
0.0
 11
374.98306633015409
 21
-452.92339697747121
 31
0.0
  0
LINE
  8
DETAIL
  6
CONTINUOUS
 62
     5
 10
374.98306633015409
 20
-452.92339697747121
 30
0.0
 11
374.98648639859312
 21
-452.92720769124003
 31
0.0
  0
LINE
  8
DETAIL
  6
CONTINUOUS
 62
     5
 10
374.98648639859312
 20
-452.92720769124003
 30
0.0
 11
374.98988810822721
 21
-452.93102511558402
 31
0.0
  0
LINE
  8
DETAIL
  6
CONTINUOUS
 62
     5
 10
374.98988810822721
 20
-452.93102511558402
 30
0.0
 11
374.99327147071841
 21
-452.9348492078534
 31
0.0
  0
LINE
  8
DETAIL
  6
CONTINUOUS
 62
     5
 10
374.99327147071841
 20
-452.9348492078534
 30
0.0
 11
374.99663707234282
 21
-452.93868077896332
 31
0.0
  0
LINE
  8
DETAIL
  6
CONTINUOUS
 62
     5
 10
374.99663707234282
 20
-452.93868077896332
 30
0.0
 11
374.99998779782618
 21
-452.94252405408389
 31
0.0
  0
LINE
  8
DETAIL
  6
CONTINUOUS
 62
     5
 10
374.99998779782618
 20
-452.94252405408389
 30
0.0
 11
375.00332710650667
 21
-452.94638411195092
 31
0.0
  0
LINE
  8
DETAIL
  6
CONTINUOUS
 62
     5
 10
375.00332710650667
 20
-452.94638411195092
 30
0.0
 11
375.00665845772261
 21
-452.95026603129952
 31
0.0
  0
LINE
  8
DETAIL
  6
CONTINUOUS
 62
     5
 10
375.00665845772261
 20
-452.95026603129952
 30
0.0
 11
375.00998531081308
 21
-452.95417489086572
 31
0.0
  0
LINE
  8
DETAIL
  6
CONTINUOUS
 62
     5
 10
375.00998531081308
 20
-452.95417489086572
 30
0.0
 11
375.01331112511662
 21
-452.95811576938581
 31
0.0
  0
LINE
  8
DETAIL
  6
CONTINUOUS
 62
     5
 10
375.01331112511662
 20
-452.95811576938581
 30
0.0
 11
375.01663935997112
 21
-452.96209374559481
 31
0.0
  0
LINE
  8
DETAIL
  6
CONTINUOUS
 62
     5
 10
375.01663935997112
 20
-452.96209374559481
 30
0.0
 11
375.01997037481442
 21
-452.96610978833297
 31
0.0
  0
LINE
  8
DETAIL
  6
CONTINUOUS
 62
     5
 10
375.01997037481442
 20
-452.96610978833297
 30
0.0
 11
375.02329212947922
 21
-452.97014842686599
 31
0.0
  0
LINE
  8
DETAIL
  6
CONTINUOUS
 62
     5
 10
375.02329212947922
 20
-452.97014842686599
 30
0.0
 11
375.02658948389848
 21
-452.97419008056158
 31
0.0
  0
LINE
  8
DETAIL
  6
CONTINUOUS
 62
     5
 10
375.02658948389848
 20
-452.97419008056158
 30
0.0
 11
375.02984729800392
 21
-452.97821516878821
 31
0.0
  0
LINE
  8
DETAIL
  6
CONTINUOUS
 62
     5
 10
375.02984729800392
 20
-452.97821516878821
 30
0.0
 11
375.03305043172799
 21
-452.98220411091421
 31
0.0
  0
LINE
  8
DETAIL
  6
CONTINUOUS
 62
     5
 10
375.03305043172799
 20
-452.98220411091421
 30
0.0
 11
375.03618374500371
 21
-452.98613732630753
 31
0.0
  0
LINE
  8
DETAIL
  6
CONTINUOUS
 62
     5
 10
375.03618374500371
 20
-452.98613732630753
 30
0.0
 11
375.03923209776258
 21
-452.98999523433679
 31
0.0
  0
LINE
  8
DETAIL
  6
CONTINUOUS
 62
     5
 10
375.03923209776258
 20
-452.98999523433679
 30
0.0
 11
375.04218542497938
 21
-452.99376472288259
 31
0.0
  0
LINE
  8
DETAIL
  6
CONTINUOUS
 62
     5
 10
375.04218542497938
 20
-452.99376472288259
 30
0.0
 11
375.04505396179911
 21
-452.99745855384822
 31
0.0
  0
LINE
  8
DETAIL
  6
CONTINUOUS
 62
     5
 10
375.04505396179911
 20
-452.99745855384822
 30
0.0
 11
375.04785301840911
 21
-453.00109595764889
 31
0.0
  0
LINE
  8
DETAIL
  6
CONTINUOUS
 62
     5
 10
375.04785301840911
 20
-453.00109595764889
 30
0.0
 11
375.05059790499672
 21
-453.00469616469951
 31
0.0
  0
LINE
  8
DETAIL
  6
CONTINUOUS
 62
     5
 10
375.05059790499672
 20
-453.00469616469951
 30
0.0
 11
375.05330393174881
 21
-453.00827840541501
 31
0.0
  0
LINE
  8
DETAIL
  6
CONTINUOUS
 62
     5
 10
375.05330393174881
 20
-453.00827840541501
 30
0.0
 11
375.05598640885228
 21
-453.01186191021111
 31
0.0
  0
LINE
  8
DETAIL
  6
CONTINUOUS
 62
     5
 10
375.05598640885228
 20
-453.01186191021111
 30
0.0
 11
375.0586606464949
 21
-453.01546590950238
 31
0.0
  0
LINE
  8
DETAIL
  6
CONTINUOUS
 62
     5
 10
375.0586606464949
 20
-453.01546590950238
 30
0.0
 11
375.06133868595771
 21
-453.01910563807769
 31
0.0
  0
LINE
  8
DETAIL
  6
CONTINUOUS
 62
     5
 10
375.06133868595771
 20
-453.01910563807769
 30
0.0
 11
375.0640194929083
 21
-453.02278034821791
 31
0.0
  0
LINE
  8
DETAIL
  6
CONTINUOUS
 62
     5
 10
375.0640194929083
 20
-453.02278034821791
 30
0.0
 11
375.06669876410609
 21
-453.02648529657631
 31
0.0
  0
LINE
  8
DETAIL
  6
CONTINUOUS
 62
     5
 10
375.06669876410609
 20
-453.02648529657631
 30
0.0
 11
375.06937219631351
 21
-453.03021573980692
 31
0.0
  0
LINE
  8
DETAIL
  6
CONTINUOUS
 62
     5
 10
375.06937219631351
 20
-453.03021573980692
 30
0.0
 11
375.07203548629059
 21
-453.03396693456352
 31
0.0
  0
LINE
  8
DETAIL
  6
CONTINUOUS
 62
     5
 10
375.07203548629059
 20
-453.03396693456352
 30
0.0
 11
375.07468433079748
 21
-453.03773413749951
 31
0.0
  0
LINE
  8
DETAIL
  6
CONTINUOUS
 62
     5
 10
375.07468433079748
 20
-453.03773413749951
 30
0.0
 11
375.07731442659588
 21
-453.04151260526851
 31
0.0
  0
LINE
  8
DETAIL
  6
CONTINUOUS
 62
     5
 10
375.07731442659588
 20
-453.04151260526851
 30
0.0
 11
375.07992221487029
 21
-453.0452984063113
 31
0.0
  0
LINE
  8
DETAIL
  6
CONTINUOUS
 62
     5
 10
375.07992221487029
 20
-453.0452984063113
 30
0.0
 11
375.08250711449642
 21
-453.04909085621648
 31
0.0
  0
LINE
  8
DETAIL
  6
CONTINUOUS
 62
     5
 10
375.08250711449642
 20
-453.04909085621648
 30
0.0
 11
375.08506928877341
 21
-453.05289008235849
 31
0.0
  0
LINE
  8
DETAIL
  6
CONTINUOUS
 62
     5
 10
375.08506928877341
 20
-453.05289008235849
 30
0.0
 11
375.08760890100069
 21
-453.05669621211217
 31
0.0
  0
LINE
  8
DETAIL
  6
CONTINUOUS
 62
     5
 10
375.08760890100069
 20
-453.05669621211217
 30
0.0
 11
375.09012611447821
 21
-453.06050937285238
 31
0.0
  0
LINE
  8
DETAIL
  6
CONTINUOUS
 62
     5
 10
375.09012611447821
 20
-453.06050937285238
 30
0.0
 11
375.09262109250488
 21
-453.06432969195401
 31
0.0
  0
LINE
  8
DETAIL
  6
CONTINUOUS
 62
     5
 10
375.09262109250488
 20
-453.06432969195401
 30
0.0
 11
375.09509399838038
 21
-453.06815729679153
 31
0.0
  0
LINE
  8
DETAIL
  6
CONTINUOUS
 62
     5
 10
375.09509399838038
 20
-453.06815729679153
 30
0.0
 11
375.09754528661603
 21
-453.07199306321922
 31
0.0
  0
LINE
  8
DETAIL
  6
CONTINUOUS
 62
     5
 10
375.09754528661603
 20
-453.07199306321922
 30
0.0
 11
375.09997657657101
 21
-453.07584086100928
 31
0.0
  0
LINE
  8
DETAIL
  6
CONTINUOUS
 62
     5
 10
375.09997657657101
 20
-453.07584086100928
 30
0.0
 11
375.10238977881772
 21
-453.0797053084143
 31
0.0
  0
LINE
  8
DETAIL
  6
CONTINUOUS
 62
     5
 10
375.10238977881772
 20
-453.0797053084143
 30
0.0
 11
375.10478680392771
 21
-453.08359102368718
 31
0.0
  0
LINE
  8
DETAIL
  6
CONTINUOUS
 62
     5
 10
375.10478680392771
 20
-453.08359102368718
 30
0.0
 11
375.10716956247228
 21
-453.08750262507971
 31
0.0
  0
LINE
  8
DETAIL
  6
CONTINUOUS
 62
     5
 10
375.10716956247228
 20
-453.08750262507971
 30
0.0
 11
375.1095399650244
 21
-453.09144473084478
 31
0.0
  0
LINE
  8
DETAIL
  6
CONTINUOUS
 62
     5
 10
375.1095399650244
 20
-453.09144473084478
 30
0.0
 11
375.11189992215441
 21
-453.09542195923518
 31
0.0
  0
LINE
  8
DETAIL
  6
CONTINUOUS
 62
     5
 10
375.11189992215441
 20
-453.09542195923518
 30
0.0
 11
375.1142494351634
 21
-453.09943512279438
 31
0.0
  0
LINE
  8
DETAIL
  6
CONTINUOUS
 62
     5
 10
375.1142494351634
 20
-453.09943512279438
 30
0.0
 11
375.11658086826719
 21
-453.10346981125258
 31
0.0
  0
LINE
  8
DETAIL
  6
CONTINUOUS
 62
     5
 10
375.11658086826719
 20
-453.10346981125258
 30
0.0
 11
375.11888467640802
 21
-453.10750780863049
 31
0.0
  0
LINE
  8
DETAIL
  6
CONTINUOUS
 62
     5
 10
375.11888467640802
 20
-453.10750780863049
 30
0.0
 11
375.12115131453078
 21
-453.11153089894879
 31
0.0
  0
LINE
  8
DETAIL
  6
CONTINUOUS
 62
     5
 10
375.12115131453078
 20
-453.11153089894879
 30
0.0
 11
375.12337123757919
 21
-453.11552086622851
 31
0.0
  0
LINE
  8
DETAIL
  6
CONTINUOUS
 62
     5
 10
375.12337123757919
 20
-453.11552086622851
 30
0.0
 11
375.1255349004964
 21
-453.11945949449051
 31
0.0
  0
LINE
  8
DETAIL
  6
CONTINUOUS
 62
     5
 10
375.1255349004964
 20
-453.11945949449051
 30
0.0
 11
375.12763275822641
 21
-453.12332856775538
 31
0.0
  0
LINE
  8
DETAIL
  6
CONTINUOUS
 62
     5
 10
375.12763275822641
 20
-453.12332856775538
 30
0.0
 11
375.12965849366168
 21
-453.12711587070572
 31
0.0
  0
LINE
  8
DETAIL
  6
CONTINUOUS
 62
     5
 10
375.12965849366168
 20
-453.12711587070572
 30
0.0
 11
375.13161870149628
 21
-453.13083319066072
 31
0.0
  0
LINE
  8
DETAIL
  6
CONTINUOUS
 62
     5
 10
375.13161870149628
 20
-453.13083319066072
 30
0.0
 11
375.13352320437122
 21
-453.13449831560052
 31
0.0
  0
LINE
  8
DETAIL
  6
CONTINUOUS
 62
     5
 10
375.13352320437122
 20
-453.13449831560052
 30
0.0
 11
375.13538182492903
 21
-453.13812903350521
 31
0.0
  0
LINE
  8
DETAIL
  6
CONTINUOUS
 62
     5
 10
375.13538182492903
 20
-453.13812903350521
 30
0.0
 11
375.1372043858114
 21
-453.1417431323548
 31
0.0
  0
LINE
  8
DETAIL
  6
CONTINUOUS
 62
     5
 10
375.1372043858114
 20
-453.1417431323548
 30
0.0
 11
375.1390007096611
 21
-453.14535840013002
 31
0.0
  0
LINE
  8
DETAIL
  6
CONTINUOUS
 62
     5
 10
375.1390007096611
 20
-453.14535840013002
 30
0.0
 11
375.14078061912011
 21
-453.14899262481049
 31
0.0
  0
LINE
  8
DETAIL
  6
CONTINUOUS
 62
     5
 10
375.14078061912011
 20
-453.14899262481049
 30
0.0
 11
375.14255180432338
 21
-453.15265985900209
 31
0.0
  0
LINE
  8
DETAIL
  6
CONTINUOUS
 62
     5
 10
375.14255180432338
 20
-453.15265985900209
 30
0.0
 11
375.14431342537142
 21
-453.15635921381198
 31
0.0
  0
LINE
  8
DETAIL
  6
CONTINUOUS
 62
     5
 10
375.14431342537142
 20
-453.15635921381198
 30
0.0
 11
375.1460625098598
 21
-453.1600860649728
 31
0.0
  0
LINE
  8
DETAIL
  6
CONTINUOUS
 62
     5
 10
375.1460625098598
 20
-453.1600860649728
 30
0.0
 11
375.14779608538169
 21
-453.16383578821791
 31
0.0
  0
LINE
  8
DETAIL
  6
CONTINUOUS
 62
     5
 10
375.14779608538169
 20
-453.16383578821791
 30
0.0
 11
375.14951117953211
 21
-453.16760375927879
 31
0.0
  0
LINE
  8
DETAIL
  6
CONTINUOUS
 62
     5
 10
375.14951117953211
 20
-453.16760375927879
 30
0.0
 11
375.15120481990471
 21
-453.17138535388898
 31
0.0
  0
LINE
  8
DETAIL
  6
CONTINUOUS
 62
     5
 10
375.15120481990471
 20
-453.17138535388898
 30
0.0
 11
375.15287403409371
 21
-453.17517594778121
 31
0.0
  0
LINE
  8
DETAIL
  6
CONTINUOUS
 62
     5
 10
375.15287403409371
 20
-453.17517594778121
 30
0.0
 11
375.15451638151848
 21
-453.17897175321588
 31
0.0
  0
LINE
  8
DETAIL
  6
CONTINUOUS
 62
     5
 10
375.15451638151848
 20
-453.17897175321588
 30
0.0
 11
375.15613154890428
 21
-453.18277232856673
 31
0.0
  0
LINE
  8
DETAIL
  6
CONTINUOUS
 62
     5
 10
375.15613154890428
 20
-453.18277232856673
 30
0.0
 11
375.15771975479993
 21
-453.18657806873381
 31
0.0
  0
LINE
  8
DETAIL
  6
CONTINUOUS
 62
     5
 10
375.15771975479993
 20
-453.18657806873381
 30
0.0
 11
375.15928121775642
 21
-453.19038936861779
 31
0.0
  0
LINE
  8
DETAIL
  6
CONTINUOUS
 62
     5
 10
375.15928121775642
 20
-453.19038936861779
 30
0.0
 11
375.16081615632311
 21
-453.19420662311933
 31
0.0
  0
LINE
  8
DETAIL
  6
CONTINUOUS
 62
     5
 10
375.16081615632311
 20
-453.19420662311933
 30
0.0
 11
375.16232478905113
 21
-453.19803022713859
 31
0.0
  0
LINE
  8
DETAIL
  6
CONTINUOUS
 62
     5
 10
375.16232478905113
 20
-453.19803022713859
 30
0.0
 11
375.16380733448932
 21
-453.20186057557657
 31
0.0
  0
LINE
  8
DETAIL
  6
CONTINUOUS
 62
     5
 10
375.16380733448932
 20
-453.20186057557657
 30
0.0
 11
375.16526401639157
 21
-453.20569845259757
 31
0.0
  0
LINE
  8
DETAIL
  6
CONTINUOUS
 62
     5
 10
375.16526401639157
 20
-453.20569845259757
 30
0.0
 11
375.16669507932869
 21
-453.20954619941438
 31
0.0
  0
LINE
  8
DETAIL
  6
CONTINUOUS
 62
     5
 10
375.16669507932869
 20
-453.20954619941438
 30
0.0
 11
375.16810077307582
 21
-453.21340654650339
 31
0.0
  0
LINE
  8
DETAIL
  6
CONTINUOUS
 62
     5
 10
375.16810077307582
 20
-453.21340654650339
 30
0.0
 11
375.16948134740687
 21
-453.21728222434098
 31
0.0
  0
LINE
  8
DETAIL
  6
CONTINUOUS
 62
     5
 10
375.16948134740687
 20
-453.21728222434098
 30
0.0
 11
375.17083705209728
 21
-453.22117596340422
 31
0.0
  0
LINE
  8
DETAIL
  6
CONTINUOUS
 62
     5
 10
375.17083705209728
 20
-453.22117596340422
 30
0.0
 11
375.17216813692079
 21
-453.22509049416982
 31
0.0
  0
LINE
  8
DETAIL
  6
CONTINUOUS
 62
     5
 10
375.17216813692079
 20
-453.22509049416982
 30
0.0
 11
375.17347485165192
 21
-453.22902854711378
 31
0.0
  0
LINE
  8
DETAIL
  6
CONTINUOUS
 62
     5
 10
375.17347485165192
 20
-453.22902854711378
 30
0.0
 11
375.17475689342427
 21
-453.23299045912938
 31
0.0
  0
LINE
  8
DETAIL
  6
CONTINUOUS
 62
     5
 10
375.17475689342427
 20
-453.23299045912938
 30
0.0
 11
375.17601174879883
 21
-453.23696699280589
 31
0.0
  0
LINE
  8
DETAIL
  6
CONTINUOUS
 62
     5
 10
375.17601174879883
 20
-453.23696699280589
 30
0.0
 11
375.17723635169659
 21
-453.24094651714859
 31
0.0
  0
LINE
  8
DETAIL
  6
CONTINUOUS
 62
     5
 10
375.17723635169659
 20
-453.24094651714859
 30
0.0
 11
375.17842763603858
 21
-453.24491740116338
 31
0.0
  0
LINE
  8
DETAIL
  6
CONTINUOUS
 62
     5
 10
375.17842763603858
 20
-453.24491740116338
 30
0.0
 11
375.17958253574488
 21
-453.24886801385611
 31
0.0
  0
LINE
  8
DETAIL
  6
CONTINUOUS
 62
     5
 10
375.17958253574488
 20
-453.24886801385611
 30
0.0
 11
375.18069798473522
 21
-453.25278672423252
 31
0.0
  0
LINE
  8
DETAIL
  6
CONTINUOUS
 62
     5
 10
375.18069798473522
 20
-453.25278672423252
 30
0.0
 11
375.18177091693087
 21
-453.25666190129778
 31
0.0
  0
LINE
  8
DETAIL
  6
CONTINUOUS
 62
     5
 10
375.18177091693087
 20
-453.25666190129778
 30
0.0
 11
375.18279933679418
 21
-453.26048571652183
 31
0.0
  0
LINE
  8
DETAIL
  6
CONTINUOUS
 62
     5
 10
375.18279933679418
 20
-453.26048571652183
 30
0.0
 11
375.1837855309559
 21
-453.26426555124698
 31
0.0
  0
LINE
  8
DETAIL
  6
CONTINUOUS
 62
     5
 10
375.1837855309559
 20
-453.26426555124698
 30
0.0
 11
375.1847328565882
 21
-453.26801258927992
 31
0.0
  0
LINE
  8
DETAIL
  6
CONTINUOUS
 62
     5
 10
375.1847328565882
 20
-453.26801258927992
 30
0.0
 11
375.18564467086338
 21
-453.27173801442598
 31
0.0
  0
LINE
  8
DETAIL
  6
CONTINUOUS
 62
     5
 10
375.18564467086338
 20
-453.27173801442598
 30
0.0
 11
375.18652433095491
 21
-453.27545301049201
 31
0.0
  0
LINE
  8
DETAIL
  6
CONTINUOUS
 62
     5
 10
375.18652433095491
 20
-453.27545301049201
 30
0.0
 11
375.18737519403521
 21
-453.27916876128393
 31
0.0
  0
LINE
  8
DETAIL
  6
CONTINUOUS
 62
     5
 10
375.18737519403521
 20
-453.27916876128393
 30
0.0
 11
375.18820061727729
 21
-453.28289645060801
 31
0.0
  0
LINE
  8
DETAIL
  6
CONTINUOUS
 62
     5
 10
375.18820061727729
 20
-453.28289645060801
 30
0.0
 11
375.18900320064182
 21
-453.28664484441123
 31
0.0
  0
LINE
  8
DETAIL
  6
CONTINUOUS
 62
     5
 10
375.18900320064182
 20
-453.28664484441123
 30
0.0
 11
375.18978251524459
 21
-453.29041303719453
 31
0.0
  0
LINE
  8
DETAIL
  6
CONTINUOUS
 62
     5
 10
375.18978251524459
 20
-453.29041303719453
 30
0.0
 11
375.19053737499053
 21
-453.29419770559849
 31
0.0
  0
LINE
  8
DETAIL
  6
CONTINUOUS
 62
     5
 10
375.19053737499053
 20
-453.29419770559849
 30
0.0
 11
375.19126659378338
 21
-453.29799552626491
 31
0.0
  0
LINE
  8
DETAIL
  6
CONTINUOUS
 62
     5
 10
375.19126659378338
 20
-453.29799552626491
 30
0.0
 11
375.19196898552718
 21
-453.30180317583461
 31
0.0
  0
LINE
  8
DETAIL
  6
CONTINUOUS
 62
     5
 10
375.19196898552718
 20
-453.30180317583461
 30
0.0
 11
375.19264336412652
 21
-453.30561733094868
 31
0.0
  0
LINE
  8
DETAIL
  6
CONTINUOUS
 62
     5
 10
375.19264336412652
 20
-453.30561733094868
 30
0.0
 11
375.19328854348532
 21
-453.30943466824829
 31
0.0
  0
LINE
  8
DETAIL
  6
CONTINUOUS
 62
     5
 10
375.19328854348532
 20
-453.30943466824829
 30
0.0
 11
375.19390362060221
 21
-453.31325251445082
 31
0.0
  0
LINE
  8
DETAIL
  6
CONTINUOUS
 62
     5
 10
375.19390362060221
 20
-453.31325251445082
 30
0.0
 11
375.19448882484579
 21
-453.31707079657861
 31
0.0
  0
LINE
  8
DETAIL
  6
CONTINUOUS
 62
     5
 10
375.19448882484579
 20
-453.31707079657861
 30
0.0
 11
375.1950446686792
 21
-453.32089009173029
 31
0.0
  0
LINE
  8
DETAIL
  6
CONTINUOUS
 62
     5
 10
375.1950446686792
 20
-453.32089009173029
 30
0.0
 11
375.1955716645657
 21
-453.32471097700432
 31
0.0
  0
LINE
  8
DETAIL
  6
CONTINUOUS
 62
     5
 10
375.1955716645657
 20
-453.32471097700432
 30
0.0
 11
375.19607032496702
 21
-453.32853402949968
 31
0.0
  0
LINE
  8
DETAIL
  6
CONTINUOUS
 62
     5
 10
375.19607032496702
 20
-453.32853402949968
 30
0.0
 11
375.19654116234727
 21
-453.33235982631447
 31
0.0
  0
LINE
  8
DETAIL
  6
CONTINUOUS
 62
     5
 10
375.19654116234727
 20
-453.33235982631447
 30
0.0
 11
375.19698468916891
 21
-453.33618894454781
 31
0.0
  0
LINE
  8
DETAIL
  6
CONTINUOUS
 62
     5
 10
375.19698468916891
 20
-453.33618894454781
 30
0.0
 11
375.19740104273342
 21
-453.34002177885372
 31
0.0
  0
LINE
  8
DETAIL
  6
CONTINUOUS
 62
     5
 10
375.19740104273342
 20
-453.34002177885372
 30
0.0
 11
375.1977888596989
 21
-453.34385799411052
 31
0.0
  0
LINE
  8
DETAIL
  6
CONTINUOUS
 62
     5
 10
375.1977888596989
 20
-453.34385799411052
 30
0.0
 11
375.19814640156261
 21
-453.34769707275251
 31
0.0
  0
LINE
  8
DETAIL
  6
CONTINUOUS
 62
     5
 10
375.19814640156261
 20
-453.34769707275251
 30
0.0
 11
375.1984719298207
 21
-453.35153849721343
 31
0.0
  0
LINE
  8
DETAIL
  6
CONTINUOUS
 62
     5
 10
375.1984719298207
 20
-453.35153849721343
 30
0.0
 11
375.19876370597012
 21
-453.35538174992718
 31
0.0
  0
LINE
  8
DETAIL
  6
CONTINUOUS
 62
     5
 10
375.19876370597012
 20
-453.35538174992718
 30
0.0
 11
375.19901999150761
 21
-453.35922631332801
 31
0.0
  0
LINE
  8
DETAIL
  6
CONTINUOUS
 62
     5
 10
375.19901999150761
 20
-453.35922631332801
 30
0.0
 11
375.19923904793092
 21
-453.36307166984977
 31
0.0
  0
LINE
  8
DETAIL
  6
CONTINUOUS
 62
     5
 10
375.19923904793092
 20
-453.36307166984977
 30
0.0
 11
375.1994203542863
 21
-453.36691738162523
 31
0.0
  0
LINE
  8
DETAIL
  6
CONTINUOUS
 62
     5
 10
375.1994203542863
 20
-453.36691738162523
 30
0.0
 11
375.19956825982632
 21
-453.37076332959123
 31
0.0
  0
LINE
  8
DETAIL
  6
CONTINUOUS
 62
     5
 10
375.19956825982632
 20
-453.37076332959123
 30
0.0
 11
375.19968833135317
 21
-453.37460947438188
 31
0.0
  0
LINE
  8
DETAIL
  6
CONTINUOUS
 62
     5
 10
375.19968833135317
 20
-453.37460947438188
 30
0.0
 11
375.19978613566991
 21
-453.37845577663302
 31
0.0
  0
LINE
  8
DETAIL
  6
CONTINUOUS
 62
     5
 10
375.19978613566991
 20
-453.37845577663302
 30
0.0
 11
375.19986723957851
 21
-453.38230219697942
 31
0.0
  0
LINE
  8
DETAIL
  6
CONTINUOUS
 62
     5
 10
375.19986723957851
 20
-453.38230219697942
 30
0.0
 11
375.19993720988168
 21
-453.38614869605613
 31
0.0
  0
LINE
  8
DETAIL
  6
CONTINUOUS
 62
     5
 10
375.19993720988168
 20
-453.38614869605613
 30
0.0
 11
375.20000161338248
 21
-453.3899952344982
 31
0.0
  0
LINE
  8
DETAIL
  6
CONTINUOUS
 62
     5
 10
-373.59999838661679
 20
-452.18999523449747
 30
0.0
 11
-373.60596098062018
 21
-452.1937911342801
 31
0.0
  0
LINE
  8
DETAIL
  6
CONTINUOUS
 62
     5
 10
-373.60596098062018
 20
-452.1937911342801
 30
0.0
 11
-373.61192351085742
 21
-452.19758708670571
 31
0.0
  0
LINE
  8
DETAIL
  6
CONTINUOUS
 62
     5
 10
-373.61192351085742
 20
-452.19758708670571
 30
0.0
 11
-373.61788591356071
 21
-452.20138314441652
 31
0.0
  0
LINE
  8
DETAIL
  6
CONTINUOUS
 62
     5
 10
-373.61788591356071
 20
-452.20138314441652
 30
0.0
 11
-373.62384812496362
 21
-452.20517936005598
 31
0.0
  0
LINE
  8
DETAIL
  6
CONTINUOUS
 62
     5
 10
-373.62384812496362
 20
-452.20517936005598
 30
0.0
 11
-373.62981008129918
 21
-452.20897578626722
 31
0.0
  0
LINE
  8
DETAIL
  6
CONTINUOUS
 62
     5
 10
-373.62981008129918
 20
-452.20897578626722
 30
0.0
 11
-373.63577171879979
 21
-452.21277247569333
 31
0.0
  0
LINE
  8
DETAIL
  6
CONTINUOUS
 62
     5
 10
-373.63577171879979
 20
-452.21277247569333
 30
0.0
 11
-373.64173297369962
 21
-452.21656948097711
 31
0.0
  0
LINE
  8
DETAIL
  6
CONTINUOUS
 62
     5
 10
-373.64173297369962
 20
-452.21656948097711
 30
0.0
 11
-373.6476938034466
 21
-452.2203668689657
 31
0.0
  0
LINE
  8
DETAIL
  6
CONTINUOUS
 62
     5
 10
-373.6476938034466
 20
-452.2203668689657
 30
0.0
 11
-373.65365425035111
 21
-452.22416476330193
 31
0.0
  0
LINE
  8
DETAIL
  6
CONTINUOUS
 62
     5
 10
-373.65365425035111
 20
-452.22416476330193
 30
0.0
 11
-373.6596143779384
 21
-452.22796330183269
 31
0.0
  0
LINE
  8
DETAIL
  6
CONTINUOUS
 62
     5
 10
-373.6596143779384
 20
-452.22796330183269
 30
0.0
 11
-373.66557424973462
 21
-452.23176262240491
 31
0.0
  0
LINE
  8
DETAIL
  6
CONTINUOUS
 62
     5
 10
-373.66557424973462
 20
-452.23176262240491
 30
0.0
 11
-373.67153392926502
 21
-452.23556286286572
 31
0.0
  0
LINE
  8
DETAIL
  6
CONTINUOUS
 62
     5
 10
-373.67153392926502
 20
-452.23556286286572
 30
0.0
 11
-373.67749348005577
 21
-452.23936416106181
 31
0.0
  0
LINE
  8
DETAIL
  6
CONTINUOUS
 62
     5
 10
-373.67749348005577
 20
-452.23936416106181
 30
0.0
 11
-373.68345296563172
 21
-452.24316665484002
 31
0.0
  0
LINE
  8
DETAIL
  6
CONTINUOUS
 62
     5
 10
-373.68345296563172
 20
-452.24316665484002
 30
0.0
 11
-373.68941236371802
 21
-452.24697042628082
 31
0.0
  0
LINE
  8
DETAIL
  6
CONTINUOUS
 62
     5
 10
-373.68941236371802
 20
-452.24697042628082
 30
0.0
 11
-373.69537130883992
 21
-452.25077533439799
 31
0.0
  0
LINE
  8
DETAIL
  6
CONTINUOUS
 62
     5
 10
-373.69537130883992
 20
-452.25077533439799
 30
0.0
 11
-373.70132934972162
 21
-452.25458118243921
 31
0.0
  0
LINE
  8
DETAIL
  6
CONTINUOUS
 62
     5
 10
-373.70132934972162
 20
-452.25458118243921
 30
0.0
 11
-373.70728603508792
 21
-452.25838777365129
 31
0.0
  0
LINE
  8
DETAIL
  6
CONTINUOUS
 62
     5
 10
-373.70728603508792
 20
-452.25838777365129
 30
0.0
 11
-373.7132409136625
 21
-452.26219491128228
 31
0.0
  0
LINE
  8
DETAIL
  6
CONTINUOUS
 62
     5
 10
-373.7132409136625
 20
-452.26219491128228
 30
0.0
 11
-373.71919353417047
 21
-452.26600239857942
 31
0.0
  0
LINE
  8
DETAIL
  6
CONTINUOUS
 62
     5
 10
-373.71919353417047
 20
-452.26600239857942
 30
0.0
 11
-373.72514344533562
 21
-452.26981003878967
 31
0.0
  0
LINE
  8
DETAIL
  6
CONTINUOUS
 62
     5
 10
-373.72514344533562
 20
-452.26981003878967
 30
0.0
 11
-373.73109051786832
 21
-452.27361784402802
 31
0.0
  0
LINE
  8
DETAIL
  6
CONTINUOUS
 62
     5
 10
-373.73109051786832
 20
-452.27361784402802
 30
0.0
 11
-373.73703591041982
 21
-452.27742666186862
 31
0.0
  0
LINE
  8
DETAIL
  6
CONTINUOUS
 62
     5
 10
-373.73703591041982
 20
-452.27742666186862
 30
0.0
 11
-373.74298110362628
 21
-452.28123754875207
 31
0.0
  0
LINE
  8
DETAIL
  6
CONTINUOUS
 62
     5
 10
-373.74298110362628
 20
-452.28123754875207
 30
0.0
 11
-373.74892757812489
 21
-452.28505156111942
 31
0.0
  0
LINE
  8
DETAIL
  6
CONTINUOUS
 62
     5
 10
-373.74892757812489
 20
-452.28505156111942
 30
0.0
 11
-373.75487681455178
 21
-452.28886975541161
 31
0.0
  0
LINE
  8
DETAIL
  6
CONTINUOUS
 62
     5
 10
-373.75487681455178
 20
-452.28886975541161
 30
0.0
 11
-373.7608302935439
 21
-452.29269318806968
 31
0.0
  0
LINE
  8
DETAIL
  6
CONTINUOUS
 62
     5
 10
-373.7608302935439
 20
-452.29269318806968
 30
0.0
 11
-373.76678949573761
 21
-452.2965229155343
 31
0.0
  0
LINE
  8
DETAIL
  6
CONTINUOUS
 62
     5
 10
-373.76678949573761
 20
-452.2965229155343
 30
0.0
 11
-373.77275469962802
 21
-452.30035921455368
 31
0.0
  0
LINE
  8
DETAIL
  6
CONTINUOUS
 62
     5
 10
-373.77275469962802
 20
-452.30035921455368
 30
0.0
 11
-373.77872137514578
 21
-452.30419924308723
 31
0.0
  0
LINE
  8
DETAIL
  6
CONTINUOUS
 62
     5
 10
-373.77872137514578
 20
-452.30419924308723
 30
0.0
 11
-373.78468379007973
 21
-452.30803937940101
 31
0.0
  0
LINE
  8
DETAIL
  6
CONTINUOUS
 62
     5
 10
-373.78468379007973
 20
-452.30803937940101
 30
0.0
 11
-373.7906362122194
 21
-452.31187600176202
 31
0.0
  0
LINE
  8
DETAIL
  6
CONTINUOUS
 62
     5
 10
-373.7906362122194
 20
-452.31187600176202
 30
0.0
 11
-373.7965729093537
 21
-452.31570548843717
 31
0.0
  0
LINE
  8
DETAIL
  6
CONTINUOUS
 62
     5
 10
-373.7965729093537
 20
-452.31570548843717
 30
0.0
 11
-373.80248814927182
 21
-452.31952421769302
 31
0.0
  0
LINE
  8
DETAIL
  6
CONTINUOUS
 62
     5
 10
-373.80248814927182
 20
-452.31952421769302
 30
0.0
 11
-373.80837619976228
 21
-452.32332856779612
 31
0.0
  0
LINE
  8
DETAIL
  6
CONTINUOUS
 62
     5
 10
-373.80837619976228
 20
-452.32332856779612
 30
0.0
 11
-373.81423321866299
 21
-452.32711614016807
 31
0.0
  0
LINE
  8
DETAIL
  6
CONTINUOUS
 62
     5
 10
-373.81423321866299
 20
-452.32711614016807
 30
0.0
 11
-373.82006292400592
 21
-452.33088942885121
 31
0.0
  0
LINE
  8
DETAIL
  6
CONTINUOUS
 62
     5
 10
-373.82006292400592
 20
-452.33088942885121
 30
0.0
 11
-373.82587092387172
 21
-452.33465215104172
 31
0.0
  0
LINE
  8
DETAIL
  6
CONTINUOUS
 62
     5
 10
-373.82587092387172
 20
-452.33465215104172
 30
0.0
 11
-373.83166282634062
 21
-452.33840802393678
 31
0.0
  0
LINE
  8
DETAIL
  6
CONTINUOUS
 62
     5
 10
-373.83166282634062
 20
-452.33840802393678
 30
0.0
 11
-373.83744423949292
 21
-452.34216076473359
 31
0.0
  0
LINE
  8
DETAIL
  6
CONTINUOUS
 62
     5
 10
-373.83744423949292
 20
-452.34216076473359
 30
0.0
 11
-373.84322077140951
 21
-452.34591409062932
 31
0.0
  0
LINE
  8
DETAIL
  6
CONTINUOUS
 62
     5
 10
-373.84322077140951
 20
-452.34591409062932
 30
0.0
 11
-373.84899803017021
 21
-452.3496717188209
 31
0.0
  0
LINE
  8
DETAIL
  6
CONTINUOUS
 62
     5
 10
-373.84899803017021
 20
-452.3496717188209
 30
0.0
 11
-373.85478046028129
 21
-452.35343661866091
 31
0.0
  0
LINE
  8
DETAIL
  6
CONTINUOUS
 62
     5
 10
-373.85478046028129
 20
-452.35343661866091
 30
0.0
 11
-373.86056785195052
 21
-452.35720876811592
 31
0.0
  0
LINE
  8
DETAIL
  6
CONTINUOUS
 62
     5
 10
-373.86056785195052
 20
-452.35720876811592
 30
0.0
 11
-373.86635883181162
 21
-452.36098739730772
 31
0.0
  0
LINE
  8
DETAIL
  6
CONTINUOUS
 62
     5
 10
-373.86635883181162
 20
-452.36098739730772
 30
0.0
 11
-373.87215202649759
 21
-452.36477173635882
 31
0.0
  0
LINE
  8
DETAIL
  6
CONTINUOUS
 62
     5
 10
-373.87215202649759
 20
-452.36477173635882
 30
0.0
 11
-373.8779460626422
 21
-452.36856101539121
 31
0.0
  0
LINE
  8
DETAIL
  6
CONTINUOUS
 62
     5
 10
-373.8779460626422
 20
-452.36856101539121
 30
0.0
 11
-373.88373956687877
 21
-452.37235446452718
 31
0.0
  0
LINE
  8
DETAIL
  6
CONTINUOUS
 62
     5
 10
-373.88373956687877
 20
-452.37235446452718
 30
0.0
 11
-373.88953116584071
 21
-452.37615131388878
 31
0.0
  0
LINE
  8
DETAIL
  6
CONTINUOUS
 62
     5
 10
-373.88953116584071
 20
-452.37615131388878
 30
0.0
 11
-373.89531964468688
 21
-452.37995088942853
 31
0.0
  0
LINE
  8
DETAIL
  6
CONTINUOUS
 62
     5
 10
-373.89531964468688
 20
-452.37995088942853
 30
0.0
 11
-373.90110442267468
 21
-452.38375290043751
 31
0.0
  0
LINE
  8
DETAIL
  6
CONTINUOUS
 62
     5
 10
-373.90110442267468
 20
-452.38375290043751
 30
0.0
 11
-373.90688507758949
 21
-452.38755715203718
 31
0.0
  0
LINE
  8
DETAIL
  6
CONTINUOUS
 62
     5
 10
-373.90688507758949
 20
-452.38755715203718
 30
0.0
 11
-373.91266118721393
 21
-452.39136344934877
 31
0.0
  0
LINE
  8
DETAIL
  6
CONTINUOUS
 62
     5
 10
-373.91266118721393
 20
-452.39136344934877
 30
0.0
 11
-373.91843232933212
 21
-452.39517159749312
 31
0.0
  0
LINE
  8
DETAIL
  6
CONTINUOUS
 62
     5
 10
-373.91843232933212
 20
-452.39517159749312
 30
0.0
 11
-373.92419808172713
 21
-452.39898140159198
 31
0.0
  0
LINE
  8
DETAIL
  6
CONTINUOUS
 62
     5
 10
-373.92419808172713
 20
-452.39898140159198
 30
0.0
 11
-373.9299580221832
 21
-452.40279266676572
 31
0.0
  0
LINE
  8
DETAIL
  6
CONTINUOUS
 62
     5
 10
-373.9299580221832
 20
-452.40279266676572
 30
0.0
 11
-373.93571225795841
 21
-452.40660556265289
 31
0.0
  0
LINE
  8
DETAIL
  6
CONTINUOUS
 62
     5
 10
-373.93571225795841
 20
-452.40660556265289
 30
0.0
 11
-373.94146301420778
 21
-452.4104217169355
 31
0.0
  0
LINE
  8
DETAIL
  6
CONTINUOUS
 62
     5
 10
-373.94146301420778
 20
-452.4104217169355
 30
0.0
 11
-373.94721304556077
 21
-452.41424312181272
 31
0.0
  0
LINE
  8
DETAIL
  6
CONTINUOUS
 62
     5
 10
-373.94721304556077
 20
-452.41424312181272
 30
0.0
 11
-373.9529651066473
 21
-452.41807176948282
 31
0.0
  0
LINE
  8
DETAIL
  6
CONTINUOUS
 62
     5
 10
-373.9529651066473
 20
-452.41807176948282
 30
0.0
 11
-373.95872195209682
 21
-452.4219096521449
 31
0.0
  0
LINE
  8
DETAIL
  6
CONTINUOUS
 62
     5
 10
-373.95872195209682
 20
-452.4219096521449
 30
0.0
 11
-373.96448633653807
 21
-452.42575876199771
 31
0.0
  0
LINE
  8
DETAIL
  6
CONTINUOUS
 62
     5
 10
-373.96448633653807
 20
-452.42575876199771
 30
0.0
 11
-373.97026101460142
 21
-452.42962109123982
 31
0.0
  0
LINE
  8
DETAIL
  6
CONTINUOUS
 62
     5
 10
-373.97026101460142
 20
-452.42962109123982
 30
0.0
 11
-373.97604646449491
 21
-452.43349707818709
 31
0.0
  0
LINE
  8
DETAIL
  6
CONTINUOUS
 62
     5
 10
-373.97604646449491
 20
-452.43349707818709
 30
0.0
 11
-373.98183405873579
 21
-452.43738094561343
 31
0.0
  0
LINE
  8
DETAIL
  6
CONTINUOUS
 62
     5
 10
-373.98183405873579
 20
-452.43738094561343
 30
0.0
 11
-373.98761289341928
 21
-452.44126536240913
 31
0.0
  0
LINE
  8
DETAIL
  6
CONTINUOUS
 62
     5
 10
-373.98761289341928
 20
-452.44126536240913
 30
0.0
 11
-373.99337206464247
 21
-452.44514299746402
 31
0.0
  0
LINE
  8
DETAIL
  6
CONTINUOUS
 62
     5
 10
-373.99337206464247
 20
-452.44514299746402
 30
0.0
 11
-373.99910066850089
 21
-452.44900651966873
 31
0.0
  0
LINE
  8
DETAIL
  6
CONTINUOUS
 62
     5
 10
-373.99910066850089
 20
-452.44900651966873
 30
0.0
 11
-374.00478780109052
 21
-452.45284859791292
 31
0.0
  0
LINE
  8
DETAIL
  6
CONTINUOUS
 62
     5
 10
-374.00478780109052
 20
-452.45284859791292
 30
0.0
 11
-374.01042255850712
 21
-452.4566619010875
 31
0.0
  0
LINE
  8
DETAIL
  6
CONTINUOUS
 62
     5
 10
-374.01042255850712
 20
-452.4566619010875
 30
0.0
 11
-374.01599765372981
 21
-452.46044155147041
 31
0.0
  0
LINE
  8
DETAIL
  6
CONTINUOUS
 62
     5
 10
-374.01599765372981
 20
-452.46044155147041
 30
0.0
 11
-374.02152026726299
 21
-452.46419248489411
 31
0.0
  0
LINE
  8
DETAIL
  6
CONTINUOUS
 62
     5
 10
-374.02152026726299
 20
-452.46419248489411
 30
0.0
 11
-374.02700119649472
 21
-452.46792209057861
 31
0.0
  0
LINE
  8
DETAIL
  6
CONTINUOUS
 62
     5
 10
-374.02700119649472
 20
-452.46792209057861
 30
0.0
 11
-374.03245123881271
 21
-452.4716377577447
 31
0.0
  0
LINE
  8
DETAIL
  6
CONTINUOUS
 62
     5
 10
-374.03245123881271
 20
-452.4716377577447
 30
0.0
 11
-374.03788119160458
 21
-452.47534687561279
 31
0.0
  0
LINE
  8
DETAIL
  6
CONTINUOUS
 62
     5
 10
-374.03788119160458
 20
-452.47534687561279
 30
0.0
 11
-374.04330185225808
 21
-452.47905683340332
 31
0.0
  0
LINE
  8
DETAIL
  6
CONTINUOUS
 62
     5
 10
-374.04330185225808
 20
-452.47905683340332
 30
0.0
 11
-374.04872401816101
 21
-452.4827750203367
 31
0.0
  0
LINE
  8
DETAIL
  6
CONTINUOUS
 62
     5
 10
-374.04872401816101
 20
-452.4827750203367
 30
0.0
 11
-374.05415623511891
 21
-452.48650731551879
 31
0.0
  0
LINE
  8
DETAIL
  6
CONTINUOUS
 62
     5
 10
-374.05415623511891
 20
-452.48650731551879
 30
0.0
 11
-374.05959804261369
 21
-452.49025355761609
 31
0.0
  0
LINE
  8
DETAIL
  6
CONTINUOUS
 62
     5
 10
-374.05959804261369
 20
-452.49025355761609
 30
0.0
 11
-374.06504672854498
 21
-452.49401207518031
 31
0.0
  0
LINE
  8
DETAIL
  6
CONTINUOUS
 62
     5
 10
-374.06504672854498
 20
-452.49401207518031
 30
0.0
 11
-374.07049958081171
 21
-452.49778119676353
 31
0.0
  0
LINE
  8
DETAIL
  6
CONTINUOUS
 62
     5
 10
-374.07049958081171
 20
-452.49778119676353
 30
0.0
 11
-374.07595388731397
 21
-452.50155925091741
 31
0.0
  0
LINE
  8
DETAIL
  6
CONTINUOUS
 62
     5
 10
-374.07595388731397
 20
-452.50155925091741
 30
0.0
 11
-374.08140693595118
 21
-452.50534456619351
 31
0.0
  0
LINE
  8
DETAIL
  6
CONTINUOUS
 62
     5
 10
-374.08140693595118
 20
-452.50534456619351
 30
0.0
 11
-374.08685601462281
 21
-452.50913547114402
 31
0.0
  0
LINE
  8
DETAIL
  6
CONTINUOUS
 62
     5
 10
-374.08685601462281
 20
-452.50913547114402
 30
0.0
 11
-374.09229880269891
 21
-452.51293054149602
 31
0.0
  0
LINE
  8
DETAIL
  6
CONTINUOUS
 62
     5
 10
-374.09229880269891
 20
-452.51293054149602
 30
0.0
 11
-374.09773454542892
 21
-452.51672934166891
 31
0.0
  0
LINE
  8
DETAIL
  6
CONTINUOUS
 62
     5
 10
-374.09773454542892
 20
-452.51672934166891
 30
0.0
 11
-374.10316287953242
 21
-452.52053168325767
 31
0.0
  0
LINE
  8
DETAIL
  6
CONTINUOUS
 62
     5
 10
-374.10316287953242
 20
-452.52053168325767
 30
0.0
 11
-374.10858344172902
 21
-452.52433737785708
 31
0.0
  0
LINE
  8
DETAIL
  6
CONTINUOUS
 62
     5
 10
-374.10858344172902
 20
-452.52433737785708
 30
0.0
 11
-374.11399586873881
 21
-452.52814623706217
 31
0.0
  0
LINE
  8
DETAIL
  6
CONTINUOUS
 62
     5
 10
-374.11399586873881
 20
-452.52814623706217
 30
0.0
 11
-374.11939979728118
 21
-452.53195807246772
 31
0.0
  0
LINE
  8
DETAIL
  6
CONTINUOUS
 62
     5
 10
-374.11939979728118
 20
-452.53195807246772
 30
0.0
 11
-374.12479486407568
 21
-452.53577269566802
 31
0.0
  0
LINE
  8
DETAIL
  6
CONTINUOUS
 62
     5
 10
-374.12479486407568
 20
-452.53577269566802
 30
0.0
 11
-374.13018139154309
 21
-452.53959043967347
 31
0.0
  0
LINE
  8
DETAIL
  6
CONTINUOUS
 62
     5
 10
-374.13018139154309
 20
-452.53959043967347
 30
0.0
 11
-374.13556244491002
 21
-452.54341372316048
 31
0.0
  0
LINE
  8
DETAIL
  6
CONTINUOUS
 62
     5
 10
-374.13556244491002
 20
-452.54341372316048
 30
0.0
 11
-374.14094177510361
 21
-452.54724548622158
 31
0.0
  0
LINE
  8
DETAIL
  6
CONTINUOUS
 62
     5
 10
-374.14094177510361
 20
-452.54724548622158
 30
0.0
 11
-374.14632313305128
 21
-452.5510886689483
 31
0.0
  0
LINE
  8
DETAIL
  6
CONTINUOUS
 62
     5
 10
-374.14632313305128
 20
-452.5510886689483
 30
0.0
 11
-374.15171026968068
 21
-452.55494621143288
 31
0.0
  0
LINE
  8
DETAIL
  6
CONTINUOUS
 62
     5
 10
-374.15171026968068
 20
-452.55494621143288
 30
0.0
 11
-374.15710693591927
 21
-452.55882105376708
 31
0.0
  0
LINE
  8
DETAIL
  6
CONTINUOUS
 62
     5
 10
-374.15710693591927
 20
-452.55882105376708
 30
0.0
 11
-374.16251688269398
 21
-452.56271613604258
 31
0.0
  0
LINE
  8
DETAIL
  6
CONTINUOUS
 62
     5
 10
-374.16251688269398
 20
-452.56271613604258
 30
0.0
 11
-374.16794072665812
 21
-452.56663206551741
 31
0.0
  0
LINE
  8
DETAIL
  6
CONTINUOUS
 62
     5
 10
-374.16794072665812
 20
-452.56663206551741
 30
0.0
 11
-374.17336654736249
 21
-452.57056011808521
 31
0.0
  0
LINE
  8
DETAIL
  6
CONTINUOUS
 62
     5
 10
-374.17336654736249
 20
-452.57056011808521
 30
0.0
 11
-374.17877929008341
 21
-452.57448923680602
 31
0.0
  0
LINE
  8
DETAIL
  6
CONTINUOUS
 62
     5
 10
-374.17877929008341
 20
-452.57448923680602
 30
0.0
 11
-374.18416390009747
 21
-452.5784083647402
 31
0.0
  0
LINE
  8
DETAIL
  6
CONTINUOUS
 62
     5
 10
-374.18416390009747
 20
-452.5784083647402
 30
0.0
 11
-374.18950532268082
 21
-452.58230644494768
 31
0.0
  0
LINE
  8
DETAIL
  6
CONTINUOUS
 62
     5
 10
-374.18950532268082
 20
-452.58230644494768
 30
0.0
 11
-374.19478850311071
 21
-452.58617242048831
 31
0.0
  0
LINE
  8
DETAIL
  6
CONTINUOUS
 62
     5
 10
-374.19478850311071
 20
-452.58617242048831
 30
0.0
 11
-374.19999838666263
 21
-452.58999523442247
 31
0.0
  0
LINE
  8
DETAIL
  6
CONTINUOUS
 62
     5
 10
-374.19999838666263
 20
-452.58999523442247
 30
0.0
 11
-374.20512492452599
 21
-452.5937675144761
 31
0.0
  0
LINE
  8
DETAIL
  6
CONTINUOUS
 62
     5
 10
-374.20512492452599
 20
-452.5937675144761
 30
0.0
 11
-374.21017809153949
 21
-452.59749662704081
 31
0.0
  0
LINE
  8
DETAIL
  6
CONTINUOUS
 62
     5
 10
-374.21017809153949
 20
-452.59749662704081
 30
0.0
 11
-374.21517286845437
 21
-452.60119362317459
 31
0.0
  0
LINE
  8
DETAIL
  6
CONTINUOUS
 62
     5
 10
-374.21517286845437
 20
-452.60119362317459
 30
0.0
 11
-374.220124236022
 21
-452.60486955393571
 31
0.0
  0
LINE
  8
DETAIL
  6
CONTINUOUS
 62
     5
 10
-374.220124236022
 20
-452.60486955393571
 30
0.0
 11
-374.22504717499402
 21
-452.608535470383
 31
0.0
  0
LINE
  8
DETAIL
  6
CONTINUOUS
 62
     5
 10
-374.22504717499402
 20
-452.608535470383
 30
0.0
 11
-374.22995666612132
 21
-452.61220242357422
 31
0.0
  0
LINE
  8
DETAIL
  6
CONTINUOUS
 62
     5
 10
-374.22995666612132
 20
-452.61220242357422
 30
0.0
 11
-374.23486769015562
 21
-452.61588146456779
 31
0.0
  0
LINE
  8
DETAIL
  6
CONTINUOUS
 62
     5
 10
-374.23486769015562
 20
-452.61588146456779
 30
0.0
 11
-374.23979209327922
 21
-452.61958137472573
 31
0.0
  0
LINE
  8
DETAIL
  6
CONTINUOUS
 62
     5
 10
-374.23979209327922
 20
-452.61958137472573
 30
0.0
 11
-374.24472918340552
 21
-452.6233018566262
 31
0.0
  0
LINE
  8
DETAIL
  6
CONTINUOUS
 62
     5
 10
-374.24472918340552
 20
-452.6233018566262
 30
0.0
 11
-374.24967513387878
 21
-452.62704034314999
 31
0.0
  0
LINE
  8
DETAIL
  6
CONTINUOUS
 62
     5
 10
-374.24967513387878
 20
-452.62704034314999
 30
0.0
 11
-374.25462611804352
 21
-452.63079426717911
 31
0.0
  0
LINE
  8
DETAIL
  6
CONTINUOUS
 62
     5
 10
-374.25462611804352
 20
-452.63079426717911
 30
0.0
 11
-374.25957830924432
 21
-452.63456106159452
 31
0.0
  0
LINE
  8
DETAIL
  6
CONTINUOUS
 62
     5
 10
-374.25957830924432
 20
-452.63456106159452
 30
0.0
 11
-374.26452788082571
 21
-452.63833815927802
 31
0.0
  0
LINE
  8
DETAIL
  6
CONTINUOUS
 62
     5
 10
-374.26452788082571
 20
-452.63833815927802
 30
0.0
 11
-374.26947100613228
 21
-452.64212299311112
 31
0.0
  0
LINE
  8
DETAIL
  6
CONTINUOUS
 62
     5
 10
-374.26947100613228
 20
-452.64212299311112
 30
0.0
 11
-374.27440445103048
 21
-452.64591339520638
 31
0.0
  0
LINE
  8
DETAIL
  6
CONTINUOUS
 62
     5
 10
-374.27440445103048
 20
-452.64591339520638
 30
0.0
 11
-374.27932735147351
 21
-452.64970879459167
 31
0.0
  0
LINE
  8
DETAIL
  6
CONTINUOUS
 62
     5
 10
-374.27932735147351
 20
-452.64970879459167
 30
0.0
 11
-374.28423943593771
 21
-452.6535090195257
 31
0.0
  0
LINE
  8
DETAIL
  6
CONTINUOUS
 62
     5
 10
-374.28423943593771
 20
-452.6535090195257
 30
0.0
 11
-374.28914043289888
 21
-452.65731389826738
 31
0.0
  0
LINE
  8
DETAIL
  6
CONTINUOUS
 62
     5
 10
-374.28914043289888
 20
-452.65731389826738
 30
0.0
 11
-374.29403007083238
 21
-452.661123259075
 31
0.0
  0
LINE
  8
DETAIL
  6
CONTINUOUS
 62
     5
 10
-374.29403007083238
 20
-452.661123259075
 30
0.0
 11
-374.29890807821488
 21
-452.66493693020738
 31
0.0
  0
LINE
  8
DETAIL
  6
CONTINUOUS
 62
     5
 10
-374.29890807821488
 20
-452.66493693020738
 30
0.0
 11
-374.30377418352151
 21
-452.66875473992332
 31
0.0
  0
LINE
  8
DETAIL
  6
CONTINUOUS
 62
     5
 10
-374.30377418352151
 20
-452.66875473992332
 30
0.0
 11
-374.30862887970812
 21
-452.67257718926038
 31
0.0
  0
LINE
  8
DETAIL
  6
CONTINUOUS
 62
     5
 10
-374.30862887970812
 20
-452.67257718926038
 30
0.0
 11
-374.31347571765201
 21
-452.67640747036631
 31
0.0
  0
LINE
  8
DETAIL
  6
CONTINUOUS
 62
     5
 10
-374.31347571765201
 20
-452.67640747036631
 30
0.0
 11
-374.31831901271079
 21
-452.68024944816727
 31
0.0
  0
LINE
  8
DETAIL
  6
CONTINUOUS
 62
     5
 10
-374.31831901271079
 20
-452.68024944816727
 30
0.0
 11
-374.32316308024252
 21
-452.68410698759129
 31
0.0
  0
LINE
  8
DETAIL
  6
CONTINUOUS
 62
     5
 10
-374.32316308024252
 20
-452.68410698759129
 30
0.0
 11
-374.32801223560432
 21
-452.68798395356521
 31
0.0
  0
LINE
  8
DETAIL
  6
CONTINUOUS
 62
     5
 10
-374.32801223560432
 20
-452.68798395356521
 30
0.0
 11
-374.33287079415442
 21
-452.69188421101637
 31
0.0
  0
LINE
  8
DETAIL
  6
CONTINUOUS
 62
     5
 10
-374.33287079415442
 20
-452.69188421101637
 30
0.0
 11
-374.33774307124992
 21
-452.69581162487162
 31
0.0
  0
LINE
  8
DETAIL
  6
CONTINUOUS
 62
     5
 10
-374.33774307124992
 20
-452.69581162487162
 30
0.0
 11
-374.34262973180557
 21
-452.69976696971469
 31
0.0
  0
LINE
  8
DETAIL
  6
CONTINUOUS
 62
     5
 10
-374.34262973180557
 20
-452.69976696971469
 30
0.0
 11
-374.3475168389632
 21
-452.70373865876559
 31
0.0
  0
LINE
  8
DETAIL
  6
CONTINUOUS
 62
     5
 10
-374.3475168389632
 20
-452.70373865876559
 30
0.0
 11
-374.3523868054217
 21
-452.70771201490078
 31
0.0
  0
LINE
  8
DETAIL
  6
CONTINUOUS
 62
     5
 10
-374.3523868054217
 20
-452.70771201490078
 30
0.0
 11
-374.35722204388048
 21
-452.71167236099723
 31
0.0
  0
LINE
  8
DETAIL
  6
CONTINUOUS
 62
     5
 10
-374.35722204388048
 20
-452.71167236099723
 30
0.0
 11
-374.36200496703799
 21
-452.7156050199311
 31
0.0
  0
LINE
  8
DETAIL
  6
CONTINUOUS
 62
     5
 10
-374.36200496703799
 20
-452.7156050199311
 30
0.0
 11
-374.36671798759329
 21
-452.71949531457972
 31
0.0
  0
LINE
  8
DETAIL
  6
CONTINUOUS
 62
     5
 10
-374.36671798759329
 20
-452.71949531457972
 30
0.0
 11
-374.37134351824511
 21
-452.72332856781941
 31
0.0
  0
LINE
  8
DETAIL
  6
CONTINUOUS
 62
     5
 10
-374.37134351824511
 20
-452.72332856781941
 30
0.0
 11
-374.37586983069627
 21
-452.72709497834921
 31
0.0
  0
LINE
  8
DETAIL
  6
CONTINUOUS
 62
     5
 10
-374.37586983069627
 20
-452.72709497834921
 30
0.0
 11
-374.38030863266789
 21
-452.73080424815771
 31
0.0
  0
LINE
  8
DETAIL
  6
CONTINUOUS
 62
     5
 10
-374.38030863266789
 20
-452.73080424815771
 30
0.0
 11
-374.38467749088522
 21
-452.73447095505509
 31
0.0
  0
LINE
  8
DETAIL
  6
CONTINUOUS
 62
     5
 10
-374.38467749088522
 20
-452.73447095505509
 30
0.0
 11
-374.38899397207251
 21
-452.73810967685239
 31
0.0
  0
LINE
  8
DETAIL
  6
CONTINUOUS
 62
     5
 10
-374.38899397207251
 20
-452.73810967685239
 30
0.0
 11
-374.39327564295542
 21
-452.74173499136009
 31
0.0
  0
LINE
  8
DETAIL
  6
CONTINUOUS
 62
     5
 10
-374.39327564295542
 20
-452.74173499136009
 30
0.0
 11
-374.39754007025857
 21
-452.74536147638861
 31
0.0
  0
LINE
  8
DETAIL
  6
CONTINUOUS
 62
     5
 10
-374.39754007025857
 20
-452.74536147638861
 30
0.0
 11
-374.40180482070718
 21
-452.74900370974848
 31
0.0
  0
LINE
  8
DETAIL
  6
CONTINUOUS
 62
     5
 10
-374.40180482070718
 20
-452.74900370974848
 30
0.0
 11
-374.40608377046442
 21
-452.75267326663692
 31
0.0
  0
LINE
  8
DETAIL
  6
CONTINUOUS
 62
     5
 10
-374.40608377046442
 20
-452.75267326663692
 30
0.0
 11
-374.41037603345347
 21
-452.75636971180171
 31
0.0
  0
LINE
  8
DETAIL
  6
CONTINUOUS
 62
     5
 10
-374.41037603345347
 20
-452.75636971180171
 30
0.0
 11
-374.41467703303618
 21
-452.76008960737607
 31
0.0
  0
LINE
  8
DETAIL
  6
CONTINUOUS
 62
     5
 10
-374.41467703303618
 20
-452.76008960737607
 30
0.0
 11
-374.41898219257382
 21
-452.76382951549408
 31
0.0
  0
LINE
  8
DETAIL
  6
CONTINUOUS
 62
     5
 10
-374.41898219257382
 20
-452.76382951549408
 30
0.0
 11
-374.42328693542783
 21
-452.7675859982885
 31
0.0
  0
LINE
  8
DETAIL
  6
CONTINUOUS
 62
     5
 10
-374.42328693542783
 20
-452.7675859982885
 30
0.0
 11
-374.42758668495981
 21
-452.77135561789282
 31
0.0
  0
LINE
  8
DETAIL
  6
CONTINUOUS
 62
     5
 10
-374.42758668495981
 20
-452.77135561789282
 30
0.0
 11
-374.43187686453172
 21
-452.77513493644068
 31
0.0
  0
LINE
  8
DETAIL
  6
CONTINUOUS
 62
     5
 10
-374.43187686453172
 20
-452.77513493644068
 30
0.0
 11
-374.43615363614123
 21
-452.77892106699881
 31
0.0
  0
LINE
  8
DETAIL
  6
CONTINUOUS
 62
     5
 10
-374.43615363614123
 20
-452.77892106699881
 30
0.0
 11
-374.44041611632929
 21
-452.78271332635768
 31
0.0
  0
LINE
  8
DETAIL
  6
CONTINUOUS
 62
     5
 10
-374.44041611632929
 20
-452.78271332635768
 30
0.0
 11
-374.44466416027348
 21
-452.78651158224147
 31
0.0
  0
LINE
  8
DETAIL
  6
CONTINUOUS
 62
     5
 10
-374.44466416027348
 20
-452.78651158224147
 30
0.0
 11
-374.44889762315103
 21
-452.79031570237328
 31
0.0
  0
LINE
  8
DETAIL
  6
CONTINUOUS
 62
     5
 10
-374.44889762315103
 20
-452.79031570237328
 30
0.0
 11
-374.45311636013957
 21
-452.79412555447738
 31
0.0
  0
LINE
  8
DETAIL
  6
CONTINUOUS
 62
     5
 10
-374.45311636013957
 20
-452.79412555447738
 30
0.0
 11
-374.45732022641641
 21
-452.79794100627748
 31
0.0
  0
LINE
  8
DETAIL
  6
CONTINUOUS
 62
     5
 10
-374.45732022641641
 20
-452.79794100627748
 30
0.0
 11
-374.46150907715861
 21
-452.80176192549698
 31
0.0
  0
LINE
  8
DETAIL
  6
CONTINUOUS
 62
     5
 10
-374.46150907715861
 20
-452.80176192549698
 30
0.0
 11
-374.46568350356068
 21
-452.80558897874562
 31
0.0
  0
LINE
  8
DETAIL
  6
CONTINUOUS
 62
     5
 10
-374.46568350356068
 20
-452.80558897874562
 30
0.0
 11
-374.46984704088351
 21
-452.80942602817782
 31
0.0
  0
LINE
  8
DETAIL
  6
CONTINUOUS
 62
     5
 10
-374.46984704088351
 20
-452.80942602817782
 30
0.0
 11
-374.47400396040462
 21
-452.81327773483389
 31
0.0
  0
LINE
  8
DETAIL
  6
CONTINUOUS
 62
     5
 10
-374.47400396040462
 20
-452.81327773483389
 30
0.0
 11
-374.47815853340171
 21
-452.81714875975479
 31
0.0
  0
LINE
  8
DETAIL
  6
CONTINUOUS
 62
     5
 10
-374.47815853340171
 20
-452.81714875975479
 30
0.0
 11
-374.48231503115198
 21
-452.82104376398092
 31
0.0
  0
LINE
  8
DETAIL
  6
CONTINUOUS
 62
     5
 10
-374.48231503115198
 20
-452.82104376398092
 30
0.0
 11
-374.48647772493308
 21
-452.82496740855288
 31
0.0
  0
LINE
  8
DETAIL
  6
CONTINUOUS
 62
     5
 10
-374.48647772493308
 20
-452.82496740855288
 30
0.0
 11
-374.4906508860231
 21
-452.82892435451129
 31
0.0
  0
LINE
  8
DETAIL
  6
CONTINUOUS
 62
     5
 10
-374.4906508860231
 20
-452.82892435451129
 30
0.0
 11
-374.49483510299711
 21
-452.83291551642202
 31
0.0
  0
LINE
  8
DETAIL
  6
CONTINUOUS
 62
     5
 10
-374.49483510299711
 20
-452.83291551642202
 30
0.0
 11
-374.49901623361819
 21
-452.83692682294259
 31
0.0
  0
LINE
  8
DETAIL
  6
CONTINUOUS
 62
     5
 10
-374.49901623361819
 20
-452.83692682294259
 30
0.0
 11
-374.50317645294763
 21
-452.84094045625602
 31
0.0
  0
LINE
  8
DETAIL
  6
CONTINUOUS
 62
     5
 10
-374.50317645294763
 20
-452.84094045625602
 30
0.0
 11
-374.50729793604592
 21
-452.84493859854479
 31
0.0
  0
LINE
  8
DETAIL
  6
CONTINUOUS
 62
     5
 10
-374.50729793604592
 20
-452.84493859854479
 30
0.0
 11
-374.51136285797452
 21
-452.84890343199208
 31
0.0
  0
LINE
  8
DETAIL
  6
CONTINUOUS
 62
     5
 10
-374.51136285797452
 20
-452.84890343199208
 30
0.0
 11
-374.51535339379421
 21
-452.85281713878021
 31
0.0
  0
LINE
  8
DETAIL
  6
CONTINUOUS
 62
     5
 10
-374.51535339379421
 20
-452.85281713878021
 30
0.0
 11
-374.51925171856601
 21
-452.85666190109259
 31
0.0
  0
LINE
  8
DETAIL
  6
CONTINUOUS
 62
     5
 10
-374.51925171856601
 20
-452.85666190109259
 30
0.0
 11
-374.52304595908248
 21
-452.86042580411481
 31
0.0
  0
LINE
  8
DETAIL
  6
CONTINUOUS
 62
     5
 10
-374.52304595908248
 20
-452.86042580411481
 30
0.0
 11
-374.52674804906292
 21
-452.86412054504831
 31
0.0
  0
LINE
  8
DETAIL
  6
CONTINUOUS
 62
     5
 10
-374.52674804906292
 20
-452.86412054504831
 30
0.0
 11
-374.53037587395721
 21
-452.86776372409798
 31
0.0
  0
LINE
  8
DETAIL
  6
CONTINUOUS
 62
     5
 10
-374.53037587395721
 20
-452.86776372409798
 30
0.0
 11
-374.53394731921662
 21
-452.87137294146902
 31
0.0
  0
LINE
  8
DETAIL
  6
CONTINUOUS
 62
     5
 10
-374.53394731921662
 20
-452.87137294146902
 30
0.0
 11
-374.53748027029161
 21
-452.87496579736631
 31
0.0
  0
LINE
  8
DETAIL
  6
CONTINUOUS
 62
     5
 10
-374.53748027029161
 20
-452.87496579736631
 30
0.0
 11
-374.54099261263292
 21
-452.87855989199511
 31
0.0
  0
LINE
  8
DETAIL
  6
CONTINUOUS
 62
     5
 10
-374.54099261263292
 20
-452.87855989199511
 30
0.0
 11
-374.54450223169079
 21
-452.8821728255607
 31
0.0
  0
LINE
  8
DETAIL
  6
CONTINUOUS
 62
     5
 10
-374.54450223169079
 20
-452.8821728255607
 30
0.0
 11
-374.54802323250061
 21
-452.88581856215433
 31
0.0
  0
LINE
  8
DETAIL
  6
CONTINUOUS
 62
     5
 10
-374.54802323250061
 20
-452.88581856215433
 30
0.0
 11
-374.55155459843672
 21
-452.88949652141542
 31
0.0
  0
LINE
  8
DETAIL
  6
CONTINUOUS
 62
     5
 10
-374.55155459843672
 20
-452.88949652141542
 30
0.0
 11
-374.55509153245788
 21
-452.89320248687051
 31
0.0
  0
LINE
  8
DETAIL
  6
CONTINUOUS
 62
     5
 10
-374.55509153245788
 20
-452.89320248687051
 30
0.0
 11
-374.55862923752352
 21
-452.89693224204552
 31
0.0
  0
LINE
  8
DETAIL
  6
CONTINUOUS
 62
     5
 10
-374.55862923752352
 20
-452.89693224204552
 30
0.0
 11
-374.56216291659211
 21
-452.90068157046773
 31
0.0
  0
LINE
  8
DETAIL
  6
CONTINUOUS
 62
     5
 10
-374.56216291659211
 20
-452.90068157046773
 30
0.0
 11
-374.56568777262243
 21
-452.90444625566278
 31
0.0
  0
LINE
  8
DETAIL
  6
CONTINUOUS
 62
     5
 10
-374.56568777262243
 20
-452.90444625566278
 30
0.0
 11
-374.56919900857338
 21
-452.90822208115782
 31
0.0
  0
LINE
  8
DETAIL
  6
CONTINUOUS
 62
     5
 10
-374.56919900857338
 20
-452.90822208115782
 30
0.0
 11
-374.57269262885478
 21
-452.91200552612122
 31
0.0
  0
LINE
  8
DETAIL
  6
CONTINUOUS
 62
     5
 10
-374.57269262885478
 20
-452.91200552612122
 30
0.0
 11
-374.57616784367877
 21
-452.91579585226168
 31
0.0
  0
LINE
  8
DETAIL
  6
CONTINUOUS
 62
     5
 10
-374.57616784367877
 20
-452.91579585226168
 30
0.0
 11
-374.57962466470872
 21
-452.9195930169285
 31
0.0
  0
LINE
  8
DETAIL
  6
CONTINUOUS
 62
     5
 10
-374.57962466470872
 20
-452.9195930169285
 30
0.0
 11
-374.58306310360689
 21
-452.92339697747121
 31
0.0
  0
LINE
  8
DETAIL
  6
CONTINUOUS
 62
     5
 10
-374.58306310360689
 20
-452.92339697747121
 30
0.0
 11
-374.58648317203688
 21
-452.92720769124003
 31
0.0
  0
LINE
  8
DETAIL
  6
CONTINUOUS
 62
     5
 10
-374.58648317203688
 20
-452.92720769124003
 30
0.0
 11
-374.58988488166102
 21
-452.93102511558402
 31
0.0
  0
LINE
  8
DETAIL
  6
CONTINUOUS
 62
     5
 10
-374.58988488166102
 20
-452.93102511558402
 30
0.0
 11
-374.59326824414262
 21
-452.9348492078534
 31
0.0
  0
LINE
  8
DETAIL
  6
CONTINUOUS
 62
     5
 10
-374.59326824414262
 20
-452.9348492078534
 30
0.0
 11
-374.59663384575771
 21
-452.93868077896332
 31
0.0
  0
LINE
  8
DETAIL
  6
CONTINUOUS
 62
     5
 10
-374.59663384575771
 20
-452.93868077896332
 30
0.0
 11
-374.59998457123129
 21
-452.94252405408389
 31
0.0
  0
LINE
  8
DETAIL
  6
CONTINUOUS
 62
     5
 10
-374.59998457123129
 20
-452.94252405408389
 30
0.0
 11
-374.60332387990229
 21
-452.94638411195092
 31
0.0
  0
LINE
  8
DETAIL
  6
CONTINUOUS
 62
     5
 10
-374.60332387990229
 20
-452.94638411195092
 30
0.0
 11
-374.60665523110902
 21
-452.95026603129952
 31
0.0
  0
LINE
  8
DETAIL
  6
CONTINUOUS
 62
     5
 10
-374.60665523110902
 20
-452.95026603129952
 30
0.0
 11
-374.60998208419011
 21
-452.95417489086572
 31
0.0
  0
LINE
  8
DETAIL
  6
CONTINUOUS
 62
     5
 10
-374.60998208419011
 20
-452.95417489086572
 30
0.0
 11
-374.61330789848398
 21
-452.95811576938581
 31
0.0
  0
LINE
  8
DETAIL
  6
CONTINUOUS
 62
     5
 10
-374.61330789848398
 20
-452.95811576938581
 30
0.0
 11
-374.61663613332888
 21
-452.96209374559481
 31
0.0
  0
LINE
  8
DETAIL
  6
CONTINUOUS
 62
     5
 10
-374.61663613332888
 20
-452.96209374559481
 30
0.0
 11
-374.61996714816308
 21
-452.96610978833297
 31
0.0
  0
LINE
  8
DETAIL
  6
CONTINUOUS
 62
     5
 10
-374.61996714816308
 20
-452.96610978833297
 30
0.0
 11
-374.62328890281992
 21
-452.97014842686599
 31
0.0
  0
LINE
  8
DETAIL
  6
CONTINUOUS
 62
     5
 10
-374.62328890281992
 20
-452.97014842686599
 30
0.0
 11
-374.62658625723088
 21
-452.97419008056158
 31
0.0
  0
LINE
  8
DETAIL
  6
CONTINUOUS
 62
     5
 10
-374.62658625723088
 20
-452.97419008056158
 30
0.0
 11
-374.62984407132831
 21
-452.97821516878821
 31
0.0
  0
LINE
  8
DETAIL
  6
CONTINUOUS
 62
     5
 10
-374.62984407132831
 20
-452.97821516878821
 30
0.0
 11
-374.63304720504522
 21
-452.98220411091421
 31
0.0
  0
LINE
  8
DETAIL
  6
CONTINUOUS
 62
     5
 10
-374.63304720504522
 20
-452.98220411091421
 30
0.0
 11
-374.63618051831332
 21
-452.98613732630753
 31
0.0
  0
LINE
  8
DETAIL
  6
CONTINUOUS
 62
     5
 10
-374.63618051831332
 20
-452.98613732630753
 30
0.0
 11
-374.63922887106492
 21
-452.98999523433679
 31
0.0
  0
LINE
  8
DETAIL
  6
CONTINUOUS
 62
     5
 10
-374.63922887106492
 20
-452.98999523433679
 30
0.0
 11
-374.64218219827671
 21
-452.99376472288259
 31
0.0
  0
LINE
  8
DETAIL
  6
CONTINUOUS
 62
     5
 10
-374.64218219827671
 20
-452.99376472288259
 30
0.0
 11
-374.64505073509099
 21
-452.99745855384822
 31
0.0
  0
LINE
  8
DETAIL
  6
CONTINUOUS
 62
     5
 10
-374.64505073509099
 20
-452.99745855384822
 30
0.0
 11
-374.64784979169582
 21
-453.00109595764889
 31
0.0
  0
LINE
  8
DETAIL
  6
CONTINUOUS
 62
     5
 10
-374.64784979169582
 20
-453.00109595764889
 30
0.0
 11
-374.65059467827791
 21
-453.00469616469951
 31
0.0
  0
LINE
  8
DETAIL
  6
CONTINUOUS
 62
     5
 10
-374.65059467827791
 20
-453.00469616469951
 30
0.0
 11
-374.653300705025
 21
-453.00827840541501
 31
0.0
  0
LINE
  8
DETAIL
  6
CONTINUOUS
 62
     5
 10
-374.653300705025
 20
-453.00827840541501
 30
0.0
 11
-374.65598318212409
 21
-453.01186191021111
 31
0.0
  0
LINE
  8
DETAIL
  6
CONTINUOUS
 62
     5
 10
-374.65598318212409
 20
-453.01186191021111
 30
0.0
 11
-374.65865741976268
 21
-453.01546590950238
 31
0.0
  0
LINE
  8
DETAIL
  6
CONTINUOUS
 62
     5
 10
-374.65865741976268
 20
-453.01546590950238
 30
0.0
 11
-374.66133545922253
 21
-453.01910563807769
 31
0.0
  0
LINE
  8
DETAIL
  6
CONTINUOUS
 62
     5
 10
-374.66133545922253
 20
-453.01910563807769
 30
0.0
 11
-374.66401626616948
 21
-453.02278034821791
 31
0.0
  0
LINE
  8
DETAIL
  6
CONTINUOUS
 62
     5
 10
-374.66401626616948
 20
-453.02278034821791
 30
0.0
 11
-374.66669553736438
 21
-453.02648529657631
 31
0.0
  0
LINE
  8
DETAIL
  6
CONTINUOUS
 62
     5
 10
-374.66669553736438
 20
-453.02648529657631
 30
0.0
 11
-374.6693689695685
 21
-453.03021573980692
 31
0.0
  0
LINE
  8
DETAIL
  6
CONTINUOUS
 62
     5
 10
-374.6693689695685
 20
-453.03021573980692
 30
0.0
 11
-374.67203225954268
 21
-453.03396693456352
 31
0.0
  0
LINE
  8
DETAIL
  6
CONTINUOUS
 62
     5
 10
-374.67203225954268
 20
-453.03396693456352
 30
0.0
 11
-374.67468110404769
 21
-453.03773413749951
 31
0.0
  0
LINE
  8
DETAIL
  6
CONTINUOUS
 62
     5
 10
-374.67468110404769
 20
-453.03773413749951
 30
0.0
 11
-374.67731119984461
 21
-453.04151260526851
 31
0.0
  0
LINE
  8
DETAIL
  6
CONTINUOUS
 62
     5
 10
-374.67731119984461
 20
-453.04151260526851
 30
0.0
 11
-374.67991898811653
 21
-453.0452984063113
 31
0.0
  0
LINE
  8
DETAIL
  6
CONTINUOUS
 62
     5
 10
-374.67991898811653
 20
-453.0452984063113
 30
0.0
 11
-374.68250388774049
 21
-453.04909085621648
 31
0.0
  0
LINE
  8
DETAIL
  6
CONTINUOUS
 62
     5
 10
-374.68250388774049
 20
-453.04909085621648
 30
0.0
 11
-374.68506606201589
 21
-453.05289008235849
 31
0.0
  0
LINE
  8
DETAIL
  6
CONTINUOUS
 62
     5
 10
-374.68506606201589
 20
-453.05289008235849
 30
0.0
 11
-374.68760567424209
 21
-453.05669621211217
 31
0.0
  0
LINE
  8
DETAIL
  6
CONTINUOUS
 62
     5
 10
-374.68760567424209
 20
-453.05669621211217
 30
0.0
 11
-374.69012288771842
 21
-453.06050937285238
 31
0.0
  0
LINE
  8
DETAIL
  6
CONTINUOUS
 62
     5
 10
-374.69012288771842
 20
-453.06050937285238
 30
0.0
 11
-374.69261786574413
 21
-453.06432969195401
 31
0.0
  0
LINE
  8
DETAIL
  6
CONTINUOUS
 62
     5
 10
-374.69261786574413
 20
-453.06432969195401
 30
0.0
 11
-374.6950907716182
 21
-453.06815729679153
 31
0.0
  0
LINE
  8
DETAIL
  6
CONTINUOUS
 62
     5
 10
-374.6950907716182
 20
-453.06815729679153
 30
0.0
 11
-374.69754205985259
 21
-453.07199306321922
 31
0.0
  0
LINE
  8
DETAIL
  6
CONTINUOUS
 62
     5
 10
-374.69754205985259
 20
-453.07199306321922
 30
0.0
 11
-374.6999733498069
 21
-453.07584086100928
 31
0.0
  0
LINE
  8
DETAIL
  6
CONTINUOUS
 62
     5
 10
-374.6999733498069
 20
-453.07584086100928
 30
0.0
 11
-374.70238655205247
 21
-453.0797053084143
 31
0.0
  0
LINE
  8
DETAIL
  6
CONTINUOUS
 62
     5
 10
-374.70238655205247
 20
-453.0797053084143
 30
0.0
 11
-374.70478357716178
 21
-453.08359102368718
 31
0.0
  0
LINE
  8
DETAIL
  6
CONTINUOUS
 62
     5
 10
-374.70478357716178
 20
-453.08359102368718
 30
0.0
 11
-374.70716633570618
 21
-453.08750262507971
 31
0.0
  0
LINE
  8
DETAIL
  6
CONTINUOUS
 62
     5
 10
-374.70716633570618
 20
-453.08750262507971
 30
0.0
 11
-374.70953673825761
 21
-453.09144473084478
 31
0.0
  0
LINE
  8
DETAIL
  6
CONTINUOUS
 62
     5
 10
-374.70953673825761
 20
-453.09144473084478
 30
0.0
 11
-374.71189669538762
 21
-453.09542195923518
 31
0.0
  0
LINE
  8
DETAIL
  6
CONTINUOUS
 62
     5
 10
-374.71189669538762
 20
-453.09542195923518
 30
0.0
 11
-374.71424620839679
 21
-453.09943512279438
 31
0.0
  0
LINE
  8
DETAIL
  6
CONTINUOUS
 62
     5
 10
-374.71424620839679
 20
-453.09943512279438
 30
0.0
 11
-374.71657764150001
 21
-453.10346981125258
 31
0.0
  0
LINE
  8
DETAIL
  6
CONTINUOUS
 62
     5
 10
-374.71657764150001
 20
-453.10346981125258
 30
0.0
 11
-374.71888144964117
 21
-453.10750780863049
 31
0.0
  0
LINE
  8
DETAIL
  6
CONTINUOUS
 62
     5
 10
-374.71888144964117
 20
-453.10750780863049
 30
0.0
 11
-374.72114808776382
 21
-453.11153089894879
 31
0.0
  0
LINE
  8
DETAIL
  6
CONTINUOUS
 62
     5
 10
-374.72114808776382
 20
-453.11153089894879
 30
0.0
 11
-374.72336801081178
 21
-453.11552086622851
 31
0.0
  0
LINE
  8
DETAIL
  6
CONTINUOUS
 62
     5
 10
-374.72336801081178
 20
-453.11552086622851
 30
0.0
 11
-374.72553167372888
 21
-453.11945949449051
 31
0.0
  0
LINE
  8
DETAIL
  6
CONTINUOUS
 62
     5
 10
-374.72553167372888
 20
-453.11945949449051
 30
0.0
 11
-374.72762953145872
 21
-453.12332856775538
 31
0.0
  0
LINE
  8
DETAIL
  6
CONTINUOUS
 62
     5
 10
-374.72762953145872
 20
-453.12332856775538
 30
0.0
 11
-374.72965526689472
 21
-453.12711587070572
 31
0.0
  0
LINE
  8
DETAIL
  6
CONTINUOUS
 62
     5
 10
-374.72965526689472
 20
-453.12711587070572
 30
0.0
 11
-374.7316154747291
 21
-453.13083319066072
 31
0.0
  0
LINE
  8
DETAIL
  6
CONTINUOUS
 62
     5
 10
-374.7316154747291
 20
-453.13083319066072
 30
0.0
 11
-374.73351997760409
 21
-453.13449831560052
 31
0.0
  0
LINE
  8
DETAIL
  6
CONTINUOUS
 62
     5
 10
-374.73351997760409
 20
-453.13449831560052
 30
0.0
 11
-374.73537859816219
 21
-453.13812903350521
 31
0.0
  0
LINE
  8
DETAIL
  6
CONTINUOUS
 62
     5
 10
-374.73537859816219
 20
-453.13812903350521
 30
0.0
 11
-374.7372011590453
 21
-453.1417431323548
 31
0.0
  0
LINE
  8
DETAIL
  6
CONTINUOUS
 62
     5
 10
-374.7372011590453
 20
-453.1417431323548
 30
0.0
 11
-374.73899748289551
 21
-453.14535840013002
 31
0.0
  0
LINE
  8
DETAIL
  6
CONTINUOUS
 62
     5
 10
-374.73899748289551
 20
-453.14535840013002
 30
0.0
 11
-374.74077739235508
 21
-453.14899262481049
 31
0.0
  0
LINE
  8
DETAIL
  6
CONTINUOUS
 62
     5
 10
-374.74077739235508
 20
-453.14899262481049
 30
0.0
 11
-374.7425485775575
 21
-453.15265985900209
 31
0.0
  0
LINE
  8
DETAIL
  6
CONTINUOUS
 62
     5
 10
-374.7425485775575
 20
-453.15265985900209
 30
0.0
 11
-374.74431019860549
 21
-453.15635921381198
 31
0.0
  0
LINE
  8
DETAIL
  6
CONTINUOUS
 62
     5
 10
-374.74431019860549
 20
-453.15635921381198
 30
0.0
 11
-374.74605928309347
 21
-453.1600860649728
 31
0.0
  0
LINE
  8
DETAIL
  6
CONTINUOUS
 62
     5
 10
-374.74605928309347
 20
-453.1600860649728
 30
0.0
 11
-374.74779285861518
 21
-453.16383578821791
 31
0.0
  0
LINE
  8
DETAIL
  6
CONTINUOUS
 62
     5
 10
-374.74779285861518
 20
-453.16383578821791
 30
0.0
 11
-374.74950795276533
 21
-453.16760375927879
 31
0.0
  0
LINE
  8
DETAIL
  6
CONTINUOUS
 62
     5
 10
-374.74950795276533
 20
-453.16760375927879
 30
0.0
 11
-374.75120159313769
 21
-453.17138535388898
 31
0.0
  0
LINE
  8
DETAIL
  6
CONTINUOUS
 62
     5
 10
-374.75120159313769
 20
-453.17138535388898
 30
0.0
 11
-374.75287080732687
 21
-453.17517594778121
 31
0.0
  0
LINE
  8
DETAIL
  6
CONTINUOUS
 62
     5
 10
-374.75287080732687
 20
-453.17517594778121
 30
0.0
 11
-374.75451315475169
 21
-453.17897175321588
 31
0.0
  0
LINE
  8
DETAIL
  6
CONTINUOUS
 62
     5
 10
-374.75451315475169
 20
-453.17897175321588
 30
0.0
 11
-374.7561283221371
 21
-453.18277232856673
 31
0.0
  0
LINE
  8
DETAIL
  6
CONTINUOUS
 62
     5
 10
-374.7561283221371
 20
-453.18277232856673
 30
0.0
 11
-374.75771652803292
 21
-453.18657806873381
 31
0.0
  0
LINE
  8
DETAIL
  6
CONTINUOUS
 62
     5
 10
-374.75771652803292
 20
-453.18657806873381
 30
0.0
 11
-374.75927799098918
 21
-453.19038936861779
 31
0.0
  0
LINE
  8
DETAIL
  6
CONTINUOUS
 62
     5
 10
-374.75927799098918
 20
-453.19038936861779
 30
0.0
 11
-374.76081292955593
 21
-453.19420662311933
 31
0.0
  0
LINE
  8
DETAIL
  6
CONTINUOUS
 62
     5
 10
-374.76081292955593
 20
-453.19420662311933
 30
0.0
 11
-374.76232156228298
 21
-453.19803022713859
 31
0.0
  0
LINE
  8
DETAIL
  6
CONTINUOUS
 62
     5
 10
-374.76232156228298
 20
-453.19803022713859
 30
0.0
 11
-374.76380410772072
 21
-453.20186057557657
 31
0.0
  0
LINE
  8
DETAIL
  6
CONTINUOUS
 62
     5
 10
-374.76380410772072
 20
-453.20186057557657
 30
0.0
 11
-374.7652607896232
 21
-453.20569845259757
 31
0.0
  0
LINE
  8
DETAIL
  6
CONTINUOUS
 62
     5
 10
-374.7652607896232
 20
-453.20569845259757
 30
0.0
 11
-374.76669185256083
 21
-453.20954619941438
 31
0.0
  0
LINE
  8
DETAIL
  6
CONTINUOUS
 62
     5
 10
-374.76669185256083
 20
-453.20954619941438
 30
0.0
 11
-374.76809754630813
 21
-453.21340654650339
 31
0.0
  0
LINE
  8
DETAIL
  6
CONTINUOUS
 62
     5
 10
-374.76809754630813
 20
-453.21340654650339
 30
0.0
 11
-374.76947812063958
 21
-453.21728222434098
 31
0.0
  0
LINE
  8
DETAIL
  6
CONTINUOUS
 62
     5
 10
-374.76947812063958
 20
-453.21728222434098
 30
0.0
 11
-374.77083382532987
 21
-453.22117596340422
 31
0.0
  0
LINE
  8
DETAIL
  6
CONTINUOUS
 62
     5
 10
-374.77083382532987
 20
-453.22117596340422
 30
0.0
 11
-374.77216491015361
 21
-453.22509049416982
 31
0.0
  0
LINE
  8
DETAIL
  6
CONTINUOUS
 62
     5
 10
-374.77216491015361
 20
-453.22509049416982
 30
0.0
 11
-374.77347162488491
 21
-453.22902854711378
 31
0.0
  0
LINE
  8
DETAIL
  6
CONTINUOUS
 62
     5
 10
-374.77347162488491
 20
-453.22902854711378
 30
0.0
 11
-374.77475366665698
 21
-453.23299045912938
 31
0.0
  0
LINE
  8
DETAIL
  6
CONTINUOUS
 62
     5
 10
-374.77475366665698
 20
-453.23299045912938
 30
0.0
 11
-374.77600852203182
 21
-453.23696699280589
 31
0.0
  0
LINE
  8
DETAIL
  6
CONTINUOUS
 62
     5
 10
-374.77600852203182
 20
-453.23696699280589
 30
0.0
 11
-374.77723312492998
 21
-453.24094651714859
 31
0.0
  0
LINE
  8
DETAIL
  6
CONTINUOUS
 62
     5
 10
-374.77723312492998
 20
-453.24094651714859
 30
0.0
 11
-374.77842440927202
 21
-453.24491740116338
 31
0.0
  0
LINE
  8
DETAIL
  6
CONTINUOUS
 62
     5
 10
-374.77842440927202
 20
-453.24491740116338
 30
0.0
 11
-374.7795793089781
 21
-453.24886801385611
 31
0.0
  0
LINE
  8
DETAIL
  6
CONTINUOUS
 62
     5
 10
-374.7795793089781
 20
-453.24886801385611
 30
0.0
 11
-374.78069475796877
 21
-453.25278672423252
 31
0.0
  0
LINE
  8
DETAIL
  6
CONTINUOUS
 62
     5
 10
-374.78069475796877
 20
-453.25278672423252
 30
0.0
 11
-374.78176769016409
 21
-453.25666190129778
 31
0.0
  0
LINE
  8
DETAIL
  6
CONTINUOUS
 62
     5
 10
-374.78176769016409
 20
-453.25666190129778
 30
0.0
 11
-374.78279611002722
 21
-453.26048571652183
 31
0.0
  0
LINE
  8
DETAIL
  6
CONTINUOUS
 62
     5
 10
-374.78279611002722
 20
-453.26048571652183
 30
0.0
 11
-374.78378230418872
 21
-453.26426555124698
 31
0.0
  0
LINE
  8
DETAIL
  6
CONTINUOUS
 62
     5
 10
-374.78378230418872
 20
-453.26426555124698
 30
0.0
 11
-374.7847296298205
 21
-453.26801258927992
 31
0.0
  0
LINE
  8
DETAIL
  6
CONTINUOUS
 62
     5
 10
-374.7847296298205
 20
-453.26801258927992
 30
0.0
 11
-374.7856414440962
 21
-453.27173801442598
 31
0.0
  0
LINE
  8
DETAIL
  6
CONTINUOUS
 62
     5
 10
-374.7856414440962
 20
-453.27173801442598
 30
0.0
 11
-374.78652110418761
 21
-453.27545301049201
 31
0.0
  0
LINE
  8
DETAIL
  6
CONTINUOUS
 62
     5
 10
-374.78652110418761
 20
-453.27545301049201
 30
0.0
 11
-374.78737196726797
 21
-453.27916876128393
 31
0.0
  0
LINE
  8
DETAIL
  6
CONTINUOUS
 62
     5
 10
-374.78737196726797
 20
-453.27916876128393
 30
0.0
 11
-374.78819739050959
 21
-453.28289645060801
 31
0.0
  0
LINE
  8
DETAIL
  6
CONTINUOUS
 62
     5
 10
-374.78819739050959
 20
-453.28289645060801
 30
0.0
 11
-374.7889999738743
 21
-453.28664484441123
 31
0.0
  0
LINE
  8
DETAIL
  6
CONTINUOUS
 62
     5
 10
-374.7889999738743
 20
-453.28664484441123
 30
0.0
 11
-374.78977928847758
 21
-453.29041303719453
 31
0.0
  0
LINE
  8
DETAIL
  6
CONTINUOUS
 62
     5
 10
-374.78977928847758
 20
-453.29041303719453
 30
0.0
 11
-374.79053414822351
 21
-453.29419770559849
 31
0.0
  0
LINE
  8
DETAIL
  6
CONTINUOUS
 62
     5
 10
-374.79053414822351
 20
-453.29419770559849
 30
0.0
 11
-374.7912633670162
 21
-453.29799552626491
 31
0.0
  0
LINE
  8
DETAIL
  6
CONTINUOUS
 62
     5
 10
-374.7912633670162
 20
-453.29799552626491
 30
0.0
 11
-374.79196575876023
 21
-453.30180317583461
 31
0.0
  0
LINE
  8
DETAIL
  6
CONTINUOUS
 62
     5
 10
-374.79196575876023
 20
-453.30180317583461
 30
0.0
 11
-374.79264013735968
 21
-453.30561733094868
 31
0.0
  0
LINE
  8
DETAIL
  6
CONTINUOUS
 62
     5
 10
-374.79264013735968
 20
-453.30561733094868
 30
0.0
 11
-374.79328531671848
 21
-453.30943466824829
 31
0.0
  0
LINE
  8
DETAIL
  6
CONTINUOUS
 62
     5
 10
-374.79328531671848
 20
-453.30943466824829
 30
0.0
 11
-374.7939003938352
 21
-453.31325251445082
 31
0.0
  0
LINE
  8
DETAIL
  6
CONTINUOUS
 62
     5
 10
-374.7939003938352
 20
-453.31325251445082
 30
0.0
 11
-374.79448559807861
 21
-453.31707079657861
 31
0.0
  0
LINE
  8
DETAIL
  6
CONTINUOUS
 62
     5
 10
-374.79448559807861
 20
-453.31707079657861
 30
0.0
 11
-374.79504144191202
 21
-453.32089009173029
 31
0.0
  0
LINE
  8
DETAIL
  6
CONTINUOUS
 62
     5
 10
-374.79504144191202
 20
-453.32089009173029
 30
0.0
 11
-374.79556843779778
 21
-453.32471097700432
 31
0.0
  0
LINE
  8
DETAIL
  6
CONTINUOUS
 62
     5
 10
-374.79556843779778
 20
-453.32471097700432
 30
0.0
 11
-374.79606709819927
 21
-453.32853402949968
 31
0.0
  0
LINE
  8
DETAIL
  6
CONTINUOUS
 62
     5
 10
-374.79606709819927
 20
-453.32853402949968
 30
0.0
 11
-374.79653793557958
 21
-453.33235982631447
 31
0.0
  0
LINE
  8
DETAIL
  6
CONTINUOUS
 62
     5
 10
-374.79653793557958
 20
-453.33235982631447
 30
0.0
 11
-374.79698146240122
 21
-453.33618894454781
 31
0.0
  0
LINE
  8
DETAIL
  6
CONTINUOUS
 62
     5
 10
-374.79698146240122
 20
-453.33618894454781
 30
0.0
 11
-374.79739781596572
 21
-453.34002177885372
 31
0.0
  0
LINE
  8
DETAIL
  6
CONTINUOUS
 62
     5
 10
-374.79739781596572
 20
-453.34002177885372
 30
0.0
 11
-374.79778563293172
 21
-453.34385799411052
 31
0.0
  0
LINE
  8
DETAIL
  6
CONTINUOUS
 62
     5
 10
-374.79778563293172
 20
-453.34385799411052
 30
0.0
 11
-374.79814317479531
 21
-453.34769707275251
 31
0.0
  0
LINE
  8
DETAIL
  6
CONTINUOUS
 62
     5
 10
-374.79814317479531
 20
-453.34769707275251
 30
0.0
 11
-374.79846870305391
 21
-453.35153849721343
 31
0.0
  0
LINE
  8
DETAIL
  6
CONTINUOUS
 62
     5
 10
-374.79846870305391
 20
-453.35153849721343
 30
0.0
 11
-374.79876047920379
 21
-453.35538174992718
 31
0.0
  0
LINE
  8
DETAIL
  6
CONTINUOUS
 62
     5
 10
-374.79876047920379
 20
-453.35538174992718
 30
0.0
 11
-374.79901676474151
 21
-453.35922631332801
 31
0.0
  0
LINE
  8
DETAIL
  6
CONTINUOUS
 62
     5
 10
-374.79901676474151
 20
-453.35922631332801
 30
0.0
 11
-374.79923582116407
 21
-453.36307166984977
 31
0.0
  0
LINE
  8
DETAIL
  6
CONTINUOUS
 62
     5
 10
-374.79923582116407
 20
-453.36307166984977
 30
0.0
 11
-374.79941712751952
 21
-453.36691738162523
 31
0.0
  0
LINE
  8
DETAIL
  6
CONTINUOUS
 62
     5
 10
-374.79941712751952
 20
-453.36691738162523
 30
0.0
 11
-374.79956503305903
 21
-453.37076332959123
 31
0.0
  0
LINE
  8
DETAIL
  6
CONTINUOUS
 62
     5
 10
-374.79956503305903
 20
-453.37076332959123
 30
0.0
 11
-374.79968510458639
 21
-453.37460947438188
 31
0.0
  0
LINE
  8
DETAIL
  6
CONTINUOUS
 62
     5
 10
-374.79968510458639
 20
-453.37460947438188
 30
0.0
 11
-374.79978290890273
 21
-453.37845577663302
 31
0.0
  0
LINE
  8
DETAIL
  6
CONTINUOUS
 62
     5
 10
-374.79978290890273
 20
-453.37845577663302
 30
0.0
 11
-374.79986401281138
 21
-453.38230219697942
 31
0.0
  0
LINE
  8
DETAIL
  6
CONTINUOUS
 62
     5
 10
-374.79986401281138
 20
-453.38230219697942
 30
0.0
 11
-374.79993398311512
 21
-453.38614869605613
 31
0.0
  0
LINE
  8
DETAIL
  6
CONTINUOUS
 62
     5
 10
-374.79993398311512
 20
-453.38614869605613
 30
0.0
 11
-374.7999983866157
 21
-453.3899952344982
 31
0.0
  0
LINE
  8
DETAIL
  6
CONTINUOUS
 62
     5
 10
374.00000161338357
 20
-452.18999523449747
 30
0.0
 11
374.00298787396599
 21
-452.19379746526329
 31
0.0
  0
LINE
  8
DETAIL
  6
CONTINUOUS
 62
     5
 10
374.00298787396599
 20
-452.19379746526329
 30
0.0
 11
374.005974083213
 21
-452.19759972459292
 31
0.0
  0
LINE
  8
DETAIL
  6
CONTINUOUS
 62
     5
 10
374.005974083213
 20
-452.19759972459292
 30
0.0
 11
374.0089601897871
 21
-452.20140204105041
 31
0.0
  0
LINE
  8
DETAIL
  6
CONTINUOUS
 62
     5
 10
374.0089601897871
 20
-452.20140204105041
 30
0.0
 11
374.01194614235328
 21
-452.20520444319823
 31
0.0
  0
LINE
  8
DETAIL
  6
CONTINUOUS
 62
     5
 10
374.01194614235328
 20
-452.20520444319823
 30
0.0
 11
374.01493188957562
 21
-452.20900695960017
 31
0.0
  0
LINE
  8
DETAIL
  6
CONTINUOUS
 62
     5
 10
374.01493188957562
 20
-452.20900695960017
 30
0.0
 11
374.01791738011798
 21
-452.2128096188203
 31
0.0
  0
LINE
  8
DETAIL
  6
CONTINUOUS
 62
     5
 10
374.01791738011798
 20
-452.2128096188203
 30
0.0
 11
374.02090256264461
 21
-452.21661244942152
 31
0.0
  0
LINE
  8
DETAIL
  6
CONTINUOUS
 62
     5
 10
374.02090256264461
 20
-452.21661244942152
 30
0.0
 11
374.02388739136501
 21
-452.22041548737587
 31
0.0
  0
LINE
  8
DETAIL
  6
CONTINUOUS
 62
     5
 10
374.02388739136501
 20
-452.22041548737587
 30
0.0
 11
374.02687184267512
 21
-452.22421879828789
 31
0.0
  0
LINE
  8
DETAIL
  6
CONTINUOUS
 62
     5
 10
374.02687184267512
 20
-452.22421879828789
 30
0.0
 11
374.02985589851642
 21
-452.22802245516868
 31
0.0
  0
LINE
  8
DETAIL
  6
CONTINUOUS
 62
     5
 10
374.02985589851642
 20
-452.22802245516868
 30
0.0
 11
374.03283954083139
 21
-452.23182653102958
 31
0.0
  0
LINE
  8
DETAIL
  6
CONTINUOUS
 62
     5
 10
374.03283954083139
 20
-452.23182653102958
 30
0.0
 11
374.03582275156123
 21
-452.23563109888232
 31
0.0
  0
LINE
  8
DETAIL
  6
CONTINUOUS
 62
     5
 10
374.03582275156123
 20
-452.23563109888232
 30
0.0
 11
374.03880551264768
 21
-452.23943623173841
 31
0.0
  0
LINE
  8
DETAIL
  6
CONTINUOUS
 62
     5
 10
374.03880551264768
 20
-452.23943623173841
 30
0.0
 11
374.04178780603252
 21
-452.24324200260889
 31
0.0
  0
LINE
  8
DETAIL
  6
CONTINUOUS
 62
     5
 10
374.04178780603252
 20
-452.24324200260889
 30
0.0
 11
374.04476959096968
 21
-452.24704845502077
 31
0.0
  0
LINE
  8
DETAIL
  6
CONTINUOUS
 62
     5
 10
374.04476959096968
 20
-452.24704845502077
 30
0.0
 11
374.04775073596562
 21
-452.25085551454191
 31
0.0
  0
LINE
  8
DETAIL
  6
CONTINUOUS
 62
     5
 10
374.04775073596562
 20
-452.25085551454191
 30
0.0
 11
374.05073108683791
 21
-452.2546630772548
 31
0.0
  0
LINE
  8
DETAIL
  6
CONTINUOUS
 62
     5
 10
374.05073108683791
 20
-452.2546630772548
 30
0.0
 11
374.05371048940469
 21
-452.25847103924252
 31
0.0
  0
LINE
  8
DETAIL
  6
CONTINUOUS
 62
     5
 10
374.05371048940469
 20
-452.25847103924252
 30
0.0
 11
374.05668878948472
 21
-452.26227929658808
 31
0.0
  0
LINE
  8
DETAIL
  6
CONTINUOUS
 62
     5
 10
374.05668878948472
 20
-452.26227929658808
 30
0.0
 11
374.05966583289592
 21
-452.26608774537408
 31
0.0
  0
LINE
  8
DETAIL
  6
CONTINUOUS
 62
     5
 10
374.05966583289592
 20
-452.26608774537408
 30
0.0
 11
374.06264146545618
 21
-452.26989628168297
 31
0.0
  0
LINE
  8
DETAIL
  6
CONTINUOUS
 62
     5
 10
374.06264146545618
 20
-452.26989628168297
 30
0.0
 11
374.0656156181858
 21
-452.27370491214128
 31
0.0
  0
LINE
  8
DETAIL
  6
CONTINUOUS
 62
     5
 10
374.0656156181858
 20
-452.27370491214128
 30
0.0
 11
374.06858856291768
 21
-452.27751408555707
 31
0.0
  0
LINE
  8
DETAIL
  6
CONTINUOUS
 62
     5
 10
374.06858856291768
 20
-452.27751408555707
 30
0.0
 11
374.07156065668642
 21
-452.28132436128072
 31
0.0
  0
LINE
  8
DETAIL
  6
CONTINUOUS
 62
     5
 10
374.07156065668642
 20
-452.28132436128072
 30
0.0
 11
374.07453225652722
 21
-452.28513629866211
 31
0.0
  0
LINE
  8
DETAIL
  6
CONTINUOUS
 62
     5
 10
374.07453225652722
 20
-452.28513629866211
 30
0.0
 11
374.07750371947401
 21
-452.28895045705212
 31
0.0
  0
LINE
  8
DETAIL
  6
CONTINUOUS
 62
     5
 10
374.07750371947401
 20
-452.28895045705212
 30
0.0
 11
374.08047540256172
 21
-452.29276739580149
 31
0.0
  0
LINE
  8
DETAIL
  6
CONTINUOUS
 62
     5
 10
374.08047540256172
 20
-452.29276739580149
 30
0.0
 11
374.08344766282522
 21
-452.29658767426008
 31
0.0
  0
LINE
  8
DETAIL
  6
CONTINUOUS
 62
     5
 10
374.08344766282522
 20
-452.29658767426008
 30
0.0
 11
374.08642053917538
 21
-452.30041143908852
 31
0.0
  0
LINE
  8
DETAIL
  6
CONTINUOUS
 62
     5
 10
374.08642053917538
 20
-452.30041143908852
 30
0.0
 11
374.0893927980278
 21
-452.30423718618567
 31
0.0
  0
LINE
  8
DETAIL
  6
CONTINUOUS
 62
     5
 10
374.0893927980278
 20
-452.30423718618567
 30
0.0
 11
374.09236288767488
 21
-452.3080629987586
 31
0.0
  0
LINE
  8
DETAIL
  6
CONTINUOUS
 62
     5
 10
374.09236288767488
 20
-452.3080629987586
 30
0.0
 11
374.0953292564086
 21
-452.31188696001527
 31
0.0
  0
LINE
  8
DETAIL
  6
CONTINUOUS
 62
     5
 10
374.0953292564086
 20
-452.31188696001527
 30
0.0
 11
374.09829035252102
 21
-452.3157071531632
 31
0.0
  0
LINE
  8
DETAIL
  6
CONTINUOUS
 62
     5
 10
374.09829035252102
 20
-452.3157071531632
 30
0.0
 11
374.1012446243044
 21
-452.31952166141008
 31
0.0
  0
LINE
  8
DETAIL
  6
CONTINUOUS
 62
     5
 10
374.1012446243044
 20
-452.31952166141008
 30
0.0
 11
374.10419052005091
 21
-452.32332856796347
 31
0.0
  0
LINE
  8
DETAIL
  6
CONTINUOUS
 62
     5
 10
374.10419052005091
 20
-452.32332856796347
 30
0.0
 11
374.10712698859328
 21
-452.32712660368333
 31
0.0
  0
LINE
  8
DETAIL
  6
CONTINUOUS
 62
     5
 10
374.10712698859328
 20
-452.32712660368333
 30
0.0
 11
374.11005498093658
 21
-452.3309170900493
 31
0.0
  0
LINE
  8
DETAIL
  6
CONTINUOUS
 62
     5
 10
374.11005498093658
 20
-452.3309170900493
 30
0.0
 11
374.11297594862663
 21
-452.33470199619251
 31
0.0
  0
LINE
  8
DETAIL
  6
CONTINUOUS
 62
     5
 10
374.11297594862663
 20
-452.33470199619251
 30
0.0
 11
374.1158913432082
 21
-452.33848329124493
 31
0.0
  0
LINE
  8
DETAIL
  6
CONTINUOUS
 62
     5
 10
374.1158913432082
 20
-452.33848329124493
 30
0.0
 11
374.11880261622809
 21
-452.34226294433807
 31
0.0
  0
LINE
  8
DETAIL
  6
CONTINUOUS
 62
     5
 10
374.11880261622809
 20
-452.34226294433807
 30
0.0
 11
374.12171121923171
 21
-452.34604292460398
 31
0.0
  0
LINE
  8
DETAIL
  6
CONTINUOUS
 62
     5
 10
374.12171121923171
 20
-452.34604292460398
 30
0.0
 11
374.12461860376521
 21
-452.3498252011741
 31
0.0
  0
LINE
  8
DETAIL
  6
CONTINUOUS
 62
     5
 10
374.12461860376521
 20
-452.3498252011741
 30
0.0
 11
374.12752591235579
 21
-452.35361134592972
 31
0.0
  0
LINE
  8
DETAIL
  6
CONTINUOUS
 62
     5
 10
374.12752591235579
 20
-452.35361134592972
 30
0.0
 11
374.13043305146078
 21
-452.35740134177132
 31
0.0
  0
LINE
  8
DETAIL
  6
CONTINUOUS
 62
     5
 10
374.13043305146078
 20
-452.35740134177132
 30
0.0
 11
374.13333961851959
 21
-452.36119477434909
 31
0.0
  0
LINE
  8
DETAIL
  6
CONTINUOUS
 62
     5
 10
374.13333961851959
 20
-452.36119477434909
 30
0.0
 11
374.13624521097063
 21
-452.36499122931372
 31
0.0
  0
LINE
  8
DETAIL
  6
CONTINUOUS
 62
     5
 10
374.13624521097063
 20
-452.36499122931372
 30
0.0
 11
374.13914942625343
 21
-452.36879029231568
 31
0.0
  0
LINE
  8
DETAIL
  6
CONTINUOUS
 62
     5
 10
374.13914942625343
 20
-452.36879029231568
 30
0.0
 11
374.14205186180737
 21
-452.37259154900551
 31
0.0
  0
LINE
  8
DETAIL
  6
CONTINUOUS
 62
     5
 10
374.14205186180737
 20
-452.37259154900551
 30
0.0
 11
374.14495211507159
 21
-452.37639458503332
 31
0.0
  0
LINE
  8
DETAIL
  6
CONTINUOUS
 62
     5
 10
374.14495211507159
 20
-452.37639458503332
 30
0.0
 11
374.14784982702349
 21
-452.38019903891359
 31
0.0
  0
LINE
  8
DETAIL
  6
CONTINUOUS
 62
     5
 10
374.14784982702349
 20
-452.38019903891359
 30
0.0
 11
374.15074481279589
 21
-452.38400476061662
 31
0.0
  0
LINE
  8
DETAIL
  6
CONTINUOUS
 62
     5
 10
374.15074481279589
 20
-452.38400476061662
 30
0.0
 11
374.15363693105883
 21
-452.38781165297468
 31
0.0
  0
LINE
  8
DETAIL
  6
CONTINUOUS
 62
     5
 10
374.15363693105883
 20
-452.38781165297468
 30
0.0
 11
374.1565260404841
 21
-452.39161961882178
 31
0.0
  0
LINE
  8
DETAIL
  6
CONTINUOUS
 62
     5
 10
374.1565260404841
 20
-452.39161961882178
 30
0.0
 11
374.1594119997435
 21
-452.39542856099058
 31
0.0
  0
LINE
  8
DETAIL
  6
CONTINUOUS
 62
     5
 10
374.1594119997435
 20
-452.39542856099058
 30
0.0
 11
374.1622946675061
 21
-452.39923838231482
 31
0.0
  0
LINE
  8
DETAIL
  6
CONTINUOUS
 62
     5
 10
374.1622946675061
 20
-452.39923838231482
 30
0.0
 11
374.16517390244462
 21
-452.40304898562681
 31
0.0
  0
LINE
  8
DETAIL
  6
CONTINUOUS
 62
     5
 10
374.16517390244462
 20
-452.40304898562681
 30
0.0
 11
374.16804969809249
 21
-452.40686045954942
 31
0.0
  0
LINE
  8
DETAIL
  6
CONTINUOUS
 62
     5
 10
374.16804969809249
 20
-452.40686045954942
 30
0.0
 11
374.17092258743702
 21
-452.41067363587757
 31
0.0
  0
LINE
  8
DETAIL
  6
CONTINUOUS
 62
     5
 10
374.17092258743702
 20
-452.41067363587757
 30
0.0
 11
374.17379323832762
 21
-452.41448953219458
 31
0.0
  0
LINE
  8
DETAIL
  6
CONTINUOUS
 62
     5
 10
374.17379323832762
 20
-452.41448953219458
 30
0.0
 11
374.1766623186154
 21
-452.41830916608359
 31
0.0
  0
LINE
  8
DETAIL
  6
CONTINUOUS
 62
     5
 10
374.1766623186154
 20
-452.41830916608359
 30
0.0
 11
374.17953049614971
 21
-452.42213355512808
 31
0.0
  0
LINE
  8
DETAIL
  6
CONTINUOUS
 62
     5
 10
374.17953049614971
 20
-452.42213355512808
 30
0.0
 11
374.18239843878058
 21
-452.42596371691047
 31
0.0
  0
LINE
  8
DETAIL
  6
CONTINUOUS
 62
     5
 10
374.18239843878058
 20
-452.42596371691047
 30
0.0
 11
374.18526681435827
 21
-452.42980066901509
 31
0.0
  0
LINE
  8
DETAIL
  6
CONTINUOUS
 62
     5
 10
374.18526681435827
 20
-452.42980066901509
 30
0.0
 11
374.18813570774267
 21
-452.43364463299372
 31
0.0
  0
LINE
  8
DETAIL
  6
CONTINUOUS
 62
     5
 10
374.18813570774267
 20
-452.43364463299372
 30
0.0
 11
374.19100287182567
 21
-452.43749264627741
 31
0.0
  0
LINE
  8
DETAIL
  6
CONTINUOUS
 62
     5
 10
374.19100287182567
 20
-452.43749264627741
 30
0.0
 11
374.19386547650993
 21
-452.44134095026652
 31
0.0
  0
LINE
  8
DETAIL
  6
CONTINUOUS
 62
     5
 10
374.19386547650993
 20
-452.44134095026652
 30
0.0
 11
374.19672069169661
 21
-452.44518578636121
 31
0.0
  0
LINE
  8
DETAIL
  6
CONTINUOUS
 62
     5
 10
374.19672069169661
 20
-452.44518578636121
 30
0.0
 11
374.19956568728782
 21
-452.44902339596212
 31
0.0
  0
LINE
  8
DETAIL
  6
CONTINUOUS
 62
     5
 10
374.19956568728782
 20
-452.44902339596212
 30
0.0
 11
374.20239763318568
 21
-452.45285002046973
 31
0.0
  0
LINE
  8
DETAIL
  6
CONTINUOUS
 62
     5
 10
374.20239763318568
 20
-452.45285002046973
 30
0.0
 11
374.20521369929162
 21
-452.45666190128401
 31
0.0
  0
LINE
  8
DETAIL
  6
CONTINUOUS
 62
     5
 10
374.20521369929162
 20
-452.45666190128401
 30
0.0
 11
374.20801198400568
 21
-452.46045653890837
 31
0.0
  0
LINE
  8
DETAIL
  6
CONTINUOUS
 62
     5
 10
374.20801198400568
 20
-452.46045653890837
 30
0.0
 11
374.21079429972178
 21
-452.46423647025722
 31
0.0
  0
LINE
  8
DETAIL
  6
CONTINUOUS
 62
     5
 10
374.21079429972178
 20
-452.46423647025722
 30
0.0
 11
374.21356338733182
 21
-452.46800549134821
 31
0.0
  0
LINE
  8
DETAIL
  6
CONTINUOUS
 62
     5
 10
374.21356338733182
 20
-452.46800549134821
 30
0.0
 11
374.2163219877275
 21
-452.47176739819838
 31
0.0
  0
LINE
  8
DETAIL
  6
CONTINUOUS
 62
     5
 10
374.2163219877275
 20
-452.47176739819838
 30
0.0
 11
374.21907284180003
 21
-452.4755259868258
 31
0.0
  0
LINE
  8
DETAIL
  6
CONTINUOUS
 62
     5
 10
374.21907284180003
 20
-452.4755259868258
 30
0.0
 11
374.22181869044198
 21
-452.47928505324802
 31
0.0
  0
LINE
  8
DETAIL
  6
CONTINUOUS
 62
     5
 10
374.22181869044198
 20
-452.47928505324802
 30
0.0
 11
374.22456227454501
 21
-452.48304839348202
 31
0.0
  0
LINE
  8
DETAIL
  6
CONTINUOUS
 62
     5
 10
374.22456227454501
 20
-452.48304839348202
 30
0.0
 11
374.22730575447889
 21
-452.48681902474561
 31
0.0
  0
LINE
  8
DETAIL
  6
CONTINUOUS
 62
     5
 10
374.22730575447889
 20
-452.48681902474561
 30
0.0
 11
374.23004896852848
 21
-452.4905968490641
 31
0.0
  0
LINE
  8
DETAIL
  6
CONTINUOUS
 62
     5
 10
374.23004896852848
 20
-452.4905968490641
 30
0.0
 11
374.23279117445691
 21
-452.49438098966232
 31
0.0
  0
LINE
  8
DETAIL
  6
CONTINUOUS
 62
     5
 10
374.23279117445691
 20
-452.49438098966232
 30
0.0
 11
374.23553163002589
 21
-452.49817056976502
 31
0.0
  0
LINE
  8
DETAIL
  6
CONTINUOUS
 62
     5
 10
374.23553163002589
 20
-452.49817056976502
 30
0.0
 11
374.23826959299907
 21
-452.50196471259699
 31
0.0
  0
LINE
  8
DETAIL
  6
CONTINUOUS
 62
     5
 10
374.23826959299907
 20
-452.50196471259699
 30
0.0
 11
374.24100432114028
 21
-452.50576254138321
 31
0.0
  0
LINE
  8
DETAIL
  6
CONTINUOUS
 62
     5
 10
374.24100432114028
 20
-452.50576254138321
 30
0.0
 11
374.24373507221122
 21
-452.50956317934822
 31
0.0
  0
LINE
  8
DETAIL
  6
CONTINUOUS
 62
     5
 10
374.24373507221122
 20
-452.50956317934822
 30
0.0
 11
374.24646120820222
 21
-452.51336588207528
 31
0.0
  0
LINE
  8
DETAIL
  6
CONTINUOUS
 62
     5
 10
374.24646120820222
 20
-452.51336588207528
 30
0.0
 11
374.24918250801062
 21
-452.5171704345903
 31
0.0
  0
LINE
  8
DETAIL
  6
CONTINUOUS
 62
     5
 10
374.24918250801062
 20
-452.5171704345903
 30
0.0
 11
374.25189885475902
 21
-452.52097675427808
 31
0.0
  0
LINE
  8
DETAIL
  6
CONTINUOUS
 62
     5
 10
374.25189885475902
 20
-452.52097675427808
 30
0.0
 11
374.25461013157292
 21
-452.52478475852263
 31
0.0
  0
LINE
  8
DETAIL
  6
CONTINUOUS
 62
     5
 10
374.25461013157292
 20
-452.52478475852263
 30
0.0
 11
374.25731622157451
 21
-452.52859436470919
 31
0.0
  0
LINE
  8
DETAIL
  6
CONTINUOUS
 62
     5
 10
374.25731622157451
 20
-452.52859436470919
 30
0.0
 11
374.26001700788862
 21
-452.53240549022212
 31
0.0
  0
LINE
  8
DETAIL
  6
CONTINUOUS
 62
     5
 10
374.26001700788862
 20
-452.53240549022212
 30
0.0
 11
374.26271237363841
 21
-452.5362180524462
 31
0.0
  0
LINE
  8
DETAIL
  6
CONTINUOUS
 62
     5
 10
374.26271237363841
 20
-452.5362180524462
 30
0.0
 11
374.26540236556139
 21
-452.54003221812468
 31
0.0
  0
LINE
  8
DETAIL
  6
CONTINUOUS
 62
     5
 10
374.26540236556139
 20
-452.54003221812468
 30
0.0
 11
374.26808768485353
 21
-452.54384915143692
 31
0.0
  0
LINE
  8
DETAIL
  6
CONTINUOUS
 62
     5
 10
374.26808768485353
 20
-452.54384915143692
 30
0.0
 11
374.27076919632418
 21
-452.54767026592123
 31
0.0
  0
LINE
  8
DETAIL
  6
CONTINUOUS
 62
     5
 10
374.27076919632418
 20
-452.54767026592123
 30
0.0
 11
374.27344776478179
 21
-452.55149697511672
 31
0.0
  0
LINE
  8
DETAIL
  6
CONTINUOUS
 62
     5
 10
374.27344776478179
 20
-452.55149697511672
 30
0.0
 11
374.27612425503679
 21
-452.55533069256131
 31
0.0
  0
LINE
  8
DETAIL
  6
CONTINUOUS
 62
     5
 10
374.27612425503679
 20
-452.55533069256131
 30
0.0
 11
374.27879953189722
 21
-452.55917283179429
 31
0.0
  0
LINE
  8
DETAIL
  6
CONTINUOUS
 62
     5
 10
374.27879953189722
 20
-452.55917283179429
 30
0.0
 11
374.28147446017277
 21
-452.56302480635361
 31
0.0
  0
LINE
  8
DETAIL
  6
CONTINUOUS
 62
     5
 10
374.28147446017277
 20
-452.56302480635361
 30
0.0
 11
374.28414914598898
 21
-452.56688689998049
 31
0.0
  0
LINE
  8
DETAIL
  6
CONTINUOUS
 62
     5
 10
374.28414914598898
 20
-452.56688689998049
 30
0.0
 11
374.28682066073588
 21
-452.57075487723603
 31
0.0
  0
LINE
  8
DETAIL
  6
CONTINUOUS
 62
     5
 10
374.28682066073588
 20
-452.57075487723603
 30
0.0
 11
374.28948531712058
 21
-452.57462337288229
 31
0.0
  0
LINE
  8
DETAIL
  6
CONTINUOUS
 62
     5
 10
374.28948531712058
 20
-452.57462337288229
 30
0.0
 11
374.29213942784918
 21
-452.57848702168258
 31
0.0
  0
LINE
  8
DETAIL
  6
CONTINUOUS
 62
     5
 10
374.29213942784918
 20
-452.57848702168258
 30
0.0
 11
374.29477930562831
 21
-452.58234045839907
 31
0.0
  0
LINE
  8
DETAIL
  6
CONTINUOUS
 62
     5
 10
374.29477930562831
 20
-452.58234045839907
 30
0.0
 11
374.29740126316437
 21
-452.58617831779537
 31
0.0
  0
LINE
  8
DETAIL
  6
CONTINUOUS
 62
     5
 10
374.29740126316437
 20
-452.58617831779537
 30
0.0
 11
374.30000161316462
 21
-452.58999523463348
 31
0.0
  0
LINE
  8
DETAIL
  6
CONTINUOUS
 62
     5
 10
374.30000161316462
 20
-452.58999523463348
 30
0.0
 11
374.30257788554258
 21
-452.59378763446261
 31
0.0
  0
LINE
  8
DETAIL
  6
CONTINUOUS
 62
     5
 10
374.30257788554258
 20
-452.59378763446261
 30
0.0
 11
374.30513247903849
 21
-452.59755910596601
 31
0.0
  0
LINE
  8
DETAIL
  6
CONTINUOUS
 62
     5
 10
374.30513247903849
 20
-452.59755910596601
 30
0.0
 11
374.30766900960128
 21
-452.60131502861208
 31
0.0
  0
LINE
  8
DETAIL
  6
CONTINUOUS
 62
     5
 10
374.30766900960128
 20
-452.60131502861208
 30
0.0
 11
374.31019109317822
 21
-452.60506078187052
 31
0.0
  0
LINE
  8
DETAIL
  6
CONTINUOUS
 62
     5
 10
374.31019109317822
 20
-452.60506078187052
 30
0.0
 11
374.31270234571781
 21
-452.60880174520958
 31
0.0
  0
LINE
  8
DETAIL
  6
CONTINUOUS
 62
     5
 10
374.31270234571781
 20
-452.60880174520958
 30
0.0
 11
374.31520638316761
 21
-452.61254329809839
 31
0.0
  0
LINE
  8
DETAIL
  6
CONTINUOUS
 62
     5
 10
374.31520638316761
 20
-452.61254329809839
 30
0.0
 11
374.31770682147629
 21
-452.6162908200057
 31
0.0
  0
LINE
  8
DETAIL
  6
CONTINUOUS
 62
     5
 10
374.31770682147629
 20
-452.6162908200057
 30
0.0
 11
374.32020650983583
 21
-452.62004857971971
 31
0.0
  0
LINE
  8
DETAIL
  6
CONTINUOUS
 62
     5
 10
374.32020650983583
 20
-452.62004857971971
 30
0.0
 11
374.3227052304137
 21
-452.62381640329397
 31
0.0
  0
LINE
  8
DETAIL
  6
CONTINUOUS
 62
     5
 10
374.3227052304137
 20
-452.62381640329397
 30
0.0
 11
374.32520199862302
 21
-452.62759300610082
 31
0.0
  0
LINE
  8
DETAIL
  6
CONTINUOUS
 62
     5
 10
374.32520199862302
 20
-452.62759300610082
 30
0.0
 11
374.32769582987572
 21
-452.6313771035127
 31
0.0
  0
LINE
  8
DETAIL
  6
CONTINUOUS
 62
     5
 10
374.32769582987572
 20
-452.6313771035127
 30
0.0
 11
374.33018573958361
 21
-452.63516741090172
 31
0.0
  0
LINE
  8
DETAIL
  6
CONTINUOUS
 62
     5
 10
374.33018573958361
 20
-452.63516741090172
 30
0.0
 11
374.33267074315972
 21
-452.63896264364081
 31
0.0
  0
LINE
  8
DETAIL
  6
CONTINUOUS
 62
     5
 10
374.33267074315972
 20
-452.63896264364081
 30
0.0
 11
374.33514985601511
 21
-452.64276151710152
 31
0.0
  0
LINE
  8
DETAIL
  6
CONTINUOUS
 62
     5
 10
374.33514985601511
 20
-452.64276151710152
 30
0.0
 11
374.33762224383241
 21
-452.64656295100372
 31
0.0
  0
LINE
  8
DETAIL
  6
CONTINUOUS
 62
     5
 10
374.33762224383241
 20
-452.64656295100372
 30
0.0
 11
374.34008767337258
 21
-452.65036668247251
 31
0.0
  0
LINE
  8
DETAIL
  6
CONTINUOUS
 62
     5
 10
374.34008767337258
 20
-452.65036668247251
 30
0.0
 11
374.34254606166633
 21
-452.65417265297992
 31
0.0
  0
LINE
  8
DETAIL
  6
CONTINUOUS
 62
     5
 10
374.34254606166633
 20
-452.65417265297992
 30
0.0
 11
374.34499732574392
 21
-452.65798080399748
 31
0.0
  0
LINE
  8
DETAIL
  6
CONTINUOUS
 62
     5
 10
374.34499732574392
 20
-452.65798080399748
 30
0.0
 11
374.34744138263699
 21
-452.66179107699719
 31
0.0
  0
LINE
  8
DETAIL
  6
CONTINUOUS
 62
     5
 10
374.34744138263699
 20
-452.66179107699719
 30
0.0
 11
374.3498781493754
 21
-452.66560341345092
 31
0.0
  0
LINE
  8
DETAIL
  6
CONTINUOUS
 62
     5
 10
374.3498781493754
 20
-452.66560341345092
 30
0.0
 11
374.35230754299027
 21
-452.66941775483042
 31
0.0
  0
LINE
  8
DETAIL
  6
CONTINUOUS
 62
     5
 10
374.35230754299027
 20
-452.66941775483042
 30
0.0
 11
374.35472964618879
 21
-452.67323433589132
 31
0.0
  0
LINE
  8
DETAIL
  6
CONTINUOUS
 62
     5
 10
374.35472964618879
 20
-452.67323433589132
 30
0.0
 11
374.35714520438711
 21
-452.67705456452018
 31
0.0
  0
LINE
  8
DETAIL
  6
CONTINUOUS
 62
     5
 10
374.35714520438711
 20
-452.67705456452018
 30
0.0
 11
374.35955512867707
 21
-452.68088014188697
 31
0.0
  0
LINE
  8
DETAIL
  6
CONTINUOUS
 62
     5
 10
374.35955512867707
 20
-452.68088014188697
 30
0.0
 11
374.36196033015221
 21
-452.68471276916102
 31
0.0
  0
LINE
  8
DETAIL
  6
CONTINUOUS
 62
     5
 10
374.36196033015221
 20
-452.68471276916102
 30
0.0
 11
374.36436171990499
 21
-452.68855414751249
 31
0.0
  0
LINE
  8
DETAIL
  6
CONTINUOUS
 62
     5
 10
374.36436171990499
 20
-452.68855414751249
 30
0.0
 11
374.36676020902718
 21
-452.69240597811063
 31
0.0
  0
LINE
  8
DETAIL
  6
CONTINUOUS
 62
     5
 10
374.36676020902718
 20
-452.69240597811063
 30
0.0
 11
374.36915670861163
 21
-452.69626996212548
 31
0.0
  0
LINE
  8
DETAIL
  6
CONTINUOUS
 62
     5
 10
374.36915670861163
 20
-452.69626996212548
 30
0.0
 11
374.37155131677349
 21
-452.70014642324492
 31
0.0
  0
LINE
  8
DETAIL
  6
CONTINUOUS
 62
     5
 10
374.37155131677349
 20
-452.70014642324492
 30
0.0
 11
374.37394087971728
 21
-452.70403017523063
 31
0.0
  0
LINE
  8
DETAIL
  6
CONTINUOUS
 62
     5
 10
374.37394087971728
 20
-452.70403017523063
 30
0.0
 11
374.37632143066912
 21
-452.70791465436099
 31
0.0
  0
LINE
  8
DETAIL
  6
CONTINUOUS
 62
     5
 10
374.37632143066912
 20
-452.70791465436099
 30
0.0
 11
374.37868900285588
 21
-452.71179329691489
 31
0.0
  0
LINE
  8
DETAIL
  6
CONTINUOUS
 62
     5
 10
374.37868900285588
 20
-452.71179329691489
 30
0.0
 11
374.38103962950441
 21
-452.71565953917082
 31
0.0
  0
LINE
  8
DETAIL
  6
CONTINUOUS
 62
     5
 10
374.38103962950441
 20
-452.71565953917082
 30
0.0
 11
374.38336934384051
 21
-452.71950681740731
 31
0.0
  0
LINE
  8
DETAIL
  6
CONTINUOUS
 62
     5
 10
374.38336934384051
 20
-452.71950681740731
 30
0.0
 11
374.38567417909138
 21
-452.72332856790308
 31
0.0
  0
LINE
  8
DETAIL
  6
CONTINUOUS
 62
     5
 10
374.38567417909138
 20
-452.72332856790308
 30
0.0
 11
374.38795148284862
 21
-452.72712041241942
 31
0.0
  0
LINE
  8
DETAIL
  6
CONTINUOUS
 62
     5
 10
374.38795148284862
 20
-452.72712041241942
 30
0.0
 11
374.39020386016409
 21
-452.73088671464728
 31
0.0
  0
LINE
  8
DETAIL
  6
CONTINUOUS
 62
     5
 10
374.39020386016409
 20
-452.73088671464728
 30
0.0
 11
374.39243523045252
 21
-452.73463402375887
 31
0.0
  0
LINE
  8
DETAIL
  6
CONTINUOUS
 62
     5
 10
374.39243523045252
 20
-452.73463402375887
 30
0.0
 11
374.3946495131313
 21
-452.73836888892629
 31
0.0
  0
LINE
  8
DETAIL
  6
CONTINUOUS
 62
     5
 10
374.3946495131313
 20
-452.73836888892629
 30
0.0
 11
374.39685062761652
 21
-452.74209785932231
 31
0.0
  0
LINE
  8
DETAIL
  6
CONTINUOUS
 62
     5
 10
374.39685062761652
 20
-452.74209785932231
 30
0.0
 11
374.39904249332398
 21
-452.74582748411922
 31
0.0
  0
LINE
  8
DETAIL
  6
CONTINUOUS
 62
     5
 10
374.39904249332398
 20
-452.74582748411922
 30
0.0
 11
374.4012290296705
 21
-452.74956431248938
 31
0.0
  0
LINE
  8
DETAIL
  6
CONTINUOUS
 62
     5
 10
374.4012290296705
 20
-452.74956431248938
 30
0.0
 11
374.40341332184238
 21
-452.75331353554952
 31
0.0
  0
LINE
  8
DETAIL
  6
CONTINUOUS
 62
     5
 10
374.40341332184238
 20
-452.75331353554952
 30
0.0
 11
374.40559511810812
 21
-452.75707491217389
 31
0.0
  0
LINE
  8
DETAIL
  6
CONTINUOUS
 62
     5
 10
374.40559511810812
 20
-452.75707491217389
 30
0.0
 11
374.40777333250708
 21
-452.76084684318153
 31
0.0
  0
LINE
  8
DETAIL
  6
CONTINUOUS
 62
     5
 10
374.40777333250708
 20
-452.76084684318153
 30
0.0
 11
374.40994687907732
 21
-452.76462772939112
 31
0.0
  0
LINE
  8
DETAIL
  6
CONTINUOUS
 62
     5
 10
374.40994687907732
 20
-452.76462772939112
 30
0.0
 11
374.41211467185758
 21
-452.76841597162093
 31
0.0
  0
LINE
  8
DETAIL
  6
CONTINUOUS
 62
     5
 10
374.41211467185758
 20
-452.76841597162093
 30
0.0
 11
374.41427562488752
 21
-452.77220997069031
 31
0.0
  0
LINE
  8
DETAIL
  6
CONTINUOUS
 62
     5
 10
374.41427562488752
 20
-452.77220997069031
 30
0.0
 11
374.41642865220462
 21
-452.7760081274173
 31
0.0
  0
LINE
  8
DETAIL
  6
CONTINUOUS
 62
     5
 10
374.41642865220462
 20
-452.7760081274173
 30
0.0
 11
374.41857284148318
 21
-452.77980910528908
 31
0.0
  0
LINE
  8
DETAIL
  6
CONTINUOUS
 62
     5
 10
374.41857284148318
 20
-452.77980910528908
 30
0.0
 11
374.42070797493579
 21
-452.78361261847431
 31
0.0
  0
LINE
  8
DETAIL
  6
CONTINUOUS
 62
     5
 10
374.42070797493579
 20
-452.78361261847431
 30
0.0
 11
374.4228340084087
 21
-452.78741864380959
 31
0.0
  0
LINE
  8
DETAIL
  6
CONTINUOUS
 62
     5
 10
374.4228340084087
 20
-452.78741864380959
 30
0.0
 11
374.4249508977482
 21
-452.79122715813151
 31
0.0
  0
LINE
  8
DETAIL
  6
CONTINUOUS
 62
     5
 10
374.4249508977482
 20
-452.79122715813151
 30
0.0
 11
374.42705859880198
 21
-452.79503813827728
 31
0.0
  0
LINE
  8
DETAIL
  6
CONTINUOUS
 62
     5
 10
374.42705859880198
 20
-452.79503813827728
 30
0.0
 11
374.42915706741587
 21
-452.79885156108321
 31
0.0
  0
LINE
  8
DETAIL
  6
CONTINUOUS
 62
     5
 10
374.42915706741587
 20
-452.79885156108321
 30
0.0
 11
374.4312462594371
 21
-452.80266740338629
 31
0.0
  0
LINE
  8
DETAIL
  6
CONTINUOUS
 62
     5
 10
374.4312462594371
 20
-452.80266740338629
 30
0.0
 11
374.43332627040348
 21
-452.80648594940197
 31
0.0
  0
LINE
  8
DETAIL
  6
CONTINUOUS
 62
     5
 10
374.43332627040348
 20
-452.80648594940197
 30
0.0
 11
374.43539775461608
 21
-452.81030871286981
 31
0.0
  0
LINE
  8
DETAIL
  6
CONTINUOUS
 62
     5
 10
374.43539775461608
 20
-452.81030871286981
 30
0.0
 11
374.43746150606779
 21
-452.81413751490709
 31
0.0
  0
LINE
  8
DETAIL
  6
CONTINUOUS
 62
     5
 10
374.43746150606779
 20
-452.81413751490709
 30
0.0
 11
374.4395183187512
 21
-452.81797417663171
 31
0.0
  0
LINE
  8
DETAIL
  6
CONTINUOUS
 62
     5
 10
374.4395183187512
 20
-452.81797417663171
 30
0.0
 11
374.44156898665818
 21
-452.82182051916152
 31
0.0
  0
LINE
  8
DETAIL
  6
CONTINUOUS
 62
     5
 10
374.44156898665818
 20
-452.82182051916152
 30
0.0
 11
374.44361430378149
 21
-452.82567836361392
 31
0.0
  0
LINE
  8
DETAIL
  6
CONTINUOUS
 62
     5
 10
374.44361430378149
 20
-452.82567836361392
 30
0.0
 11
374.44565506411351
 21
-452.82954953110652
 31
0.0
  0
LINE
  8
DETAIL
  6
CONTINUOUS
 62
     5
 10
374.44565506411351
 20
-452.82954953110652
 30
0.0
 11
374.4476913292483
 21
-452.83343435056742
 31
0.0
  0
LINE
  8
DETAIL
  6
CONTINUOUS
 62
     5
 10
374.4476913292483
 20
-452.83343435056742
 30
0.0
 11
374.44972023118589
 21
-452.83732718216208
 31
0.0
  0
LINE
  8
DETAIL
  6
CONTINUOUS
 62
     5
 10
374.44972023118589
 20
-452.83732718216208
 30
0.0
 11
374.4517381695282
 21
-452.84122089386642
 31
0.0
  0
LINE
  8
DETAIL
  6
CONTINUOUS
 62
     5
 10
374.4517381695282
 20
-452.84122089386642
 30
0.0
 11
374.45374154387719
 21
-452.84510835365609
 31
0.0
  0
LINE
  8
DETAIL
  6
CONTINUOUS
 62
     5
 10
374.45374154387719
 20
-452.84510835365609
 30
0.0
 11
374.45572675383391
 21
-452.84898242950732
 31
0.0
  0
LINE
  8
DETAIL
  6
CONTINUOUS
 62
     5
 10
374.45572675383391
 20
-452.84898242950732
 30
0.0
 11
374.45769019900081
 21
-452.85283598939532
 31
0.0
  0
LINE
  8
DETAIL
  6
CONTINUOUS
 62
     5
 10
374.45769019900081
 20
-452.85283598939532
 30
0.0
 11
374.45962827897978
 21
-452.85666190129632
 31
0.0
  0
LINE
  8
DETAIL
  6
CONTINUOUS
 62
     5
 10
374.45962827897978
 20
-452.85666190129632
 30
0.0
 11
374.46153859016522
 21
-452.86045540318918
 31
0.0
  0
LINE
  8
DETAIL
  6
CONTINUOUS
 62
     5
 10
374.46153859016522
 20
-452.86045540318918
 30
0.0
 11
374.46342351613112
 21
-452.86422121306839
 31
0.0
  0
LINE
  8
DETAIL
  6
CONTINUOUS
 62
     5
 10
374.46342351613112
 20
-452.86422121306839
 30
0.0
 11
374.46528663724388
 21
-452.86796641893272
 31
0.0
  0
LINE
  8
DETAIL
  6
CONTINUOUS
 62
     5
 10
374.46528663724388
 20
-452.86796641893272
 30
0.0
 11
374.46713153387009
 21
-452.87169810878032
 31
0.0
  0
LINE
  8
DETAIL
  6
CONTINUOUS
 62
     5
 10
374.46713153387009
 20
-452.87169810878032
 30
0.0
 11
374.46896178637638
 21
-452.87542337061012
 31
0.0
  0
LINE
  8
DETAIL
  6
CONTINUOUS
 62
     5
 10
374.46896178637638
 20
-452.87542337061012
 30
0.0
 11
374.47078097512991
 21
-452.87914929242078
 31
0.0
  0
LINE
  8
DETAIL
  6
CONTINUOUS
 62
     5
 10
374.47078097512991
 20
-452.87914929242078
 30
0.0
 11
374.47259268049669
 21
-452.88288296221077
 31
0.0
  0
LINE
  8
DETAIL
  6
CONTINUOUS
 62
     5
 10
374.47259268049669
 20
-452.88288296221077
 30
0.0
 11
374.47439971605399
 21
-452.8866299918692
 31
0.0
  0
LINE
  8
DETAIL
  6
CONTINUOUS
 62
     5
 10
374.47439971605399
 20
-452.8866299918692
 30
0.0
 11
374.47620182820901
 21
-452.89039008884811
 31
0.0
  0
LINE
  8
DETAIL
  6
CONTINUOUS
 62
     5
 10
374.47620182820901
 20
-452.89039008884811
 30
0.0
 11
374.47799799658202
 21
-452.89416148448908
 31
0.0
  0
LINE
  8
DETAIL
  6
CONTINUOUS
 62
     5
 10
374.47799799658202
 20
-452.89416148448908
 30
0.0
 11
374.47978720079072
 21
-452.89794241013522
 31
0.0
  0
LINE
  8
DETAIL
  6
CONTINUOUS
 62
     5
 10
374.47978720079072
 20
-452.89794241013522
 30
0.0
 11
374.48156842045358
 21
-452.90173109712828
 31
0.0
  0
LINE
  8
DETAIL
  6
CONTINUOUS
 62
     5
 10
374.48156842045358
 20
-452.90173109712828
 30
0.0
 11
374.48334063518951
 21
-452.90552577681052
 31
0.0
  0
LINE
  8
DETAIL
  6
CONTINUOUS
 62
     5
 10
374.48334063518951
 20
-452.90552577681052
 30
0.0
 11
374.48510282461672
 21
-452.90932468052421
 31
0.0
  0
LINE
  8
DETAIL
  6
CONTINUOUS
 62
     5
 10
374.48510282461672
 20
-452.90932468052421
 30
0.0
 11
374.48685413714611
 21
-452.91312633841352
 31
0.0
  0
LINE
  8
DETAIL
  6
CONTINUOUS
 62
     5
 10
374.48685413714611
 20
-452.91312633841352
 30
0.0
 11
374.48859439635731
 21
-452.91693047583931
 31
0.0
  0
LINE
  8
DETAIL
  6
CONTINUOUS
 62
     5
 10
374.48859439635731
 20
-452.91693047583931
 30
0.0
 11
374.49032359462029
 21
-452.92073711696457
 31
0.0
  0
LINE
  8
DETAIL
  6
CONTINUOUS
 62
     5
 10
374.49032359462029
 20
-452.92073711696457
 30
0.0
 11
374.49204172430649
 21
-452.92454628595169
 31
0.0
  0
LINE
  8
DETAIL
  6
CONTINUOUS
 62
     5
 10
374.49204172430649
 20
-452.92454628595169
 30
0.0
 11
374.49374877778791
 21
-452.92835800696372
 31
0.0
  0
LINE
  8
DETAIL
  6
CONTINUOUS
 62
     5
 10
374.49374877778791
 20
-452.92835800696372
 30
0.0
 11
374.49544474743561
 21
-452.93217230416309
 31
0.0
  0
LINE
  8
DETAIL
  6
CONTINUOUS
 62
     5
 10
374.49544474743561
 20
-452.93217230416309
 30
0.0
 11
374.49712962561989
 21
-452.9359892017128
 31
0.0
  0
LINE
  8
DETAIL
  6
CONTINUOUS
 62
     5
 10
374.49712962561989
 20
-452.9359892017128
 30
0.0
 11
374.49880349633531
 21
-452.93980900466943
 31
0.0
  0
LINE
  8
DETAIL
  6
CONTINUOUS
 62
     5
 10
374.49880349633531
 20
-452.93980900466943
 30
0.0
 11
374.50046681006728
 21
-452.94363314167572
 31
0.0
  0
LINE
  8
DETAIL
  6
CONTINUOUS
 62
     5
 10
374.50046681006728
 20
-452.94363314167572
 30
0.0
 11
374.50212010892483
 21
-452.9474633222693
 31
0.0
  0
LINE
  8
DETAIL
  6
CONTINUOUS
 62
     5
 10
374.50212010892483
 20
-452.9474633222693
 30
0.0
 11
374.50376393501671
 21
-452.95130125598757
 31
0.0
  0
LINE
  8
DETAIL
  6
CONTINUOUS
 62
     5
 10
374.50376393501671
 20
-452.95130125598757
 30
0.0
 11
374.50539883045212
 21
-452.95514865236851
 31
0.0
  0
LINE
  8
DETAIL
  6
CONTINUOUS
 62
     5
 10
374.50539883045212
 20
-452.95514865236851
 30
0.0
 11
374.50702533733971
 21
-452.95900722094922
 31
0.0
  0
LINE
  8
DETAIL
  6
CONTINUOUS
 62
     5
 10
374.50702533733971
 20
-452.95900722094922
 30
0.0
 11
374.50864399778771
 21
-452.96287867126739
 31
0.0
  0
LINE
  8
DETAIL
  6
CONTINUOUS
 62
     5
 10
374.50864399778771
 20
-452.96287867126739
 30
0.0
 11
374.51025481862098
 21
-452.96676329047392
 31
0.0
  0
LINE
  8
DETAIL
  6
CONTINUOUS
 62
     5
 10
374.51025481862098
 20
-452.96676329047392
 30
0.0
 11
374.51185566552931
 21
-452.97065567617261
 31
0.0
  0
LINE
  8
DETAIL
  6
CONTINUOUS
 62
     5
 10
374.51185566552931
 20
-452.97065567617261
 30
0.0
 11
374.51344386891878
 21
-452.97454900358139
 31
0.0
  0
LINE
  8
DETAIL
  6
CONTINUOUS
 62
     5
 10
374.51344386891878
 20
-452.97454900358139
 30
0.0
 11
374.51501675919508
 21
-452.9784364479184
 31
0.0
  0
LINE
  8
DETAIL
  6
CONTINUOUS
 62
     5
 10
374.51501675919508
 20
-452.9784364479184
 30
0.0
 11
374.51657166676341
 21
-452.98231118440123
 31
0.0
  0
LINE
  8
DETAIL
  6
CONTINUOUS
 62
     5
 10
374.51657166676341
 20
-452.98231118440123
 30
0.0
 11
374.51810592203037
 21
-452.9861663882474
 31
0.0
  0
LINE
  8
DETAIL
  6
CONTINUOUS
 62
     5
 10
374.51810592203037
 20
-452.9861663882474
 30
0.0
 11
374.51961685540118
 21
-452.98999523467512
 31
0.0
  0
LINE
  8
DETAIL
  6
CONTINUOUS
 62
     5
 10
374.51961685540118
 20
-452.98999523467512
 30
0.0
 11
374.52110268798111
 21
-452.99379316218022
 31
0.0
  0
LINE
  8
DETAIL
  6
CONTINUOUS
 62
     5
 10
374.52110268798111
 20
-452.99379316218022
 30
0.0
 11
374.522565203667
 21
-452.99756466238159
 31
0.0
  0
LINE
  8
DETAIL
  6
CONTINUOUS
 62
     5
 10
374.522565203667
 20
-452.99756466238159
 30
0.0
 11
374.52400707705692
 21
-453.00131649017578
 31
0.0
  0
LINE
  8
DETAIL
  6
CONTINUOUS
 62
     5
 10
374.52400707705692
 20
-453.00131649017578
 30
0.0
 11
374.525430982746
 21
-453.00505540045958
 31
0.0
  0
LINE
  8
DETAIL
  6
CONTINUOUS
 62
     5
 10
374.525430982746
 20
-453.00505540045958
 30
0.0
 11
374.5268395953326
 21
-453.00878814812933
 31
0.0
  0
LINE
  8
DETAIL
  6
CONTINUOUS
 62
     5
 10
374.5268395953326
 20
-453.00878814812933
 30
0.0
 11
374.52823558941242
 21
-453.01252148808169
 31
0.0
  0
LINE
  8
DETAIL
  6
CONTINUOUS
 62
     5
 10
374.52823558941242
 20
-453.01252148808169
 30
0.0
 11
374.52962163958267
 21
-453.01626217521311
 31
0.0
  0
LINE
  8
DETAIL
  6
CONTINUOUS
 62
     5
 10
374.52962163958267
 20
-453.01626217521311
 30
0.0
 11
374.53099984222263
 21
-453.02001554963579
 31
0.0
  0
LINE
  8
DETAIL
  6
CONTINUOUS
 62
     5
 10
374.53099984222263
 20
-453.02001554963579
 30
0.0
 11
374.53236998083679
 21
-453.02378129233023
 31
0.0
  0
LINE
  8
DETAIL
  6
CONTINUOUS
 62
     5
 10
374.53236998083679
 20
-453.02378129233023
 30
0.0
 11
374.53373126071159
 21
-453.02755766949122
 31
0.0
  0
LINE
  8
DETAIL
  6
CONTINUOUS
 62
     5
 10
374.53373126071159
 20
-453.02755766949122
 30
0.0
 11
374.53508288713368
 21
-453.03134294731439
 31
0.0
  0
LINE
  8
DETAIL
  6
CONTINUOUS
 62
     5
 10
374.53508288713368
 20
-453.03134294731439
 30
0.0
 11
374.53642406538978
 21
-453.03513539199508
 31
0.0
  0
LINE
  8
DETAIL
  6
CONTINUOUS
 62
     5
 10
374.53642406538978
 20
-453.03513539199508
 30
0.0
 11
374.53775400076671
 21
-453.03893326972809
 31
0.0
  0
LINE
  8
DETAIL
  6
CONTINUOUS
 62
     5
 10
374.53775400076671
 20
-453.03893326972809
 30
0.0
 11
374.5390718985509
 21
-453.04273484670921
 31
0.0
  0
LINE
  8
DETAIL
  6
CONTINUOUS
 62
     5
 10
374.5390718985509
 20
-453.04273484670921
 30
0.0
 11
374.54037709937671
 21
-453.04653869104823
 31
0.0
  0
LINE
  8
DETAIL
  6
CONTINUOUS
 62
     5
 10
374.54037709937671
 20
-453.04653869104823
 30
0.0
 11
374.54166948526381
 21
-453.05034457850661
 31
0.0
  0
LINE
  8
DETAIL
  6
CONTINUOUS
 62
     5
 10
374.54166948526381
 20
-453.05034457850661
 30
0.0
 11
374.54294907357871
 21
-453.05415258675981
 31
0.0
  0
LINE
  8
DETAIL
  6
CONTINUOUS
 62
     5
 10
374.54294907357871
 20
-453.05415258675981
 30
0.0
 11
374.54421588168861
 21
-453.05796279348328
 31
0.0
  0
LINE
  8
DETAIL
  6
CONTINUOUS
 62
     5
 10
374.54421588168861
 20
-453.05796279348328
 30
0.0
 11
374.54546992696118
 21
-453.06177527635361
 31
0.0
  0
LINE
  8
DETAIL
  6
CONTINUOUS
 62
     5
 10
374.54546992696118
 20
-453.06177527635361
 30
0.0
 11
374.54671122676251
 21
-453.06559011304648
 31
0.0
  0
LINE
  8
DETAIL
  6
CONTINUOUS
 62
     5
 10
374.54671122676251
 20
-453.06559011304648
 30
0.0
 11
374.54793979845908
 21
-453.0694073812374
 31
0.0
  0
LINE
  8
DETAIL
  6
CONTINUOUS
 62
     5
 10
374.54793979845908
 20
-453.0694073812374
 30
0.0
 11
374.54915569625058
 21
-453.07322736573059
 31
0.0
  0
LINE
  8
DETAIL
  6
CONTINUOUS
 62
     5
 10
374.54915569625058
 20
-453.07322736573059
 30
0.0
 11
374.55035912166107
 21
-453.07705117985358
 31
0.0
  0
LINE
  8
DETAIL
  6
CONTINUOUS
 62
     5
 10
374.55035912166107
 20
-453.07705117985358
 30
0.0
 11
374.55155031304639
 21
-453.08088014406212
 31
0.0
  0
LINE
  8
DETAIL
  6
CONTINUOUS
 62
     5
 10
374.55155031304639
 20
-453.08088014406212
 30
0.0
 11
374.55272950876218
 21
-453.08471557881211
 31
0.0
  0
LINE
  8
DETAIL
  6
CONTINUOUS
 62
     5
 10
374.55272950876218
 20
-453.08471557881211
 30
0.0
 11
374.55389694716501
 21
-453.08855880455923
 31
0.0
  0
LINE
  8
DETAIL
  6
CONTINUOUS
 62
     5
 10
374.55389694716501
 20
-453.08855880455923
 30
0.0
 11
374.55505286661042
 21
-453.09241114175973
 31
0.0
  0
LINE
  8
DETAIL
  6
CONTINUOUS
 62
     5
 10
374.55505286661042
 20
-453.09241114175973
 30
0.0
 11
374.55619750545429
 21
-453.09627391086912
 31
0.0
  0
LINE
  8
DETAIL
  6
CONTINUOUS
 62
     5
 10
374.55619750545429
 20
-453.09627391086912
 30
0.0
 11
374.5573308193807
 21
-453.1001473019104
 31
0.0
  0
LINE
  8
DETAIL
  6
CONTINUOUS
 62
     5
 10
374.5573308193807
 20
-453.1001473019104
 30
0.0
 11
374.55845163338108
 21
-453.10402698317171
 31
0.0
  0
LINE
  8
DETAIL
  6
CONTINUOUS
 62
     5
 10
374.55845163338108
 20
-453.10402698317171
 30
0.0
 11
374.55955848977601
 21
-453.10790749250742
 31
0.0
  0
LINE
  8
DETAIL
  6
CONTINUOUS
 62
     5
 10
374.55955848977601
 20
-453.10790749250742
 30
0.0
 11
374.56064993088421
 21
-453.11178336777238
 31
0.0
  0
LINE
  8
DETAIL
  6
CONTINUOUS
 62
     5
 10
374.56064993088421
 20
-453.11178336777238
 30
0.0
 11
374.56172449902618
 21
-453.11564914682077
 31
0.0
  0
LINE
  8
DETAIL
  6
CONTINUOUS
 62
     5
 10
374.56172449902618
 20
-453.11564914682077
 30
0.0
 11
374.56278073652169
 21
-453.11949936750727
 31
0.0
  0
LINE
  8
DETAIL
  6
CONTINUOUS
 62
     5
 10
374.56278073652169
 20
-453.11949936750727
 30
0.0
 11
374.56381718568991
 21
-453.12332856768631
 31
0.0
  0
LINE
  8
DETAIL
  6
CONTINUOUS
 62
     5
 10
374.56381718568991
 20
-453.12332856768631
 30
0.0
 11
374.5648328779921
 21
-453.12713309214968
 31
0.0
  0
LINE
  8
DETAIL
  6
CONTINUOUS
 62
     5
 10
374.5648328779921
 20
-453.12713309214968
 30
0.0
 11
374.56582880145288
 21
-453.13091651343842
 31
0.0
  0
LINE
  8
DETAIL
  6
CONTINUOUS
 62
     5
 10
374.56582880145288
 20
-453.13091651343842
 30
0.0
 11
374.56680643323938
 21
-453.1346842110305
 31
0.0
  0
LINE
  8
DETAIL
  6
CONTINUOUS
 62
     5
 10
374.56680643323938
 20
-453.1346842110305
 30
0.0
 11
374.56776725051708
 21
-453.13844156440427
 31
0.0
  0
LINE
  8
DETAIL
  6
CONTINUOUS
 62
     5
 10
374.56776725051708
 20
-453.13844156440427
 30
0.0
 11
374.56871273045272
 21
-453.1421939530378
 31
0.0
  0
LINE
  8
DETAIL
  6
CONTINUOUS
 62
     5
 10
374.56871273045272
 20
-453.1421939530378
 30
0.0
 11
374.569644350212
 21
-453.14594675640922
 31
0.0
  0
LINE
  8
DETAIL
  6
CONTINUOUS
 62
     5
 10
374.569644350212
 20
-453.14594675640922
 30
0.0
 11
374.57056358696173
 21
-453.14970535399698
 31
0.0
  0
LINE
  8
DETAIL
  6
CONTINUOUS
 62
     5
 10
374.57056358696173
 20
-453.14970535399698
 30
0.0
 11
374.57147159399119
 21
-453.15347398956692
 31
0.0
  0
LINE
  8
DETAIL
  6
CONTINUOUS
 62
     5
 10
374.57147159399119
 20
-453.15347398956692
 30
0.0
 11
374.57236822908908
 21
-453.15725236401948
 31
0.0
  0
LINE
  8
DETAIL
  6
CONTINUOUS
 62
     5
 10
374.57236822908908
 20
-453.15725236401948
 30
0.0
 11
374.57325302616619
 21
-453.16103904254442
 31
0.0
  0
LINE
  8
DETAIL
  6
CONTINUOUS
 62
     5
 10
374.57325302616619
 20
-453.16103904254442
 30
0.0
 11
374.57412551913421
 21
-453.16483259033072
 31
0.0
  0
LINE
  8
DETAIL
  6
CONTINUOUS
 62
     5
 10
374.57412551913421
 20
-453.16483259033072
 30
0.0
 11
374.57498524190532
 21
-453.16863157256762
 31
0.0
  0
LINE
  8
DETAIL
  6
CONTINUOUS
 62
     5
 10
374.57498524190532
 20
-453.16863157256762
 30
0.0
 11
374.57583172839082
 21
-453.17243455444458
 31
0.0
  0
LINE
  8
DETAIL
  6
CONTINUOUS
 62
     5
 10
374.57583172839082
 20
-453.17243455444458
 30
0.0
 11
374.57666451250219
 21
-453.17624010115111
 31
0.0
  0
LINE
  8
DETAIL
  6
CONTINUOUS
 62
     5
 10
374.57666451250219
 20
-453.17624010115111
 30
0.0
 11
374.57748320967272
 21
-453.18004703900971
 31
0.0
  0
LINE
  8
DETAIL
  6
CONTINUOUS
 62
     5
 10
374.57748320967272
 20
-453.18004703900971
 30
0.0
 11
374.57828776142293
 21
-453.1838552388856
 31
0.0
  0
LINE
  8
DETAIL
  6
CONTINUOUS
 62
     5
 10
374.57828776142293
 20
-453.1838552388856
 30
0.0
 11
374.57907819079543
 21
-453.18766483277761
 31
0.0
  0
LINE
  8
DETAIL
  6
CONTINUOUS
 62
     5
 10
374.57907819079543
 20
-453.18766483277761
 30
0.0
 11
374.57985452083182
 21
-453.19147595268441
 31
0.0
  0
LINE
  8
DETAIL
  6
CONTINUOUS
 62
     5
 10
374.57985452083182
 20
-453.19147595268441
 30
0.0
 11
374.58061677457499
 21
-453.19528873060472
 31
0.0
  0
LINE
  8
DETAIL
  6
CONTINUOUS
 62
     5
 10
374.58061677457499
 20
-453.19528873060472
 30
0.0
 11
374.58136497506712
 21
-453.19910329853712
 31
0.0
  0
LINE
  8
DETAIL
  6
CONTINUOUS
 62
     5
 10
374.58136497506712
 20
-453.19910329853712
 30
0.0
 11
374.58209914534928
 21
-453.20291978848041
 31
0.0
  0
LINE
  8
DETAIL
  6
CONTINUOUS
 62
     5
 10
374.58209914534928
 20
-453.20291978848041
 30
0.0
 11
374.58281930625338
 21
-453.20673842360799
 31
0.0
  0
LINE
  8
DETAIL
  6
CONTINUOUS
 62
     5
 10
374.58281930625338
 20
-453.20673842360799
 30
0.0
 11
374.58352546976579
 21
-453.21055979179391
 31
0.0
  0
LINE
  8
DETAIL
  6
CONTINUOUS
 62
     5
 10
374.58352546976579
 20
-453.21055979179391
 30
0.0
 11
374.58421764565952
 21
-453.21438457208802
 31
0.0
  0
LINE
  8
DETAIL
  6
CONTINUOUS
 62
     5
 10
374.58421764565952
 20
-453.21438457208802
 30
0.0
 11
374.58489584370949
 21
-453.21821344353879
 31
0.0
  0
LINE
  8
DETAIL
  6
CONTINUOUS
 62
     5
 10
374.58489584370949
 20
-453.21821344353879
 30
0.0
 11
374.58556007369037
 21
-453.22204708519621
 31
0.0
  0
LINE
  8
DETAIL
  6
CONTINUOUS
 62
     5
 10
374.58556007369037
 20
-453.22204708519621
 30
0.0
 11
374.58621034537691
 21
-453.22588617610938
 31
0.0
  0
LINE
  8
DETAIL
  6
CONTINUOUS
 62
     5
 10
374.58621034537691
 20
-453.22588617610938
 30
0.0
 11
374.58684666854242
 21
-453.22973139532769
 31
0.0
  0
LINE
  8
DETAIL
  6
CONTINUOUS
 62
     5
 10
374.58684666854242
 20
-453.22973139532769
 30
0.0
 11
374.58746898028488
 21
-453.2335827960668
 31
0.0
  0
LINE
  8
DETAIL
  6
CONTINUOUS
 62
     5
 10
374.58746898028488
 20
-453.2335827960668
 30
0.0
 11
374.58807692699702
 21
-453.23743792819801
 31
0.0
  0
LINE
  8
DETAIL
  6
CONTINUOUS
 62
     5
 10
374.58807692699702
 20
-453.23743792819801
 30
0.0
 11
374.58867008239298
 21
-453.24129371575827
 31
0.0
  0
LINE
  8
DETAIL
  6
CONTINUOUS
 62
     5
 10
374.58867008239298
 20
-453.24129371575827
 30
0.0
 11
374.58924802018868
 21
-453.2451470827848
 31
0.0
  0
LINE
  8
DETAIL
  6
CONTINUOUS
 62
     5
 10
374.58924802018868
 20
-453.2451470827848
 30
0.0
 11
374.58981031409797
 21
-453.24899495331442
 31
0.0
  0
LINE
  8
DETAIL
  6
CONTINUOUS
 62
     5
 10
374.58981031409797
 20
-453.24899495331442
 30
0.0
 11
374.59035653783673
 21
-453.25283425138468
 31
0.0
  0
LINE
  8
DETAIL
  6
CONTINUOUS
 62
     5
 10
374.59035653783673
 20
-453.25283425138468
 30
0.0
 11
374.59088626511948
 21
-453.2566619010322
 31
0.0
  0
LINE
  8
DETAIL
  6
CONTINUOUS
 62
     5
 10
374.59088626511948
 20
-453.2566619010322
 30
0.0
 11
374.59139921629412
 21
-453.26047583518431
 31
0.0
  0
LINE
  8
DETAIL
  6
CONTINUOUS
 62
     5
 10
374.59139921629412
 20
-453.26047583518431
 30
0.0
 11
374.59189569823678
 21
-453.26427802231677
 31
0.0
  0
LINE
  8
DETAIL
  6
CONTINUOUS
 62
     5
 10
374.59189569823678
 20
-453.26427802231677
 30
0.0
 11
374.59237616445631
 21
-453.26807143979539
 31
0.0
  0
LINE
  8
DETAIL
  6
CONTINUOUS
 62
     5
 10
374.59237616445631
 20
-453.26807143979539
 30
0.0
 11
374.59284106845962
 21
-453.27185906498562
 31
0.0
  0
LINE
  8
DETAIL
  6
CONTINUOUS
 62
     5
 10
374.59284106845962
 20
-453.27185906498562
 30
0.0
 11
374.59329086375652
 21
-453.27564387525291
 31
0.0
  0
LINE
  8
DETAIL
  6
CONTINUOUS
 62
     5
 10
374.59329086375652
 20
-453.27564387525291
 30
0.0
 11
374.59372600385501
 21
-453.27942884796289
 31
0.0
  0
LINE
  8
DETAIL
  6
CONTINUOUS
 62
     5
 10
374.59372600385501
 20
-453.27942884796289
 30
0.0
 11
374.59414694226331
 21
-453.28321696048079
 31
0.0
  0
LINE
  8
DETAIL
  6
CONTINUOUS
 62
     5
 10
374.59414694226331
 20
-453.28321696048079
 30
0.0
 11
374.59455402367121
 21
-453.28701054656011
 31
0.0
  0
LINE
  8
DETAIL
  6
CONTINUOUS
 62
     5
 10
374.59455402367121
 20
-453.28701054656011
 30
0.0
 11
374.59494715749503
 21
-453.29080936551321
 31
0.0
  0
LINE
  8
DETAIL
  6
CONTINUOUS
 62
     5
 10
374.59494715749503
 20
-453.29080936551321
 30
0.0
 11
374.59532614433101
 21
-453.29461253304038
 31
0.0
  0
LINE
  8
DETAIL
  6
CONTINUOUS
 62
     5
 10
374.59532614433101
 20
-453.29461253304038
 30
0.0
 11
374.59569078477722
 21
-453.29841916484162
 31
0.0
  0
LINE
  8
DETAIL
  6
CONTINUOUS
 62
     5
 10
374.59569078477722
 20
-453.29841916484162
 30
0.0
 11
374.5960408794308
 21
-453.30222837661631
 31
0.0
  0
LINE
  8
DETAIL
  6
CONTINUOUS
 62
     5
 10
374.5960408794308
 20
-453.30222837661631
 30
0.0
 11
374.5963762288884
 21
-453.30603928406481
 31
0.0
  0
LINE
  8
DETAIL
  6
CONTINUOUS
 62
     5
 10
374.5963762288884
 20
-453.30603928406481
 30
0.0
 11
374.59669663374831
 21
-453.30985100288672
 31
0.0
  0
LINE
  8
DETAIL
  6
CONTINUOUS
 62
     5
 10
374.59669663374831
 20
-453.30985100288672
 30
0.0
 11
374.59700196239743
 21
-453.31366282189202
 31
0.0
  0
LINE
  8
DETAIL
  6
CONTINUOUS
 62
     5
 10
374.59700196239743
 20
-453.31366282189202
 30
0.0
 11
374.59729235438908
 21
-453.31747472233661
 31
0.0
  0
LINE
  8
DETAIL
  6
CONTINUOUS
 62
     5
 10
374.59729235438908
 20
-453.31747472233661
 30
0.0
 11
374.5975680170659
 21
-453.32128685858493
 31
0.0
  0
LINE
  8
DETAIL
  6
CONTINUOUS
 62
     5
 10
374.5975680170659
 20
-453.32128685858493
 30
0.0
 11
374.59782915777032
 21
-453.3250993850022
 31
0.0
  0
LINE
  8
DETAIL
  6
CONTINUOUS
 62
     5
 10
374.59782915777032
 20
-453.3250993850022
 30
0.0
 11
374.59807598384759
 21
-453.32891245595329
 31
0.0
  0
LINE
  8
DETAIL
  6
CONTINUOUS
 62
     5
 10
374.59807598384759
 20
-453.32891245595329
 30
0.0
 11
374.59830870263892
 21
-453.33272622580262
 31
0.0
  0
LINE
  8
DETAIL
  6
CONTINUOUS
 62
     5
 10
374.59830870263892
 20
-453.33272622580262
 30
0.0
 11
374.59852752148799
 21
-453.33654084891532
 31
0.0
  0
LINE
  8
DETAIL
  6
CONTINUOUS
 62
     5
 10
374.59852752148799
 20
-453.33654084891532
 30
0.0
 11
374.5987324853927
 21
-453.34035643082228
 31
0.0
  0
LINE
  8
DETAIL
  6
CONTINUOUS
 62
     5
 10
374.5987324853927
 20
-453.34035643082228
 30
0.0
 11
374.59892298996868
 21
-453.34417288172881
 31
0.0
  0
LINE
  8
DETAIL
  6
CONTINUOUS
 62
     5
 10
374.59892298996868
 20
-453.34417288172881
 30
0.0
 11
374.59909826848752
 21
-453.34799006300523
 31
0.0
  0
LINE
  8
DETAIL
  6
CONTINUOUS
 62
     5
 10
374.59909826848752
 20
-453.34799006300523
 30
0.0
 11
374.59925755421858
 21
-453.35180783602277
 31
0.0
  0
LINE
  8
DETAIL
  6
CONTINUOUS
 62
     5
 10
374.59925755421858
 20
-453.35180783602277
 30
0.0
 11
374.59940008043299
 21
-453.35562606215171
 31
0.0
  0
LINE
  8
DETAIL
  6
CONTINUOUS
 62
     5
 10
374.59940008043299
 20
-453.35562606215171
 30
0.0
 11
374.59952508040169
 21
-453.35944460276352
 31
0.0
  0
LINE
  8
DETAIL
  6
CONTINUOUS
 62
     5
 10
374.59952508040169
 20
-453.35944460276352
 30
0.0
 11
374.59963178739417
 21
-453.36326331922828
 31
0.0
  0
LINE
  8
DETAIL
  6
CONTINUOUS
 62
     5
 10
374.59963178739417
 20
-453.36326331922828
 30
0.0
 11
374.59972001627369
 21
-453.36708209513688
 31
0.0
  0
LINE
  8
DETAIL
  6
CONTINUOUS
 62
     5
 10
374.59972001627369
 20
-453.36708209513688
 30
0.0
 11
374.59979190826289
 21
-453.37090090295129
 31
0.0
  0
LINE
  8
DETAIL
  6
CONTINUOUS
 62
     5
 10
374.59979190826289
 20
-453.37090090295129
 30
0.0
 11
374.59985018617681
 21
-453.37471973735433
 31
0.0
  0
LINE
  8
DETAIL
  6
CONTINUOUS
 62
     5
 10
374.59985018617681
 20
-453.37471973735433
 30
0.0
 11
374.5998975728312
 21
-453.37853859302783
 31
0.0
  0
LINE
  8
DETAIL
  6
CONTINUOUS
 62
     5
 10
374.5998975728312
 20
-453.37853859302783
 30
0.0
 11
374.59993679104042
 21
-453.38235746465438
 31
0.0
  0
LINE
  8
DETAIL
  6
CONTINUOUS
 62
     5
 10
374.59993679104042
 20
-453.38235746465438
 30
0.0
 11
374.59997056361948
 21
-453.38617634691718
 31
0.0
  0
LINE
  8
DETAIL
  6
CONTINUOUS
 62
     5
 10
374.59997056361948
 20
-453.38617634691718
 30
0.0
 11
374.60000161338388
 21
-453.3899952344982
 31
0.0
  0
LINE
  8
DETAIL
  6
CONTINUOUS
 62
     5
 10
-373.59999838661679
 20
-452.18999523449747
 30
0.0
 11
-373.60298464719881
 21
-452.19379746526329
 31
0.0
  0
LINE
  8
DETAIL
  6
CONTINUOUS
 62
     5
 10
-373.60298464719881
 20
-452.19379746526329
 30
0.0
 11
-373.60597085644548
 21
-452.19759972459292
 31
0.0
  0
LINE
  8
DETAIL
  6
CONTINUOUS
 62
     5
 10
-373.60597085644548
 20
-452.19759972459292
 30
0.0
 11
-373.60895696301958
 21
-452.20140204105041
 31
0.0
  0
LINE
  8
DETAIL
  6
CONTINUOUS
 62
     5
 10
-373.60895696301958
 20
-452.20140204105041
 30
0.0
 11
-373.61194291558633
 21
-452.20520444319823
 31
0.0
  0
LINE
  8
DETAIL
  6
CONTINUOUS
 62
     5
 10
-373.61194291558633
 20
-452.20520444319823
 30
0.0
 11
-373.61492866280861
 21
-452.20900695960017
 31
0.0
  0
LINE
  8
DETAIL
  6
CONTINUOUS
 62
     5
 10
-373.61492866280861
 20
-452.20900695960017
 30
0.0
 11
-373.61791415335068
 21
-452.2128096188203
 31
0.0
  0
LINE
  8
DETAIL
  6
CONTINUOUS
 62
     5
 10
-373.61791415335068
 20
-452.2128096188203
 30
0.0
 11
-373.62089933587691
 21
-452.21661244942152
 31
0.0
  0
LINE
  8
DETAIL
  6
CONTINUOUS
 62
     5
 10
-373.62089933587691
 20
-452.21661244942152
 30
0.0
 11
-373.62388416459771
 21
-452.22041548737587
 31
0.0
  0
LINE
  8
DETAIL
  6
CONTINUOUS
 62
     5
 10
-373.62388416459771
 20
-452.22041548737587
 30
0.0
 11
-373.6268686159076
 21
-452.22421879828789
 31
0.0
  0
LINE
  8
DETAIL
  6
CONTINUOUS
 62
     5
 10
-373.6268686159076
 20
-452.22421879828789
 30
0.0
 11
-373.6298526717494
 21
-452.22802245516868
 31
0.0
  0
LINE
  8
DETAIL
  6
CONTINUOUS
 62
     5
 10
-373.6298526717494
 20
-452.22802245516868
 30
0.0
 11
-373.63283631406398
 21
-452.23182653102958
 31
0.0
  0
LINE
  8
DETAIL
  6
CONTINUOUS
 62
     5
 10
-373.63283631406398
 20
-452.23182653102958
 30
0.0
 11
-373.63581952479348
 21
-452.23563109888232
 31
0.0
  0
LINE
  8
DETAIL
  6
CONTINUOUS
 62
     5
 10
-373.63581952479348
 20
-452.23563109888232
 30
0.0
 11
-373.63880228587959
 21
-452.23943623173841
 31
0.0
  0
LINE
  8
DETAIL
  6
CONTINUOUS
 62
     5
 10
-373.63880228587959
 20
-452.23943623173841
 30
0.0
 11
-373.64178457926391
 21
-452.24324200260889
 31
0.0
  0
LINE
  8
DETAIL
  6
CONTINUOUS
 62
     5
 10
-373.64178457926391
 20
-452.24324200260889
 30
0.0
 11
-373.64476636420181
 21
-452.24704845502077
 31
0.0
  0
LINE
  8
DETAIL
  6
CONTINUOUS
 62
     5
 10
-373.64476636420181
 20
-452.24704845502077
 30
0.0
 11
-373.64774750919793
 21
-452.25085551454191
 31
0.0
  0
LINE
  8
DETAIL
  6
CONTINUOUS
 62
     5
 10
-373.64774750919793
 20
-452.25085551454191
 30
0.0
 11
-373.65072786007022
 21
-452.2546630772548
 31
0.0
  0
LINE
  8
DETAIL
  6
CONTINUOUS
 62
     5
 10
-373.65072786007022
 20
-452.2546630772548
 30
0.0
 11
-373.65370726263751
 21
-452.25847103924252
 31
0.0
  0
LINE
  8
DETAIL
  6
CONTINUOUS
 62
     5
 10
-373.65370726263751
 20
-452.25847103924252
 30
0.0
 11
-373.65668556271748
 21
-452.26227929658808
 31
0.0
  0
LINE
  8
DETAIL
  6
CONTINUOUS
 62
     5
 10
-373.65668556271748
 20
-452.26227929658808
 30
0.0
 11
-373.65966260612822
 21
-452.26608774537408
 31
0.0
  0
LINE
  8
DETAIL
  6
CONTINUOUS
 62
     5
 10
-373.65966260612822
 20
-452.26608774537408
 30
0.0
 11
-373.66263823868849
 21
-452.26989628168297
 31
0.0
  0
LINE
  8
DETAIL
  6
CONTINUOUS
 62
     5
 10
-373.66263823868849
 20
-452.26989628168297
 30
0.0
 11
-373.66561239141919
 21
-452.27370491214128
 31
0.0
  0
LINE
  8
DETAIL
  6
CONTINUOUS
 62
     5
 10
-373.66561239141919
 20
-452.27370491214128
 30
0.0
 11
-373.66858533615158
 21
-452.27751408555707
 31
0.0
  0
LINE
  8
DETAIL
  6
CONTINUOUS
 62
     5
 10
-373.66858533615158
 20
-452.27751408555707
 30
0.0
 11
-373.67155742992082
 21
-452.28132436128072
 31
0.0
  0
LINE
  8
DETAIL
  6
CONTINUOUS
 62
     5
 10
-373.67155742992082
 20
-452.28132436128072
 30
0.0
 11
-373.67452902976129
 21
-452.28513629866211
 31
0.0
  0
LINE
  8
DETAIL
  6
CONTINUOUS
 62
     5
 10
-373.67452902976129
 20
-452.28513629866211
 30
0.0
 11
-373.67750049270808
 21
-452.28895045705212
 31
0.0
  0
LINE
  8
DETAIL
  6
CONTINUOUS
 62
     5
 10
-373.67750049270808
 20
-452.28895045705212
 30
0.0
 11
-373.68047217579579
 21
-452.29276739580149
 31
0.0
  0
LINE
  8
DETAIL
  6
CONTINUOUS
 62
     5
 10
-373.68047217579579
 20
-452.29276739580149
 30
0.0
 11
-373.68344443605929
 21
-452.29658767426008
 31
0.0
  0
LINE
  8
DETAIL
  6
CONTINUOUS
 62
     5
 10
-373.68344443605929
 20
-452.29658767426008
 30
0.0
 11
-373.68641731240928
 21
-452.30041143908852
 31
0.0
  0
LINE
  8
DETAIL
  6
CONTINUOUS
 62
     5
 10
-373.68641731240928
 20
-452.30041143908852
 30
0.0
 11
-373.68938957126193
 21
-452.30423718618567
 31
0.0
  0
LINE
  8
DETAIL
  6
CONTINUOUS
 62
     5
 10
-373.68938957126193
 20
-452.30423718618567
 30
0.0
 11
-373.69235966090901
 21
-452.3080629987586
 31
0.0
  0
LINE
  8
DETAIL
  6
CONTINUOUS
 62
     5
 10
-373.69235966090901
 20
-452.3080629987586
 30
0.0
 11
-373.6953260296425
 21
-452.31188696001527
 31
0.0
  0
LINE
  8
DETAIL
  6
CONTINUOUS
 62
     5
 10
-373.6953260296425
 20
-452.31188696001527
 30
0.0
 11
-373.69828712575492
 21
-452.3157071531632
 31
0.0
  0
LINE
  8
DETAIL
  6
CONTINUOUS
 62
     5
 10
-373.69828712575492
 20
-452.3157071531632
 30
0.0
 11
-373.70124139753761
 21
-452.31952166141008
 31
0.0
  0
LINE
  8
DETAIL
  6
CONTINUOUS
 62
     5
 10
-373.70124139753761
 20
-452.31952166141008
 30
0.0
 11
-373.70418729328321
 21
-452.32332856796347
 31
0.0
  0
LINE
  8
DETAIL
  6
CONTINUOUS
 62
     5
 10
-373.70418729328321
 20
-452.32332856796347
 30
0.0
 11
-373.7071237618261
 21
-452.32712660368333
 31
0.0
  0
LINE
  8
DETAIL
  6
CONTINUOUS
 62
     5
 10
-373.7071237618261
 20
-452.32712660368333
 30
0.0
 11
-373.71005175416963
 21
-452.3309170900493
 31
0.0
  0
LINE
  8
DETAIL
  6
CONTINUOUS
 62
     5
 10
-373.71005175416963
 20
-452.3309170900493
 30
0.0
 11
-373.71297272185939
 21
-452.33470199619251
 31
0.0
  0
LINE
  8
DETAIL
  6
CONTINUOUS
 62
     5
 10
-373.71297272185939
 20
-452.33470199619251
 30
0.0
 11
-373.71588811644142
 21
-452.33848329124493
 31
0.0
  0
LINE
  8
DETAIL
  6
CONTINUOUS
 62
     5
 10
-373.71588811644142
 20
-452.33848329124493
 30
0.0
 11
-373.71879938946182
 21
-452.34226294433807
 31
0.0
  0
LINE
  8
DETAIL
  6
CONTINUOUS
 62
     5
 10
-373.71879938946182
 20
-452.34226294433807
 30
0.0
 11
-373.72170799246578
 21
-452.34604292460398
 31
0.0
  0
LINE
  8
DETAIL
  6
CONTINUOUS
 62
     5
 10
-373.72170799246578
 20
-452.34604292460398
 30
0.0
 11
-373.72461537699928
 21
-452.3498252011741
 31
0.0
  0
LINE
  8
DETAIL
  6
CONTINUOUS
 62
     5
 10
-373.72461537699928
 20
-452.3498252011741
 30
0.0
 11
-373.7275226855902
 21
-452.35361134592972
 31
0.0
  0
LINE
  8
DETAIL
  6
CONTINUOUS
 62
     5
 10
-373.7275226855902
 20
-452.35361134592972
 30
0.0
 11
-373.73042982469542
 21
-452.35740134177132
 31
0.0
  0
LINE
  8
DETAIL
  6
CONTINUOUS
 62
     5
 10
-373.73042982469542
 20
-452.35740134177132
 30
0.0
 11
-373.73333639175422
 21
-452.36119477434909
 31
0.0
  0
LINE
  8
DETAIL
  6
CONTINUOUS
 62
     5
 10
-373.73333639175422
 20
-452.36119477434909
 30
0.0
 11
-373.73624198420612
 21
-452.36499122931372
 31
0.0
  0
LINE
  8
DETAIL
  6
CONTINUOUS
 62
     5
 10
-373.73624198420612
 20
-452.36499122931372
 30
0.0
 11
-373.73914619948982
 21
-452.36879029231568
 31
0.0
  0
LINE
  8
DETAIL
  6
CONTINUOUS
 62
     5
 10
-373.73914619948982
 20
-452.36879029231568
 30
0.0
 11
-373.74204863504468
 21
-452.37259154900551
 31
0.0
  0
LINE
  8
DETAIL
  6
CONTINUOUS
 62
     5
 10
-373.74204863504468
 20
-452.37259154900551
 30
0.0
 11
-373.74494888831032
 21
-452.37639458503332
 31
0.0
  0
LINE
  8
DETAIL
  6
CONTINUOUS
 62
     5
 10
-373.74494888831032
 20
-452.37639458503332
 30
0.0
 11
-373.74784660026279
 21
-452.38019903891359
 31
0.0
  0
LINE
  8
DETAIL
  6
CONTINUOUS
 62
     5
 10
-373.74784660026279
 20
-452.38019903891359
 30
0.0
 11
-373.75074158603621
 21
-452.38400476061662
 31
0.0
  0
LINE
  8
DETAIL
  6
CONTINUOUS
 62
     5
 10
-373.75074158603621
 20
-452.38400476061662
 30
0.0
 11
-373.75363370430091
 21
-452.38781165297468
 31
0.0
  0
LINE
  8
DETAIL
  6
CONTINUOUS
 62
     5
 10
-373.75363370430091
 20
-452.38781165297468
 30
0.0
 11
-373.75652281372822
 21
-452.39161961882178
 31
0.0
  0
LINE
  8
DETAIL
  6
CONTINUOUS
 62
     5
 10
-373.75652281372822
 20
-452.39161961882178
 30
0.0
 11
-373.75940877298922
 21
-452.39542856099058
 31
0.0
  0
LINE
  8
DETAIL
  6
CONTINUOUS
 62
     5
 10
-373.75940877298922
 20
-452.39542856099058
 30
0.0
 11
-373.76229144075501
 21
-452.39923838231482
 31
0.0
  0
LINE
  8
DETAIL
  6
CONTINUOUS
 62
     5
 10
-373.76229144075501
 20
-452.39923838231482
 30
0.0
 11
-373.76517067569603
 21
-452.40304898562681
 31
0.0
  0
LINE
  8
DETAIL
  6
CONTINUOUS
 62
     5
 10
-373.76517067569603
 20
-452.40304898562681
 30
0.0
 11
-373.76804647134668
 21
-452.40686045954942
 31
0.0
  0
LINE
  8
DETAIL
  6
CONTINUOUS
 62
     5
 10
-373.76804647134668
 20
-452.40686045954942
 30
0.0
 11
-373.77091936069411
 21
-452.41067363587757
 31
0.0
  0
LINE
  8
DETAIL
  6
CONTINUOUS
 62
     5
 10
-373.77091936069411
 20
-452.41067363587757
 30
0.0
 11
-373.77379001158829
 21
-452.41448953219458
 31
0.0
  0
LINE
  8
DETAIL
  6
CONTINUOUS
 62
     5
 10
-373.77379001158829
 20
-452.41448953219458
 30
0.0
 11
-373.77665909187931
 21
-452.41830916608359
 31
0.0
  0
LINE
  8
DETAIL
  6
CONTINUOUS
 62
     5
 10
-373.77665909187931
 20
-452.41830916608359
 30
0.0
 11
-373.77952726941771
 21
-452.42213355512808
 31
0.0
  0
LINE
  8
DETAIL
  6
CONTINUOUS
 62
     5
 10
-373.77952726941771
 20
-452.42213355512808
 30
0.0
 11
-373.78239521205342
 21
-452.42596371691047
 31
0.0
  0
LINE
  8
DETAIL
  6
CONTINUOUS
 62
     5
 10
-373.78239521205342
 20
-452.42596371691047
 30
0.0
 11
-373.78526358763611
 21
-452.42980066901509
 31
0.0
  0
LINE
  8
DETAIL
  6
CONTINUOUS
 62
     5
 10
-373.78526358763611
 20
-452.42980066901509
 30
0.0
 11
-373.78813248102529
 21
-452.43364463299372
 31
0.0
  0
LINE
  8
DETAIL
  6
CONTINUOUS
 62
     5
 10
-373.78813248102529
 20
-452.43364463299372
 30
0.0
 11
-373.79099964511352
 21
-452.43749264627741
 31
0.0
  0
LINE
  8
DETAIL
  6
CONTINUOUS
 62
     5
 10
-373.79099964511352
 20
-452.43749264627741
 30
0.0
 11
-373.79386224980323
 21
-452.44134095026652
 31
0.0
  0
LINE
  8
DETAIL
  6
CONTINUOUS
 62
     5
 10
-373.79386224980323
 20
-452.44134095026652
 30
0.0
 11
-373.79671746499571
 21
-452.44518578636121
 31
0.0
  0
LINE
  8
DETAIL
  6
CONTINUOUS
 62
     5
 10
-373.79671746499571
 20
-452.44518578636121
 30
0.0
 11
-373.79956246059311
 21
-452.44902339596212
 31
0.0
  0
LINE
  8
DETAIL
  6
CONTINUOUS
 62
     5
 10
-373.79956246059311
 20
-452.44902339596212
 30
0.0
 11
-373.80239440649729
 21
-452.45285002046973
 31
0.0
  0
LINE
  8
DETAIL
  6
CONTINUOUS
 62
     5
 10
-373.80239440649729
 20
-452.45285002046973
 30
0.0
 11
-373.80521047261033
 21
-452.45666190128401
 31
0.0
  0
LINE
  8
DETAIL
  6
CONTINUOUS
 62
     5
 10
-373.80521047261033
 20
-452.45666190128401
 30
0.0
 11
-373.80800875733257
 21
-452.46045653890837
 31
0.0
  0
LINE
  8
DETAIL
  6
CONTINUOUS
 62
     5
 10
-373.80800875733257
 20
-452.46045653890837
 30
0.0
 11
-373.81079107305692
 21
-452.46423647025722
 31
0.0
  0
LINE
  8
DETAIL
  6
CONTINUOUS
 62
     5
 10
-373.81079107305692
 20
-452.46423647025722
 30
0.0
 11
-373.81356016067548
 21
-452.46800549134821
 31
0.0
  0
LINE
  8
DETAIL
  6
CONTINUOUS
 62
     5
 10
-373.81356016067548
 20
-452.46800549134821
 30
0.0
 11
-373.81631876107957
 21
-452.47176739819838
 31
0.0
  0
LINE
  8
DETAIL
  6
CONTINUOUS
 62
     5
 10
-373.81631876107957
 20
-452.47176739819838
 30
0.0
 11
-373.81906961516103
 21
-452.4755259868258
 31
0.0
  0
LINE
  8
DETAIL
  6
CONTINUOUS
 62
     5
 10
-373.81906961516103
 20
-452.4755259868258
 30
0.0
 11
-373.82181546381207
 21
-452.47928505324802
 31
0.0
  0
LINE
  8
DETAIL
  6
CONTINUOUS
 62
     5
 10
-373.82181546381207
 20
-452.47928505324802
 30
0.0
 11
-373.82455904792369
 21
-452.48304839348202
 31
0.0
  0
LINE
  8
DETAIL
  6
CONTINUOUS
 62
     5
 10
-373.82455904792369
 20
-452.48304839348202
 30
0.0
 11
-373.82730252786678
 21
-452.48681902474561
 31
0.0
  0
LINE
  8
DETAIL
  6
CONTINUOUS
 62
     5
 10
-373.82730252786678
 20
-452.48681902474561
 30
0.0
 11
-373.83004574192569
 21
-452.4905968490641
 31
0.0
  0
LINE
  8
DETAIL
  6
CONTINUOUS
 62
     5
 10
-373.83004574192569
 20
-452.4905968490641
 30
0.0
 11
-373.83278794786321
 21
-452.49438098966232
 31
0.0
  0
LINE
  8
DETAIL
  6
CONTINUOUS
 62
     5
 10
-373.83278794786321
 20
-452.49438098966232
 30
0.0
 11
-373.83552840344191
 21
-452.49817056976502
 31
0.0
  0
LINE
  8
DETAIL
  6
CONTINUOUS
 62
     5
 10
-373.83552840344191
 20
-452.49817056976502
 30
0.0
 11
-373.83826636642522
 21
-452.50196471259699
 31
0.0
  0
LINE
  8
DETAIL
  6
CONTINUOUS
 62
     5
 10
-373.83826636642522
 20
-452.50196471259699
 30
0.0
 11
-373.84100109457557
 21
-452.50576254138321
 31
0.0
  0
LINE
  8
DETAIL
  6
CONTINUOUS
 62
     5
 10
-373.84100109457557
 20
-452.50576254138321
 30
0.0
 11
-373.84373184565629
 21
-452.50956317934822
 31
0.0
  0
LINE
  8
DETAIL
  6
CONTINUOUS
 62
     5
 10
-373.84373184565629
 20
-452.50956317934822
 30
0.0
 11
-373.84645798165678
 21
-452.51336588207528
 31
0.0
  0
LINE
  8
DETAIL
  6
CONTINUOUS
 62
     5
 10
-373.84645798165678
 20
-452.51336588207528
 30
0.0
 11
-373.84917928147388
 21
-452.5171704345903
 31
0.0
  0
LINE
  8
DETAIL
  6
CONTINUOUS
 62
     5
 10
-373.84917928147388
 20
-452.5171704345903
 30
0.0
 11
-373.85189562823172
 21
-452.52097675427808
 31
0.0
  0
LINE
  8
DETAIL
  6
CONTINUOUS
 62
     5
 10
-373.85189562823172
 20
-452.52097675427808
 30
0.0
 11
-373.85460690505403
 21
-452.52478475852263
 31
0.0
  0
LINE
  8
DETAIL
  6
CONTINUOUS
 62
     5
 10
-373.85460690505403
 20
-452.52478475852263
 30
0.0
 11
-373.85731299506438
 21
-452.52859436470919
 31
0.0
  0
LINE
  8
DETAIL
  6
CONTINUOUS
 62
     5
 10
-373.85731299506438
 20
-452.52859436470919
 30
0.0
 11
-373.86001378138639
 21
-452.53240549022212
 31
0.0
  0
LINE
  8
DETAIL
  6
CONTINUOUS
 62
     5
 10
-373.86001378138639
 20
-452.53240549022212
 30
0.0
 11
-373.86270914714441
 21
-452.5362180524462
 31
0.0
  0
LINE
  8
DETAIL
  6
CONTINUOUS
 62
     5
 10
-373.86270914714441
 20
-452.5362180524462
 30
0.0
 11
-373.86539913907518
 21
-452.54003221812468
 31
0.0
  0
LINE
  8
DETAIL
  6
CONTINUOUS
 62
     5
 10
-373.86539913907518
 20
-452.54003221812468
 30
0.0
 11
-373.8680844583746
 21
-452.54384915143692
 31
0.0
  0
LINE
  8
DETAIL
  6
CONTINUOUS
 62
     5
 10
-373.8680844583746
 20
-452.54384915143692
 30
0.0
 11
-373.87076596985162
 21
-452.54767026592123
 31
0.0
  0
LINE
  8
DETAIL
  6
CONTINUOUS
 62
     5
 10
-373.87076596985162
 20
-452.54767026592123
 30
0.0
 11
-373.87344453831571
 21
-452.55149697511672
 31
0.0
  0
LINE
  8
DETAIL
  6
CONTINUOUS
 62
     5
 10
-373.87344453831571
 20
-452.55149697511672
 30
0.0
 11
-373.87612102857611
 21
-452.55533069256131
 31
0.0
  0
LINE
  8
DETAIL
  6
CONTINUOUS
 62
     5
 10
-373.87612102857611
 20
-452.55533069256131
 30
0.0
 11
-373.87879630544188
 21
-452.55917283179429
 31
0.0
  0
LINE
  8
DETAIL
  6
CONTINUOUS
 62
     5
 10
-373.87879630544188
 20
-452.55917283179429
 30
0.0
 11
-373.88147123372261
 21
-452.56302480635361
 31
0.0
  0
LINE
  8
DETAIL
  6
CONTINUOUS
 62
     5
 10
-373.88147123372261
 20
-452.56302480635361
 30
0.0
 11
-373.88414591954262
 21
-452.56688689998049
 31
0.0
  0
LINE
  8
DETAIL
  6
CONTINUOUS
 62
     5
 10
-373.88414591954262
 20
-452.56688689998049
 30
0.0
 11
-373.88681743429328
 21
-452.57075487723603
 31
0.0
  0
LINE
  8
DETAIL
  6
CONTINUOUS
 62
     5
 10
-373.88681743429328
 20
-452.57075487723603
 30
0.0
 11
-373.88948209068081
 21
-452.57462337288229
 31
0.0
  0
LINE
  8
DETAIL
  6
CONTINUOUS
 62
     5
 10
-373.88948209068081
 20
-452.57462337288229
 30
0.0
 11
-373.89213620141209
 21
-452.57848702168258
 31
0.0
  0
LINE
  8
DETAIL
  6
CONTINUOUS
 62
     5
 10
-373.89213620141209
 20
-452.57848702168258
 30
0.0
 11
-373.89477607919298
 21
-452.58234045839907
 31
0.0
  0
LINE
  8
DETAIL
  6
CONTINUOUS
 62
     5
 10
-373.89477607919298
 20
-452.58234045839907
 30
0.0
 11
-373.89739803673052
 21
-452.58617831779537
 31
0.0
  0
LINE
  8
DETAIL
  6
CONTINUOUS
 62
     5
 10
-373.89739803673052
 20
-452.58617831779537
 30
0.0
 11
-373.89999838673072
 21
-452.58999523463348
 31
0.0
  0
LINE
  8
DETAIL
  6
CONTINUOUS
 62
     5
 10
-373.89999838673072
 20
-452.58999523463348
 30
0.0
 11
-373.90257465910707
 21
-452.59378763446261
 31
0.0
  0
LINE
  8
DETAIL
  6
CONTINUOUS
 62
     5
 10
-373.90257465910707
 20
-452.59378763446261
 30
0.0
 11
-373.90512925260151
 21
-452.59755910596601
 31
0.0
  0
LINE
  8
DETAIL
  6
CONTINUOUS
 62
     5
 10
-373.90512925260151
 20
-452.59755910596601
 30
0.0
 11
-373.90766578316152
 21
-452.60131502861208
 31
0.0
  0
LINE
  8
DETAIL
  6
CONTINUOUS
 62
     5
 10
-373.90766578316152
 20
-452.60131502861208
 30
0.0
 11
-373.91018786673573
 21
-452.60506078187052
 31
0.0
  0
LINE
  8
DETAIL
  6
CONTINUOUS
 62
     5
 10
-373.91018786673573
 20
-452.60506078187052
 30
0.0
 11
-373.91269911927162
 21
-452.60880174520958
 31
0.0
  0
LINE
  8
DETAIL
  6
CONTINUOUS
 62
     5
 10
-373.91269911927162
 20
-452.60880174520958
 30
0.0
 11
-373.91520315671761
 21
-452.61254329809839
 31
0.0
  0
LINE
  8
DETAIL
  6
CONTINUOUS
 62
     5
 10
-373.91520315671761
 20
-452.61254329809839
 30
0.0
 11
-373.91770359502152
 21
-452.6162908200057
 31
0.0
  0
LINE
  8
DETAIL
  6
CONTINUOUS
 62
     5
 10
-373.91770359502152
 20
-452.6162908200057
 30
0.0
 11
-373.92020328337588
 21
-452.62004857971971
 31
0.0
  0
LINE
  8
DETAIL
  6
CONTINUOUS
 62
     5
 10
-373.92020328337588
 20
-452.62004857971971
 30
0.0
 11
-373.92270200394893
 21
-452.62381640329397
 31
0.0
  0
LINE
  8
DETAIL
  6
CONTINUOUS
 62
     5
 10
-373.92270200394893
 20
-452.62381640329397
 30
0.0
 11
-373.92519877215233
 21
-452.62759300610082
 31
0.0
  0
LINE
  8
DETAIL
  6
CONTINUOUS
 62
     5
 10
-373.92519877215233
 20
-452.62759300610082
 30
0.0
 11
-373.92769260339861
 21
-452.6313771035127
 31
0.0
  0
LINE
  8
DETAIL
  6
CONTINUOUS
 62
     5
 10
-373.92769260339861
 20
-452.6313771035127
 30
0.0
 11
-373.93018251310042
 21
-452.63516741090172
 31
0.0
  0
LINE
  8
DETAIL
  6
CONTINUOUS
 62
     5
 10
-373.93018251310042
 20
-452.63516741090172
 30
0.0
 11
-373.93266751666971
 21
-452.63896264364081
 31
0.0
  0
LINE
  8
DETAIL
  6
CONTINUOUS
 62
     5
 10
-373.93266751666971
 20
-452.63896264364081
 30
0.0
 11
-373.93514662951839
 21
-452.64276151710152
 31
0.0
  0
LINE
  8
DETAIL
  6
CONTINUOUS
 62
     5
 10
-373.93514662951839
 20
-452.64276151710152
 30
0.0
 11
-373.93761901732842
 21
-452.64656295100372
 31
0.0
  0
LINE
  8
DETAIL
  6
CONTINUOUS
 62
     5
 10
-373.93761901732842
 20
-452.64656295100372
 30
0.0
 11
-373.94008444686142
 21
-452.65036668247251
 31
0.0
  0
LINE
  8
DETAIL
  6
CONTINUOUS
 62
     5
 10
-373.94008444686142
 20
-452.65036668247251
 30
0.0
 11
-373.94254283514778
 21
-452.65417265297992
 31
0.0
  0
LINE
  8
DETAIL
  6
CONTINUOUS
 62
     5
 10
-373.94254283514778
 20
-452.65417265297992
 30
0.0
 11
-373.94499409921877
 21
-452.65798080399748
 31
0.0
  0
LINE
  8
DETAIL
  6
CONTINUOUS
 62
     5
 10
-373.94499409921877
 20
-452.65798080399748
 30
0.0
 11
-373.94743815610491
 21
-452.66179107699719
 31
0.0
  0
LINE
  8
DETAIL
  6
CONTINUOUS
 62
     5
 10
-373.94743815610491
 20
-452.66179107699719
 30
0.0
 11
-373.94987492283673
 21
-452.66560341345092
 31
0.0
  0
LINE
  8
DETAIL
  6
CONTINUOUS
 62
     5
 10
-373.94987492283673
 20
-452.66560341345092
 30
0.0
 11
-373.9523043164445
 21
-452.66941775483042
 31
0.0
  0
LINE
  8
DETAIL
  6
CONTINUOUS
 62
     5
 10
-373.9523043164445
 20
-452.66941775483042
 30
0.0
 11
-373.95472641963619
 21
-452.67323433589132
 31
0.0
  0
LINE
  8
DETAIL
  6
CONTINUOUS
 62
     5
 10
-373.95472641963619
 20
-452.67323433589132
 30
0.0
 11
-373.95714197782809
 21
-452.67705456452018
 31
0.0
  0
LINE
  8
DETAIL
  6
CONTINUOUS
 62
     5
 10
-373.95714197782809
 20
-452.67705456452018
 30
0.0
 11
-373.95955190211271
 21
-452.68088014188697
 31
0.0
  0
LINE
  8
DETAIL
  6
CONTINUOUS
 62
     5
 10
-373.95955190211271
 20
-452.68088014188697
 30
0.0
 11
-373.96195710358188
 21
-452.68471276916102
 31
0.0
  0
LINE
  8
DETAIL
  6
CONTINUOUS
 62
     5
 10
-373.96195710358188
 20
-452.68471276916102
 30
0.0
 11
-373.96435849332869
 21
-452.68855414751249
 31
0.0
  0
LINE
  8
DETAIL
  6
CONTINUOUS
 62
     5
 10
-373.96435849332869
 20
-452.68855414751249
 30
0.0
 11
-373.96675698244599
 21
-452.69240597811063
 31
0.0
  0
LINE
  8
DETAIL
  6
CONTINUOUS
 62
     5
 10
-373.96675698244599
 20
-452.69240597811063
 30
0.0
 11
-373.96915348202577
 21
-452.69626996212548
 31
0.0
  0
LINE
  8
DETAIL
  6
CONTINUOUS
 62
     5
 10
-373.96915348202577
 20
-452.69626996212548
 30
0.0
 11
-373.97154809018411
 21
-452.70014642324492
 31
0.0
  0
LINE
  8
DETAIL
  6
CONTINUOUS
 62
     5
 10
-373.97154809018411
 20
-452.70014642324492
 30
0.0
 11
-373.97393765312432
 21
-452.70403017523063
 31
0.0
  0
LINE
  8
DETAIL
  6
CONTINUOUS
 62
     5
 10
-373.97393765312432
 20
-452.70403017523063
 30
0.0
 11
-373.97631820407378
 21
-452.70791465436099
 31
0.0
  0
LINE
  8
DETAIL
  6
CONTINUOUS
 62
     5
 10
-373.97631820407378
 20
-452.70791465436099
 30
0.0
 11
-373.97868577625809
 21
-452.71179329691489
 31
0.0
  0
LINE
  8
DETAIL
  6
CONTINUOUS
 62
     5
 10
-373.97868577625809
 20
-452.71179329691489
 30
0.0
 11
-373.98103640290492
 21
-452.71565953917082
 31
0.0
  0
LINE
  8
DETAIL
  6
CONTINUOUS
 62
     5
 10
-373.98103640290492
 20
-452.71565953917082
 30
0.0
 11
-373.98336611724062
 21
-452.71950681740731
 31
0.0
  0
LINE
  8
DETAIL
  6
CONTINUOUS
 62
     5
 10
-373.98336611724062
 20
-452.71950681740731
 30
0.0
 11
-373.985670952492
 21
-452.72332856790308
 31
0.0
  0
LINE
  8
DETAIL
  6
CONTINUOUS
 62
     5
 10
-373.985670952492
 20
-452.72332856790308
 30
0.0
 11
-373.98794825625032
 21
-452.72712041241942
 31
0.0
  0
LINE
  8
DETAIL
  6
CONTINUOUS
 62
     5
 10
-373.98794825625032
 20
-452.72712041241942
 30
0.0
 11
-373.99020063356687
 21
-452.73088671464728
 31
0.0
  0
LINE
  8
DETAIL
  6
CONTINUOUS
 62
     5
 10
-373.99020063356687
 20
-452.73088671464728
 30
0.0
 11
-373.99243200385808
 21
-452.73463402375887
 31
0.0
  0
LINE
  8
DETAIL
  6
CONTINUOUS
 62
     5
 10
-373.99243200385808
 20
-452.73463402375887
 30
0.0
 11
-373.99464628653959
 21
-452.73836888892629
 31
0.0
  0
LINE
  8
DETAIL
  6
CONTINUOUS
 62
     5
 10
-373.99464628653959
 20
-452.73836888892629
 30
0.0
 11
-373.99684740102839
 21
-452.74209785932231
 31
0.0
  0
LINE
  8
DETAIL
  6
CONTINUOUS
 62
     5
 10
-373.99684740102839
 20
-452.74209785932231
 30
0.0
 11
-373.99903926674011
 21
-452.74582748411922
 31
0.0
  0
LINE
  8
DETAIL
  6
CONTINUOUS
 62
     5
 10
-373.99903926674011
 20
-452.74582748411922
 30
0.0
 11
-374.00122580309107
 21
-452.74956431248938
 31
0.0
  0
LINE
  8
DETAIL
  6
CONTINUOUS
 62
     5
 10
-374.00122580309107
 20
-452.74956431248938
 30
0.0
 11
-374.00341009526892
 21
-452.75331353554952
 31
0.0
  0
LINE
  8
DETAIL
  6
CONTINUOUS
 62
     5
 10
-374.00341009526892
 20
-452.75331353554952
 30
0.0
 11
-374.00559189154052
 21
-452.75707491217389
 31
0.0
  0
LINE
  8
DETAIL
  6
CONTINUOUS
 62
     5
 10
-374.00559189154052
 20
-452.75707491217389
 30
0.0
 11
-374.00777010594561
 21
-452.76084684318153
 31
0.0
  0
LINE
  8
DETAIL
  6
CONTINUOUS
 62
     5
 10
-374.00777010594561
 20
-452.76084684318153
 30
0.0
 11
-374.00994365252251
 21
-452.76462772939112
 31
0.0
  0
LINE
  8
DETAIL
  6
CONTINUOUS
 62
     5
 10
-374.00994365252251
 20
-452.76462772939112
 30
0.0
 11
-374.01211144531021
 21
-452.76841597162093
 31
0.0
  0
LINE
  8
DETAIL
  6
CONTINUOUS
 62
     5
 10
-374.01211144531021
 20
-452.76841597162093
 30
0.0
 11
-374.01427239834771
 21
-452.77220997069031
 31
0.0
  0
LINE
  8
DETAIL
  6
CONTINUOUS
 62
     5
 10
-374.01427239834771
 20
-452.77220997069031
 30
0.0
 11
-374.01642542567328
 21
-452.7760081274173
 31
0.0
  0
LINE
  8
DETAIL
  6
CONTINUOUS
 62
     5
 10
-374.01642542567328
 20
-452.7760081274173
 30
0.0
 11
-374.01856961496043
 21
-452.77980910528908
 31
0.0
  0
LINE
  8
DETAIL
  6
CONTINUOUS
 62
     5
 10
-374.01856961496043
 20
-452.77980910528908
 30
0.0
 11
-374.02070474842122
 21
-452.78361261847431
 31
0.0
  0
LINE
  8
DETAIL
  6
CONTINUOUS
 62
     5
 10
-374.02070474842122
 20
-452.78361261847431
 30
0.0
 11
-374.02283078190248
 21
-452.78741864380959
 31
0.0
  0
LINE
  8
DETAIL
  6
CONTINUOUS
 62
     5
 10
-374.02283078190248
 20
-452.78741864380959
 30
0.0
 11
-374.02494767125108
 21
-452.79122715813151
 31
0.0
  0
LINE
  8
DETAIL
  6
CONTINUOUS
 62
     5
 10
-374.02494767125108
 20
-452.79122715813151
 30
0.0
 11
-374.02705537231401
 21
-452.79503813827728
 31
0.0
  0
LINE
  8
DETAIL
  6
CONTINUOUS
 62
     5
 10
-374.02705537231401
 20
-452.79503813827728
 30
0.0
 11
-374.0291538409374
 21
-452.79885156108321
 31
0.0
  0
LINE
  8
DETAIL
  6
CONTINUOUS
 62
     5
 10
-374.0291538409374
 20
-452.79885156108321
 30
0.0
 11
-374.03124303296858
 21
-452.80266740338629
 31
0.0
  0
LINE
  8
DETAIL
  6
CONTINUOUS
 62
     5
 10
-374.03124303296858
 20
-452.80266740338629
 30
0.0
 11
-374.03332304394439
 21
-452.80648594940197
 31
0.0
  0
LINE
  8
DETAIL
  6
CONTINUOUS
 62
     5
 10
-374.03332304394439
 20
-452.80648594940197
 30
0.0
 11
-374.03539452816682
 21
-452.81030871286981
 31
0.0
  0
LINE
  8
DETAIL
  6
CONTINUOUS
 62
     5
 10
-374.03539452816682
 20
-452.81030871286981
 30
0.0
 11
-374.03745827962803
 21
-452.81413751490709
 31
0.0
  0
LINE
  8
DETAIL
  6
CONTINUOUS
 62
     5
 10
-374.03745827962803
 20
-452.81413751490709
 30
0.0
 11
-374.03951509232053
 21
-452.81797417663171
 31
0.0
  0
LINE
  8
DETAIL
  6
CONTINUOUS
 62
     5
 10
-374.03951509232053
 20
-452.81797417663171
 30
0.0
 11
-374.04156576023678
 21
-452.82182051916152
 31
0.0
  0
LINE
  8
DETAIL
  6
CONTINUOUS
 62
     5
 10
-374.04156576023678
 20
-452.82182051916152
 30
0.0
 11
-374.04361107736941
 21
-452.82567836361392
 31
0.0
  0
LINE
  8
DETAIL
  6
CONTINUOUS
 62
     5
 10
-374.04361107736941
 20
-452.82567836361392
 30
0.0
 11
-374.04565183771052
 21
-452.82954953110652
 31
0.0
  0
LINE
  8
DETAIL
  6
CONTINUOUS
 62
     5
 10
-374.04565183771052
 20
-452.82954953110652
 30
0.0
 11
-374.04768810285441
 21
-452.83343435056742
 31
0.0
  0
LINE
  8
DETAIL
  6
CONTINUOUS
 62
     5
 10
-374.04768810285441
 20
-452.83343435056742
 30
0.0
 11
-374.04971700480132
 21
-452.83732718216208
 31
0.0
  0
LINE
  8
DETAIL
  6
CONTINUOUS
 62
     5
 10
-374.04971700480132
 20
-452.83732718216208
 30
0.0
 11
-374.0517349431525
 21
-452.84122089386642
 31
0.0
  0
LINE
  8
DETAIL
  6
CONTINUOUS
 62
     5
 10
-374.0517349431525
 20
-452.84122089386642
 30
0.0
 11
-374.05373831750973
 21
-452.84510835365609
 31
0.0
  0
LINE
  8
DETAIL
  6
CONTINUOUS
 62
     5
 10
-374.05373831750973
 20
-452.84510835365609
 30
0.0
 11
-374.05572352747498
 21
-452.84898242950732
 31
0.0
  0
LINE
  8
DETAIL
  6
CONTINUOUS
 62
     5
 10
-374.05572352747498
 20
-452.84898242950732
 30
0.0
 11
-374.05768697264938
 21
-452.85283598939532
 31
0.0
  0
LINE
  8
DETAIL
  6
CONTINUOUS
 62
     5
 10
-374.05768697264938
 20
-452.85283598939532
 30
0.0
 11
-374.05962505263511
 21
-452.85666190129632
 31
0.0
  0
LINE
  8
DETAIL
  6
CONTINUOUS
 62
     5
 10
-374.05962505263511
 20
-452.85666190129632
 30
0.0
 11
-374.06153536382749
 21
-452.86045540318918
 31
0.0
  0
LINE
  8
DETAIL
  6
CONTINUOUS
 62
     5
 10
-374.06153536382749
 20
-452.86045540318918
 30
0.0
 11
-374.06342028979952
 21
-452.86422121306839
 31
0.0
  0
LINE
  8
DETAIL
  6
CONTINUOUS
 62
     5
 10
-374.06342028979952
 20
-452.86422121306839
 30
0.0
 11
-374.06528341091803
 21
-452.86796641893272
 31
0.0
  0
LINE
  8
DETAIL
  6
CONTINUOUS
 62
     5
 10
-374.06528341091803
 20
-452.86796641893272
 30
0.0
 11
-374.06712830754941
 21
-452.87169810878032
 31
0.0
  0
LINE
  8
DETAIL
  6
CONTINUOUS
 62
     5
 10
-374.06712830754941
 20
-452.87169810878032
 30
0.0
 11
-374.06895856006082
 21
-452.87542337061012
 31
0.0
  0
LINE
  8
DETAIL
  6
CONTINUOUS
 62
     5
 10
-374.06895856006082
 20
-452.87542337061012
 30
0.0
 11
-374.07077774881918
 21
-452.87914929242078
 31
0.0
  0
LINE
  8
DETAIL
  6
CONTINUOUS
 62
     5
 10
-374.07077774881918
 20
-452.87914929242078
 30
0.0
 11
-374.07258945419022
 21
-452.88288296221077
 31
0.0
  0
LINE
  8
DETAIL
  6
CONTINUOUS
 62
     5
 10
-374.07258945419022
 20
-452.88288296221077
 30
0.0
 11
-374.07439648975082
 21
-452.8866299918692
 31
0.0
  0
LINE
  8
DETAIL
  6
CONTINUOUS
 62
     5
 10
-374.07439648975082
 20
-452.8866299918692
 30
0.0
 11
-374.07619860191022
 21
-452.89039008884811
 31
0.0
  0
LINE
  8
DETAIL
  6
CONTINUOUS
 62
     5
 10
-374.07619860191022
 20
-452.89039008884811
 30
0.0
 11
-374.0779947702863
 21
-452.89416148448908
 31
0.0
  0
LINE
  8
DETAIL
  6
CONTINUOUS
 62
     5
 10
-374.0779947702863
 20
-452.89416148448908
 30
0.0
 11
-374.07978397449801
 21
-452.89794241013522
 31
0.0
  0
LINE
  8
DETAIL
  6
CONTINUOUS
 62
     5
 10
-374.07978397449801
 20
-452.89794241013522
 30
0.0
 11
-374.08156519416411
 21
-452.90173109712828
 31
0.0
  0
LINE
  8
DETAIL
  6
CONTINUOUS
 62
     5
 10
-374.08156519416411
 20
-452.90173109712828
 30
0.0
 11
-374.08333740890288
 21
-452.90552577681052
 31
0.0
  0
LINE
  8
DETAIL
  6
CONTINUOUS
 62
     5
 10
-374.08333740890288
 20
-452.90552577681052
 30
0.0
 11
-374.08509959833282
 21
-452.90932468052421
 31
0.0
  0
LINE
  8
DETAIL
  6
CONTINUOUS
 62
     5
 10
-374.08509959833282
 20
-452.90932468052421
 30
0.0
 11
-374.086850910865
 21
-452.91312633841352
 31
0.0
  0
LINE
  8
DETAIL
  6
CONTINUOUS
 62
     5
 10
-374.086850910865
 20
-452.91312633841352
 30
0.0
 11
-374.08859117007802
 21
-452.91693047583931
 31
0.0
  0
LINE
  8
DETAIL
  6
CONTINUOUS
 62
     5
 10
-374.08859117007802
 20
-452.91693047583931
 30
0.0
 11
-374.0903203683431
 21
-452.92073711696457
 31
0.0
  0
LINE
  8
DETAIL
  6
CONTINUOUS
 62
     5
 10
-374.0903203683431
 20
-452.92073711696457
 30
0.0
 11
-374.09203849803129
 21
-452.92454628595169
 31
0.0
  0
LINE
  8
DETAIL
  6
CONTINUOUS
 62
     5
 10
-374.09203849803129
 20
-452.92454628595169
 30
0.0
 11
-374.0937455515143
 21
-452.92835800696372
 31
0.0
  0
LINE
  8
DETAIL
  6
CONTINUOUS
 62
     5
 10
-374.0937455515143
 20
-452.92835800696372
 30
0.0
 11
-374.09544152116308
 21
-452.93217230416309
 31
0.0
  0
LINE
  8
DETAIL
  6
CONTINUOUS
 62
     5
 10
-374.09544152116308
 20
-452.93217230416309
 30
0.0
 11
-374.09712639934878
 21
-452.9359892017128
 31
0.0
  0
LINE
  8
DETAIL
  6
CONTINUOUS
 62
     5
 10
-374.09712639934878
 20
-452.9359892017128
 30
0.0
 11
-374.09880027006437
 21
-452.93980900466943
 31
0.0
  0
LINE
  8
DETAIL
  6
CONTINUOUS
 62
     5
 10
-374.09880027006437
 20
-452.93980900466943
 30
0.0
 11
-374.10046358379708
 21
-452.94363314167572
 31
0.0
  0
LINE
  8
DETAIL
  6
CONTINUOUS
 62
     5
 10
-374.10046358379708
 20
-452.94363314167572
 30
0.0
 11
-374.10211688265548
 21
-452.9474633222693
 31
0.0
  0
LINE
  8
DETAIL
  6
CONTINUOUS
 62
     5
 10
-374.10211688265548
 20
-452.9474633222693
 30
0.0
 11
-374.10376070874833
 21
-452.95130125598757
 31
0.0
  0
LINE
  8
DETAIL
  6
CONTINUOUS
 62
     5
 10
-374.10376070874833
 20
-452.95130125598757
 30
0.0
 11
-374.10539560418403
 21
-452.95514865236851
 31
0.0
  0
LINE
  8
DETAIL
  6
CONTINUOUS
 62
     5
 10
-374.10539560418403
 20
-452.95514865236851
 30
0.0
 11
-374.10702211107127
 21
-452.95900722094922
 31
0.0
  0
LINE
  8
DETAIL
  6
CONTINUOUS
 62
     5
 10
-374.10702211107127
 20
-452.95900722094922
 30
0.0
 11
-374.10864077151928
 21
-452.96287867126739
 31
0.0
  0
LINE
  8
DETAIL
  6
CONTINUOUS
 62
     5
 10
-374.10864077151928
 20
-452.96287867126739
 30
0.0
 11
-374.11025159235328
 21
-452.96676329047392
 31
0.0
  0
LINE
  8
DETAIL
  6
CONTINUOUS
 62
     5
 10
-374.11025159235328
 20
-452.96676329047392
 30
0.0
 11
-374.11185243926229
 21
-452.97065567617261
 31
0.0
  0
LINE
  8
DETAIL
  6
CONTINUOUS
 62
     5
 10
-374.11185243926229
 20
-452.97065567617261
 30
0.0
 11
-374.11344064265199
 21
-452.97454900358139
 31
0.0
  0
LINE
  8
DETAIL
  6
CONTINUOUS
 62
     5
 10
-374.11344064265199
 20
-452.97454900358139
 30
0.0
 11
-374.11501353292829
 21
-452.9784364479184
 31
0.0
  0
LINE
  8
DETAIL
  6
CONTINUOUS
 62
     5
 10
-374.11501353292829
 20
-452.9784364479184
 30
0.0
 11
-374.11656844049679
 21
-452.98231118440123
 31
0.0
  0
LINE
  8
DETAIL
  6
CONTINUOUS
 62
     5
 10
-374.11656844049679
 20
-452.98231118440123
 30
0.0
 11
-374.11810269576381
 21
-452.9861663882474
 31
0.0
  0
LINE
  8
DETAIL
  6
CONTINUOUS
 62
     5
 10
-374.11810269576381
 20
-452.9861663882474
 30
0.0
 11
-374.11961362913462
 21
-452.98999523467512
 31
0.0
  0
LINE
  8
DETAIL
  6
CONTINUOUS
 62
     5
 10
-374.11961362913462
 20
-452.98999523467512
 30
0.0
 11
-374.12109946171358
 21
-452.99379316218022
 31
0.0
  0
LINE
  8
DETAIL
  6
CONTINUOUS
 62
     5
 10
-374.12109946171358
 20
-452.99379316218022
 30
0.0
 11
-374.12256197739953
 21
-452.99756466238159
 31
0.0
  0
LINE
  8
DETAIL
  6
CONTINUOUS
 62
     5
 10
-374.12256197739953
 20
-452.99756466238159
 30
0.0
 11
-374.12400385078882
 21
-453.00131649017578
 31
0.0
  0
LINE
  8
DETAIL
  6
CONTINUOUS
 62
     5
 10
-374.12400385078882
 20
-453.00131649017578
 30
0.0
 11
-374.12542775647808
 21
-453.00505540045958
 31
0.0
  0
LINE
  8
DETAIL
  6
CONTINUOUS
 62
     5
 10
-374.12542775647808
 20
-453.00505540045958
 30
0.0
 11
-374.12683636906439
 21
-453.00878814812933
 31
0.0
  0
LINE
  8
DETAIL
  6
CONTINUOUS
 62
     5
 10
-374.12683636906439
 20
-453.00878814812933
 30
0.0
 11
-374.12823236314489
 21
-453.01252148808169
 31
0.0
  0
LINE
  8
DETAIL
  6
CONTINUOUS
 62
     5
 10
-374.12823236314489
 20
-453.01252148808169
 30
0.0
 11
-374.12961841331531
 21
-453.01626217521311
 31
0.0
  0
LINE
  8
DETAIL
  6
CONTINUOUS
 62
     5
 10
-374.12961841331531
 20
-453.01626217521311
 30
0.0
 11
-374.13099661595493
 21
-453.02001554963579
 31
0.0
  0
LINE
  8
DETAIL
  6
CONTINUOUS
 62
     5
 10
-374.13099661595493
 20
-453.02001554963579
 30
0.0
 11
-374.13236675456852
 21
-453.02378129233023
 31
0.0
  0
LINE
  8
DETAIL
  6
CONTINUOUS
 62
     5
 10
-374.13236675456852
 20
-453.02378129233023
 30
0.0
 11
-374.13372803444258
 21
-453.02755766949122
 31
0.0
  0
LINE
  8
DETAIL
  6
CONTINUOUS
 62
     5
 10
-374.13372803444258
 20
-453.02755766949122
 30
0.0
 11
-374.13507966086399
 21
-453.03134294731439
 31
0.0
  0
LINE
  8
DETAIL
  6
CONTINUOUS
 62
     5
 10
-374.13507966086399
 20
-453.03134294731439
 30
0.0
 11
-374.13642083911941
 21
-453.03513539199508
 31
0.0
  0
LINE
  8
DETAIL
  6
CONTINUOUS
 62
     5
 10
-374.13642083911941
 20
-453.03513539199508
 30
0.0
 11
-374.13775077449549
 21
-453.03893326972809
 31
0.0
  0
LINE
  8
DETAIL
  6
CONTINUOUS
 62
     5
 10
-374.13775077449549
 20
-453.03893326972809
 30
0.0
 11
-374.13906867227888
 21
-453.04273484670921
 31
0.0
  0
LINE
  8
DETAIL
  6
CONTINUOUS
 62
     5
 10
-374.13906867227888
 20
-453.04273484670921
 30
0.0
 11
-374.14037387310327
 21
-453.04653869104823
 31
0.0
  0
LINE
  8
DETAIL
  6
CONTINUOUS
 62
     5
 10
-374.14037387310327
 20
-453.04653869104823
 30
0.0
 11
-374.14166625898861
 21
-453.05034457850661
 31
0.0
  0
LINE
  8
DETAIL
  6
CONTINUOUS
 62
     5
 10
-374.14166625898861
 20
-453.05034457850661
 30
0.0
 11
-374.14294584730209
 21
-453.05415258675981
 31
0.0
  0
LINE
  8
DETAIL
  6
CONTINUOUS
 62
     5
 10
-374.14294584730209
 20
-453.05415258675981
 30
0.0
 11
-374.14421265541
 21
-453.05796279348328
 31
0.0
  0
LINE
  8
DETAIL
  6
CONTINUOUS
 62
     5
 10
-374.14421265541
 20
-453.05796279348328
 30
0.0
 11
-374.14546670068012
 21
-453.06177527635361
 31
0.0
  0
LINE
  8
DETAIL
  6
CONTINUOUS
 62
     5
 10
-374.14546670068012
 20
-453.06177527635361
 30
0.0
 11
-374.14670800047878
 21
-453.06559011304648
 31
0.0
  0
LINE
  8
DETAIL
  6
CONTINUOUS
 62
     5
 10
-374.14670800047878
 20
-453.06559011304648
 30
0.0
 11
-374.14793657217342
 21
-453.0694073812374
 31
0.0
  0
LINE
  8
DETAIL
  6
CONTINUOUS
 62
     5
 10
-374.14793657217342
 20
-453.0694073812374
 30
0.0
 11
-374.14915246996202
 21
-453.07322736573059
 31
0.0
  0
LINE
  8
DETAIL
  6
CONTINUOUS
 62
     5
 10
-374.14915246996202
 20
-453.07322736573059
 30
0.0
 11
-374.1503558953691
 21
-453.07705117985358
 31
0.0
  0
LINE
  8
DETAIL
  6
CONTINUOUS
 62
     5
 10
-374.1503558953691
 20
-453.07705117985358
 30
0.0
 11
-374.15154708675118
 21
-453.08088014406212
 31
0.0
  0
LINE
  8
DETAIL
  6
CONTINUOUS
 62
     5
 10
-374.15154708675118
 20
-453.08088014406212
 30
0.0
 11
-374.15272628246339
 21
-453.08471557881211
 31
0.0
  0
LINE
  8
DETAIL
  6
CONTINUOUS
 62
     5
 10
-374.15272628246339
 20
-453.08471557881211
 30
0.0
 11
-374.15389372086253
 21
-453.08855880455923
 31
0.0
  0
LINE
  8
DETAIL
  6
CONTINUOUS
 62
     5
 10
-374.15389372086253
 20
-453.08855880455923
 30
0.0
 11
-374.15504964030379
 21
-453.09241114175973
 31
0.0
  0
LINE
  8
DETAIL
  6
CONTINUOUS
 62
     5
 10
-374.15504964030379
 20
-453.09241114175973
 30
0.0
 11
-374.15619427914322
 21
-453.09627391086912
 31
0.0
  0
LINE
  8
DETAIL
  6
CONTINUOUS
 62
     5
 10
-374.15619427914322
 20
-453.09627391086912
 30
0.0
 11
-374.15732759306428
 21
-453.1001473019104
 31
0.0
  0
LINE
  8
DETAIL
  6
CONTINUOUS
 62
     5
 10
-374.15732759306428
 20
-453.1001473019104
 30
0.0
 11
-374.15844840705932
 21
-453.10402698317171
 31
0.0
  0
LINE
  8
DETAIL
  6
CONTINUOUS
 62
     5
 10
-374.15844840705932
 20
-453.10402698317171
 30
0.0
 11
-374.15955526344811
 21
-453.10790749250742
 31
0.0
  0
LINE
  8
DETAIL
  6
CONTINUOUS
 62
     5
 10
-374.15955526344811
 20
-453.10790749250742
 30
0.0
 11
-374.16064670455012
 21
-453.11178336777238
 31
0.0
  0
LINE
  8
DETAIL
  6
CONTINUOUS
 62
     5
 10
-374.16064670455012
 20
-453.11178336777238
 30
0.0
 11
-374.16172127268578
 21
-453.11564914682077
 31
0.0
  0
LINE
  8
DETAIL
  6
CONTINUOUS
 62
     5
 10
-374.16172127268578
 20
-453.11564914682077
 30
0.0
 11
-374.16277751017401
 21
-453.11949936750727
 31
0.0
  0
LINE
  8
DETAIL
  6
CONTINUOUS
 62
     5
 10
-374.16277751017401
 20
-453.11949936750727
 30
0.0
 11
-374.16381395933507
 21
-453.12332856768631
 31
0.0
  0
LINE
  8
DETAIL
  6
CONTINUOUS
 62
     5
 10
-374.16381395933507
 20
-453.12332856768631
 30
0.0
 11
-374.16482965163033
 21
-453.12713309214968
 31
0.0
  0
LINE
  8
DETAIL
  6
CONTINUOUS
 62
     5
 10
-374.16482965163033
 20
-453.12713309214968
 30
0.0
 11
-374.16582557508377
 21
-453.13091651343842
 31
0.0
  0
LINE
  8
DETAIL
  6
CONTINUOUS
 62
     5
 10
-374.16582557508377
 20
-453.13091651343842
 30
0.0
 11
-374.16680320686191
 21
-453.1346842110305
 31
0.0
  0
LINE
  8
DETAIL
  6
CONTINUOUS
 62
     5
 10
-374.16680320686191
 20
-453.1346842110305
 30
0.0
 11
-374.1677640241312
 21
-453.13844156440427
 31
0.0
  0
LINE
  8
DETAIL
  6
CONTINUOUS
 62
     5
 10
-374.1677640241312
 20
-453.13844156440427
 30
0.0
 11
-374.16870950405792
 21
-453.1421939530378
 31
0.0
  0
LINE
  8
DETAIL
  6
CONTINUOUS
 62
     5
 10
-374.16870950405792
 20
-453.1421939530378
 30
0.0
 11
-374.16964112380788
 21
-453.14594675640922
 31
0.0
  0
LINE
  8
DETAIL
  6
CONTINUOUS
 62
     5
 10
-374.16964112380788
 20
-453.14594675640922
 30
0.0
 11
-374.17056036054782
 21
-453.14970535399698
 31
0.0
  0
LINE
  8
DETAIL
  6
CONTINUOUS
 62
     5
 10
-374.17056036054782
 20
-453.14970535399698
 30
0.0
 11
-374.17146836756842
 21
-453.15347398956692
 31
0.0
  0
LINE
  8
DETAIL
  6
CONTINUOUS
 62
     5
 10
-374.17146836756842
 20
-453.15347398956692
 30
0.0
 11
-374.17236500265648
 21
-453.15725236401948
 31
0.0
  0
LINE
  8
DETAIL
  6
CONTINUOUS
 62
     5
 10
-374.17236500265648
 20
-453.15725236401948
 30
0.0
 11
-374.17324979972409
 21
-453.16103904254442
 31
0.0
  0
LINE
  8
DETAIL
  6
CONTINUOUS
 62
     5
 10
-374.17324979972409
 20
-453.16103904254442
 30
0.0
 11
-374.17412229268211
 21
-453.16483259033072
 31
0.0
  0
LINE
  8
DETAIL
  6
CONTINUOUS
 62
     5
 10
-374.17412229268211
 20
-453.16483259033072
 30
0.0
 11
-374.17498201544282
 21
-453.16863157256762
 31
0.0
  0
LINE
  8
DETAIL
  6
CONTINUOUS
 62
     5
 10
-374.17498201544282
 20
-453.16863157256762
 30
0.0
 11
-374.17582850191769
 21
-453.17243455444458
 31
0.0
  0
LINE
  8
DETAIL
  6
CONTINUOUS
 62
     5
 10
-374.17582850191769
 20
-453.17243455444458
 30
0.0
 11
-374.17666128601832
 21
-453.17624010115111
 31
0.0
  0
LINE
  8
DETAIL
  6
CONTINUOUS
 62
     5
 10
-374.17666128601832
 20
-453.17624010115111
 30
0.0
 11
-374.17747998317827
 21
-453.18004703900971
 31
0.0
  0
LINE
  8
DETAIL
  6
CONTINUOUS
 62
     5
 10
-374.17747998317827
 20
-453.18004703900971
 30
0.0
 11
-374.17828453491802
 21
-453.1838552388856
 31
0.0
  0
LINE
  8
DETAIL
  6
CONTINUOUS
 62
     5
 10
-374.17828453491802
 20
-453.1838552388856
 30
0.0
 11
-374.17907496427961
 21
-453.18766483277761
 31
0.0
  0
LINE
  8
DETAIL
  6
CONTINUOUS
 62
     5
 10
-374.17907496427961
 20
-453.18766483277761
 30
0.0
 11
-374.17985129430548
 21
-453.19147595268441
 31
0.0
  0
LINE
  8
DETAIL
  6
CONTINUOUS
 62
     5
 10
-374.17985129430548
 20
-453.19147595268441
 30
0.0
 11
-374.18061354803791
 21
-453.19528873060472
 31
0.0
  0
LINE
  8
DETAIL
  6
CONTINUOUS
 62
     5
 10
-374.18061354803791
 20
-453.19528873060472
 30
0.0
 11
-374.18136174851878
 21
-453.19910329853712
 31
0.0
  0
LINE
  8
DETAIL
  6
CONTINUOUS
 62
     5
 10
-374.18136174851878
 20
-453.19910329853712
 30
0.0
 11
-374.18209591879082
 21
-453.20291978848041
 31
0.0
  0
LINE
  8
DETAIL
  6
CONTINUOUS
 62
     5
 10
-374.18209591879082
 20
-453.20291978848041
 30
0.0
 11
-374.18281607968538
 21
-453.20673842360799
 31
0.0
  0
LINE
  8
DETAIL
  6
CONTINUOUS
 62
     5
 10
-374.18281607968538
 20
-453.20673842360799
 30
0.0
 11
-374.18352224318693
 21
-453.21055979179391
 31
0.0
  0
LINE
  8
DETAIL
  6
CONTINUOUS
 62
     5
 10
-374.18352224318693
 20
-453.21055979179391
 30
0.0
 11
-374.18421441907049
 21
-453.21438457208802
 31
0.0
  0
LINE
  8
DETAIL
  6
CONTINUOUS
 62
     5
 10
-374.18421441907049
 20
-453.21438457208802
 30
0.0
 11
-374.18489261711062
 21
-453.21821344353879
 31
0.0
  0
LINE
  8
DETAIL
  6
CONTINUOUS
 62
     5
 10
-374.18489261711062
 20
-453.21821344353879
 30
0.0
 11
-374.18555684708139
 21
-453.22204708519621
 31
0.0
  0
LINE
  8
DETAIL
  6
CONTINUOUS
 62
     5
 10
-374.18555684708139
 20
-453.22204708519621
 30
0.0
 11
-374.18620711875792
 21
-453.22588617610938
 31
0.0
  0
LINE
  8
DETAIL
  6
CONTINUOUS
 62
     5
 10
-374.18620711875792
 20
-453.22588617610938
 30
0.0
 11
-374.18684344191388
 21
-453.22973139532769
 31
0.0
  0
LINE
  8
DETAIL
  6
CONTINUOUS
 62
     5
 10
-374.18684344191388
 20
-453.22973139532769
 30
0.0
 11
-374.18746575364781
 21
-453.2335827960668
 31
0.0
  0
LINE
  8
DETAIL
  6
CONTINUOUS
 62
     5
 10
-374.18746575364781
 20
-453.2335827960668
 30
0.0
 11
-374.18807370035051
 21
-453.23743792819801
 31
0.0
  0
LINE
  8
DETAIL
  6
CONTINUOUS
 62
     5
 10
-374.18807370035051
 20
-453.23743792819801
 30
0.0
 11
-374.18866685573812
 21
-453.24129371575827
 31
0.0
  0
LINE
  8
DETAIL
  6
CONTINUOUS
 62
     5
 10
-374.18866685573812
 20
-453.24129371575827
 30
0.0
 11
-374.18924479352472
 21
-453.2451470827848
 31
0.0
  0
LINE
  8
DETAIL
  6
CONTINUOUS
 62
     5
 10
-374.18924479352472
 20
-453.2451470827848
 30
0.0
 11
-374.18980708742612
 21
-453.24899495331442
 31
0.0
  0
LINE
  8
DETAIL
  6
CONTINUOUS
 62
     5
 10
-374.18980708742612
 20
-453.24899495331442
 30
0.0
 11
-374.19035331115703
 21
-453.25283425138468
 31
0.0
  0
LINE
  8
DETAIL
  6
CONTINUOUS
 62
     5
 10
-374.19035331115703
 20
-453.25283425138468
 30
0.0
 11
-374.19088303843267
 21
-453.2566619010322
 31
0.0
  0
LINE
  8
DETAIL
  6
CONTINUOUS
 62
     5
 10
-374.19088303843267
 20
-453.2566619010322
 30
0.0
 11
-374.19139598960101
 21
-453.26047583518431
 31
0.0
  0
LINE
  8
DETAIL
  6
CONTINUOUS
 62
     5
 10
-374.19139598960101
 20
-453.26047583518431
 30
0.0
 11
-374.19189247153707
 21
-453.26427802231677
 31
0.0
  0
LINE
  8
DETAIL
  6
CONTINUOUS
 62
     5
 10
-374.19189247153707
 20
-453.26427802231677
 30
0.0
 11
-374.19237293775041
 21
-453.26807143979539
 31
0.0
  0
LINE
  8
DETAIL
  6
CONTINUOUS
 62
     5
 10
-374.19237293775041
 20
-453.26807143979539
 30
0.0
 11
-374.19283784174831
 21
-453.27185906498562
 31
0.0
  0
LINE
  8
DETAIL
  6
CONTINUOUS
 62
     5
 10
-374.19283784174831
 20
-453.27185906498562
 30
0.0
 11
-374.1932876370397
 21
-453.27564387525291
 31
0.0
  0
LINE
  8
DETAIL
  6
CONTINUOUS
 62
     5
 10
-374.1932876370397
 20
-453.27564387525291
 30
0.0
 11
-374.19372277713302
 21
-453.27942884796289
 31
0.0
  0
LINE
  8
DETAIL
  6
CONTINUOUS
 62
     5
 10
-374.19372277713302
 20
-453.27942884796289
 30
0.0
 11
-374.19414371553648
 21
-453.28321696048079
 31
0.0
  0
LINE
  8
DETAIL
  6
CONTINUOUS
 62
     5
 10
-374.19414371553648
 20
-453.28321696048079
 30
0.0
 11
-374.1945507969408
 21
-453.28701054656011
 31
0.0
  0
LINE
  8
DETAIL
  6
CONTINUOUS
 62
     5
 10
-374.1945507969408
 20
-453.28701054656011
 30
0.0
 11
-374.19494393076047
 21
-453.29080936551321
 31
0.0
  0
LINE
  8
DETAIL
  6
CONTINUOUS
 62
     5
 10
-374.19494393076047
 20
-453.29080936551321
 30
0.0
 11
-374.1953229175931
 21
-453.29461253304038
 31
0.0
  0
LINE
  8
DETAIL
  6
CONTINUOUS
 62
     5
 10
-374.1953229175931
 20
-453.29461253304038
 30
0.0
 11
-374.19568755803579
 21
-453.29841916484162
 31
0.0
  0
LINE
  8
DETAIL
  6
CONTINUOUS
 62
     5
 10
-374.19568755803579
 20
-453.29841916484162
 30
0.0
 11
-374.19603765268607
 21
-453.30222837661631
 31
0.0
  0
LINE
  8
DETAIL
  6
CONTINUOUS
 62
     5
 10
-374.19603765268607
 20
-453.30222837661631
 30
0.0
 11
-374.19637300214117
 21
-453.30603928406481
 31
0.0
  0
LINE
  8
DETAIL
  6
CONTINUOUS
 62
     5
 10
-374.19637300214117
 20
-453.30603928406481
 30
0.0
 11
-374.19669340699778
 21
-453.30985100288672
 31
0.0
  0
LINE
  8
DETAIL
  6
CONTINUOUS
 62
     5
 10
-374.19669340699778
 20
-453.30985100288672
 30
0.0
 11
-374.19699873564508
 21
-453.31366282189202
 31
0.0
  0
LINE
  8
DETAIL
  6
CONTINUOUS
 62
     5
 10
-374.19699873564508
 20
-453.31366282189202
 30
0.0
 11
-374.19728912763458
 21
-453.31747472233661
 31
0.0
  0
LINE
  8
DETAIL
  6
CONTINUOUS
 62
     5
 10
-374.19728912763458
 20
-453.31747472233661
 30
0.0
 11
-374.19756479030912
 21
-453.32128685858493
 31
0.0
  0
LINE
  8
DETAIL
  6
CONTINUOUS
 62
     5
 10
-374.19756479030912
 20
-453.32128685858493
 30
0.0
 11
-374.19782593101257
 21
-453.3250993850022
 31
0.0
  0
LINE
  8
DETAIL
  6
CONTINUOUS
 62
     5
 10
-374.19782593101257
 20
-453.3250993850022
 30
0.0
 11
-374.1980727570874
 21
-453.32891245595329
 31
0.0
  0
LINE
  8
DETAIL
  6
CONTINUOUS
 62
     5
 10
-374.1980727570874
 20
-453.32891245595329
 30
0.0
 11
-374.19830547587708
 21
-453.33272622580262
 31
0.0
  0
LINE
  8
DETAIL
  6
CONTINUOUS
 62
     5
 10
-374.19830547587708
 20
-453.33272622580262
 30
0.0
 11
-374.19852429472479
 21
-453.33654084891532
 31
0.0
  0
LINE
  8
DETAIL
  6
CONTINUOUS
 62
     5
 10
-374.19852429472479
 20
-453.33654084891532
 30
0.0
 11
-374.19872925862887
 21
-453.34035643082228
 31
0.0
  0
LINE
  8
DETAIL
  6
CONTINUOUS
 62
     5
 10
-374.19872925862887
 20
-453.34035643082228
 30
0.0
 11
-374.19891976320451
 21
-453.34417288172881
 31
0.0
  0
LINE
  8
DETAIL
  6
CONTINUOUS
 62
     5
 10
-374.19891976320451
 20
-453.34417288172881
 30
0.0
 11
-374.19909504172227
 21
-453.34799006300523
 31
0.0
  0
LINE
  8
DETAIL
  6
CONTINUOUS
 62
     5
 10
-374.19909504172227
 20
-453.34799006300523
 30
0.0
 11
-374.19925432745322
 21
-453.35180783602277
 31
0.0
  0
LINE
  8
DETAIL
  6
CONTINUOUS
 62
     5
 10
-374.19925432745322
 20
-453.35180783602277
 30
0.0
 11
-374.19939685366739
 21
-453.35562606215171
 31
0.0
  0
LINE
  8
DETAIL
  6
CONTINUOUS
 62
     5
 10
-374.19939685366739
 20
-453.35562606215171
 30
0.0
 11
-374.19952185363582
 21
-453.35944460276352
 31
0.0
  0
LINE
  8
DETAIL
  6
CONTINUOUS
 62
     5
 10
-374.19952185363582
 20
-453.35944460276352
 30
0.0
 11
-374.19962856062921
 21
-453.36326331922828
 31
0.0
  0
LINE
  8
DETAIL
  6
CONTINUOUS
 62
     5
 10
-374.19962856062921
 20
-453.36326331922828
 30
0.0
 11
-374.19971678950759
 21
-453.36708209513688
 31
0.0
  0
LINE
  8
DETAIL
  6
CONTINUOUS
 62
     5
 10
-374.19971678950759
 20
-453.36708209513688
 30
0.0
 11
-374.19978868149627
 21
-453.37090090295129
 31
0.0
  0
LINE
  8
DETAIL
  6
CONTINUOUS
 62
     5
 10
-374.19978868149627
 20
-453.37090090295129
 30
0.0
 11
-374.19984695941002
 21
-453.37471973735433
 31
0.0
  0
LINE
  8
DETAIL
  6
CONTINUOUS
 62
     5
 10
-374.19984695941002
 20
-453.37471973735433
 30
0.0
 11
-374.19989434606401
 21
-453.37853859302783
 31
0.0
  0
LINE
  8
DETAIL
  6
CONTINUOUS
 62
     5
 10
-374.19989434606401
 20
-453.37853859302783
 30
0.0
 11
-374.1999335642729
 21
-453.38235746465438
 31
0.0
  0
LINE
  8
DETAIL
  6
CONTINUOUS
 62
     5
 10
-374.1999335642729
 20
-453.38235746465438
 30
0.0
 11
-374.19996733685213
 21
-453.38617634691718
 31
0.0
  0
LINE
  8
DETAIL
  6
CONTINUOUS
 62
     5
 10
-374.19996733685213
 20
-453.38617634691718
 30
0.0
 11
-374.19999838661619
 21
-453.3899952344982
 31
0.0
  0
ARC
  8
DETAIL
  6
CONTINUOUS
 62
     5
 10
374.0
 20
-453.38999999999942
 30
0.0
 40
0.6
 50
270.0
 51
0.0
  0
ARC
  8
DETAIL
  6
CONTINUOUS
 62
     5
 10
374.0
 20
-405.79000000000087
 30
0.0
 40
0.6
 50
0.0
 51
90.0
  0
ARC
  8
DETAIL
  6
CONTINUOUS
 62
     5
 10
364.89999999999958
 20
-405.79000000000087
 30
0.0
 40
0.6
 50
0.0
 51
90.0
  0
ARC
  8
DETAIL
  6
CONTINUOUS
 62
     5
 10
370.49999999999909
 20
-405.79000000000087
 30
0.0
 40
0.6
 50
90.0
 51
180.0
  0
ARC
  8
DETAIL
  6
CONTINUOUS
 62
     5
 10
374.0
 20
-453.38999999999942
 30
0.0
 40
1.2
 50
270.0
 51
0.0
  0
ARC
  8
DETAIL
  6
CONTINUOUS
 62
     5
 10
374.0
 20
-405.79000000000087
 30
0.0
 40
1.2
 50
0.0
 51
90.0
  0
ARC
  8
DETAIL
  6
CONTINUOUS
 62
     5
 10
372.79999999999927
 20
-402.18999999999858
 30
0.0
 40
1.2
 50
270.0
 51
0.0
  0
ARC
  8
DETAIL
  6
CONTINUOUS
 62
     5
 10
372.79999999999927
 20
-402.18999999999858
 30
0.0
 40
2.3999999999999999
 50
270.0
 51
0.0
  0
ARC
  8
DETAIL
  6
CONTINUOUS
 62
     5
 10
-373.60000000000042
 20
-453.38999999999942
 30
0.0
 40
0.6
 50
180.0
 51
270.0
  0
ARC
  8
DETAIL
  6
CONTINUOUS
 62
     5
 10
-373.60000000000042
 20
-405.79000000000087
 30
0.0
 40
0.6
 50
90.0
 51
180.0
  0
ARC
  8
DETAIL
  6
CONTINUOUS
 62
     5
 10
-370.10000000000042
 20
-405.79000000000087
 30
0.0
 40
0.6
 50
0.0
 51
90.0
  0
ARC
  8
DETAIL
  6
CONTINUOUS
 62
     5
 10
-364.50000000000091
 20
-405.79000000000087
 30
0.0
 40
0.6
 50
90.0
 51
180.0
  0
ARC
  8
DETAIL
  6
CONTINUOUS
 62
     5
 10
-373.60000000000042
 20
-453.38999999999942
 30
0.0
 40
1.2
 50
180.0
 51
270.0
  0
ARC
  8
DETAIL
  6
CONTINUOUS
 62
     5
 10
-373.60000000000042
 20
-405.79000000000087
 30
0.0
 40
1.2
 50
90.0
 51
180.0
  0
ARC
  8
DETAIL
  6
CONTINUOUS
 62
     5
 10
-372.40000000000049
 20
-402.18999999999858
 30
0.0
 40
1.2
 50
180.0
 51
270.0
  0
ARC
  8
DETAIL
  6
CONTINUOUS
 62
     5
 10
-372.40000000000049
 20
-402.18999999999858
 30
0.0
 40
2.3999999999999999
 50
180.0
 51
270.0
  0
LINE
  8
DETAIL
  6
CONTINUOUS
 62
     5
 10
371.99999999999909
 20
-469.59000000000009
 30
0.0
 11
374.0
 21
-467.59000000000009
 31
0.0
  0
LINE
  8
DETAIL
  6
CONTINUOUS
 62
     5
 10
375.19999999999982
 20
-402.18999999999858
 30
0.0
 11
375.19999999999982
 21
-204.59000000000009
 31
0.0
  0
LINE
  8
DETAIL
  6
DIVIDE
 62
     5
 10
375.19999999999982
 20
-405.79000000000087
 30
0.0
 11
375.19999999999982
 21
-453.38999999999942
 31
0.0
  0
LINE
  8
DETAIL
  6
CONTINUOUS
 62
     5
 10
374.0
 20
-402.18999999999858
 30
0.0
 11
374.0
 21
-204.59000000000009
 31
0.0
  0
LINE
  8
DETAIL
  6
DIVIDE
 62
     5
 10
374.0
 20
-467.59000000000009
 30
0.0
 11
374.0
 21
-453.38999999999942
 31
0.0
  0
LINE
  8
DETAIL
  6
DASHDOT
 62
     5
 10
365.19999999999982
 20
-443.38999999999942
 30
0.0
 11
365.19999999999982
 21
-444.59000000000009
 31
0.0
  0
LINE
  8
DETAIL
  6
CONTINUOUS
 62
     5
 10
362.19999999999982
 20
-403.38999999999942
 30
0.0
 11
362.19999999999982
 21
-404.59000000000009
 31
0.0
  0
LINE
  8
DETAIL
  6
DIVIDE
 62
     5
 10
360.19999999999982
 20
-438.38999999999942
 30
0.0
 11
360.19999999999982
 21
-405.79000000000087
 31
0.0
  0
LINE
  8
DETAIL
  6
CONTINUOUS
 62
     5
 10
360.19999999999982
 20
-403.38999999999942
 30
0.0
 11
360.19999999999982
 21
-405.19000000000233
 31
0.0
  0
LINE
  8
DETAIL
  6
CONTINUOUS
 62
     5
 10
372.19999999999982
 20
-204.59000000000009
 30
0.0
 11
365.19999999999982
 21
-211.59000000000009
 31
0.0
  0
LINE
  8
DETAIL
  6
DIVIDE
 62
     5
 10
374.0
 20
-452.18999999999858
 30
0.0
 11
360.19999999999982
 21
-438.38999999999942
 31
0.0
  0
LINE
  8
DETAIL
  6
DIVIDE
 62
     5
 10
360.19999999999982
 20
-439.59000000000009
 30
0.0
 11
374.0
 21
-453.38999999999942
 31
0.0
  0
LINE
  8
DETAIL
  6
CONTINUOUS
 62
     5
 10
372.19999999999982
 20
-204.59000000000009
 30
0.0
 11
375.19999999999982
 21
-204.59000000000009
 31
0.0
  0
LINE
  8
DETAIL
  6
CONTINUOUS
 62
     5
 10
-371.79999999999927
 20
-204.59000000000009
 30
0.0
 11
-374.80000000000018
 21
-204.59000000000009
 31
0.0
  0
LINE
  8
DETAIL
  6
CONTINUOUS
 62
     5
 10
374.0
 20
-394.59000000000009
 30
0.0
 11
375.19999999999982
 21
-394.59000000000009
 31
0.0
  0
LINE
  8
DETAIL
  6
CONTINUOUS
 62
     5
 10
-373.60000000000042
 20
-402.18999999999858
 30
0.0
 11
-364.80000000000018
 21
-402.18999999999858
 31
0.0
  0
LINE
  8
DETAIL
  6
CONTINUOUS
 62
     5
 10
360.19999999999982
 20
-403.38999999999942
 30
0.0
 11
372.79999999999927
 21
-403.38999999999942
 31
0.0
  0
LINE
  8
DETAIL
  6
CONTINUOUS
 62
     5
 10
-372.40000000000049
 20
-403.38999999999942
 30
0.0
 11
-359.80000000000018
 21
-403.38999999999942
 31
0.0
  0
LINE
  8
DETAIL
  6
DIVIDE
 62
     5
 10
-373.60000000000042
 20
-404.59000000000009
 30
0.0
 11
-359.80000000000018
 21
-404.59000000000009
 31
0.0
  0
LINE
  8
DETAIL
  6
DIVIDE
 62
     5
 10
374.0
 20
-404.59000000000009
 30
0.0
 11
360.19999999999982
 21
-404.59000000000009
 31
0.0
  0
LINE
  8
DETAIL
  6
DIVIDE
 62
     5
 10
-373.60000000000042
 20
-405.19000000000233
 30
0.0
 11
-359.80000000000018
 21
-405.19000000000233
 31
0.0
  0
LINE
  8
DETAIL
  6
DIVIDE
 62
     5
 10
374.0
 20
-405.19000000000233
 30
0.0
 11
360.19999999999982
 21
-405.19000000000233
 31
0.0
  0
LINE
  8
DETAIL
  6
DIVIDE
 62
     5
 10
360.19999999999982
 20
-405.79000000000087
 30
0.0
 11
375.19999999999982
 21
-405.79000000000087
 31
0.0
  0
LINE
  8
DETAIL
  6
DIVIDE
 62
     5
 10
-374.80000000000018
 20
-405.79000000000087
 30
0.0
 11
-359.80000000000018
 21
-405.79000000000087
 31
0.0
  0
LINE
  8
DETAIL
  6
CONTINUOUS
 62
     5
 10
-364.80000000000018
 20
-211.59000000000009
 30
0.0
 11
-371.79999999999927
 21
-204.59000000000009
 31
0.0
  0
LINE
  8
DETAIL
  6
DIVIDE
 62
     5
 10
-359.80000000000018
 20
-439.59000000000009
 30
0.0
 11
360.19999999999982
 21
-439.59000000000009
 31
0.0
  0
LINE
  8
DETAIL
  6
CONTINUOUS
 62
     5
 10
374.0
 20
-453.38999999999942
 30
0.0
 11
375.19999999999982
 21
-453.38999999999942
 31
0.0
  0
LINE
  8
DETAIL
  6
CONTINUOUS
 62
     5
 10
-374.80000000000018
 20
-453.38999999999942
 30
0.0
 11
-373.60000000000042
 21
-453.38999999999942
 31
0.0
  0
LINE
  8
DETAIL
  6
DIVIDE
 62
     5
 10
-373.60000000000042
 20
-453.38999999999942
 30
0.0
 11
-359.80000000000018
 21
-439.59000000000009
 31
0.0
  0
LINE
  8
DETAIL
  6
DIVIDE
 62
     5
 10
-359.80000000000018
 20
-438.38999999999942
 30
0.0
 11
-373.60000000000042
 21
-452.18999999999858
 31
0.0
  0
LINE
  8
DETAIL
  6
DIVIDE
 62
     5
 10
374.0
 20
-454.59000000000009
 30
0.0
 11
-373.60000000000042
 21
-454.59000000000009
 31
0.0
  0
LINE
  8
DETAIL
  6
DIVIDE
 62
     5
 10
-371.60000000000042
 20
-469.59000000000009
 30
0.0
 11
371.99999999999909
 21
-469.59000000000009
 31
0.0
  0
LINE
  8
DETAIL
  6
DIVIDE
 62
     5
 10
-359.80000000000018
 20
-405.79000000000087
 30
0.0
 11
-359.80000000000018
 21
-438.38999999999942
 31
0.0
  0
LINE
  8
DETAIL
  6
CONTINUOUS
 62
     5
 10
-359.80000000000018
 20
-403.38999999999942
 30
0.0
 11
-359.80000000000018
 21
-405.19000000000233
 31
0.0
  0
LINE
  8
DETAIL
  6
CONTINUOUS
 62
     5
 10
-361.79999999999927
 20
-403.38999999999942
 30
0.0
 11
-361.79999999999927
 21
-404.59000000000009
 31
0.0
  0
LINE
  8
DETAIL
  6
CONTINUOUS
 62
     5
 10
-364.80000000000018
 20
-402.18999999999858
 30
0.0
 11
-364.80000000000018
 21
-211.59000000000009
 31
0.0
  0
LINE
  8
DETAIL
  6
DIVIDE
 62
     5
 10
-373.60000000000042
 20
-467.59000000000009
 30
0.0
 11
-373.60000000000042
 21
-453.38999999999942
 31
0.0
  0
LINE
  8
DETAIL
  6
CONTINUOUS
 62
     5
 10
-373.60000000000042
 20
-204.59000000000009
 30
0.0
 11
-373.60000000000042
 21
-402.18999999999858
 31
0.0
  0
LINE
  8
DETAIL
  6
DIVIDE
 62
     5
 10
-374.80000000000018
 20
-453.38999999999942
 30
0.0
 11
-374.80000000000018
 21
-405.79000000000087
 31
0.0
  0
LINE
  8
DETAIL
  6
CONTINUOUS
 62
     5
 10
-374.80000000000018
 20
-204.59000000000009
 30
0.0
 11
-374.80000000000018
 21
-402.18999999999858
 31
0.0
  0
LINE
  8
DETAIL
  6
CONTINUOUS
 62
     5
 10
-373.60000000000042
 20
-467.59000000000009
 30
0.0
 11
-371.60000000000042
 21
-469.59000000000009
 31
0.0
  0
ARC
  8
DETAIL
  6
CONTINUOUS
 62
     5
 10
-369.60000000000042
 20
-605.0
 30
0.0
 40
5.0
 50
180.0
 51
270.0
  0
CIRCLE
  8
DETAIL
  6
CONTINUOUS
 62
     5
 10
-329.80000000000018
 20
-395.0
 30
0.0
 40
1.45
  0
ARC
  8
DETAIL
  6
CONTINUOUS
 62
     5
 10
-278.20000000000073
 20
-352.59000000000009
 30
0.0
 40
2.0
 50
180.0
 51
216.83186500000571
  0
CIRCLE
  8
DETAIL
  6
CONTINUOUS
 62
     5
 10
-329.80000000000018
 20
-395.0
 30
0.0
 40
2.0178799999999999
  0
CIRCLE
  8
DETAIL
  6
CONTINUOUS
 62
     5
 10
-329.80000000000018
 20
-395.0
 30
0.0
 40
4.7999999999999998
  0
ARC
  8
DETAIL
  6
CONTINUOUS
 62
     5
 10
-272.30000000000018
 20
-351.16749999999962
 30
0.0
 40
6.5225
 50
223.89739800000081
 51
316.10260199999931
  0
ARC
  8
DETAIL
  6
CONTINUOUS
 62
     5
 10
-288.60000000000042
 20
-1.200000000000728
 30
0.0
 40
0.6
 50
90.0
 51
180.0
  0
ARC
  8
DETAIL
  6
CONTINUOUS
 62
     5
 10
-288.60000000000042
 20
-1.200000000000728
 30
0.0
 40
1.2
 50
90.0
 51
180.0
  0
CIRCLE
  8
DETAIL
  6
CONTINUOUS
 62
     5
 10
207.69999999999979
 20
-345.0
 30
0.0
 40
1.5
  0
ARC
  8
DETAIL
  6
CONTINUOUS
 62
     5
 10
278.60000000000042
 20
-352.59000000000009
 30
0.0
 40
2.0
 50
323.16813499999432
 51
0.0
  0
ARC
  8
DETAIL
  6
CONTINUOUS
 62
     5
 10
370.0
 20
-605.0
 30
0.0
 40
5.0
 50
270.0
 51
0.0
  0
ARC
  8
DETAIL
  6
CONTINUOUS
 62
     5
 10
272.69999999999982
 20
-351.16749999999962
 30
0.0
 40
6.5225
 50
223.89739800000081
 51
316.10260199999931
  0
ARC
  8
DETAIL
  6
CONTINUOUS
 62
     5
 10
289.0
 20
-1.200000000000728
 30
0.0
 40
0.6
 50
0.0
 51
90.0
  0
ARC
  8
DETAIL
  6
CONTINUOUS
 62
     5
 10
289.0
 20
-1.200000000000728
 30
0.0
 40
1.2
 50
0.0
 51
90.0
  0
LINE
  8
DETAIL
  6
CONTINUOUS
 62
     5
 10
-368.5
 20
-0.5999999999985448
 30
0.0
 11
-371.5
 21
-3.6000000000021828
 31
0.0
  0
LINE
  8
DETAIL
  6
CONTINUOUS
 62
     5
 10
-295.60000000000042
 20
0.0
 30
0.0
 11
-297.60000000000042
 21
-1.999999999996362
 31
0.0
  0
LINE
  8
DETAIL
  6
CONTINUOUS
 62
     5
 10
-295.60000000000042
 20
-2.6000000000021828
 30
0.0
 11
-297.60000000000042
 21
-4.6000000000021828
 31
0.0
  0
LINE
  8
DETAIL
  6
CONTINUOUS
 62
     5
 10
-374.60000000000042
 20
-605.0
 30
0.0
 11
-374.60000000000042
 21
0.0
 31
0.0
  0
LINE
  8
DETAIL
  6
CONTINUOUS
 62
     5
 10
-371.5
 20
-401.39999999999782
 30
0.0
 11
-371.5
 21
-3.6000000000021828
 31
0.0
  0
LINE
  8
DETAIL
  6
CONTINUOUS
 62
     5
 10
-354.60000000000042
 20
-404.40000000000151
 30
0.0
 11
-354.60000000000042
 21
-610.0
 31
0.0
  0
LINE
  8
DETAIL
  6
CONTINUOUS
 62
     5
 10
-354.60000000000042
 20
0.0
 30
0.0
 11
-354.60000000000042
 21
-0.5999999999985448
 31
0.0
  0
LINE
  8
DETAIL
  6
CONTINUOUS
 62
     5
 10
-350.78014000000081
 20
-342.59000000000009
 30
0.0
 11
-350.78014000000081
 21
-353.98999999999802
 31
0.0
  0
LINE
  8
DETAIL
  6
CONTINUOUS
 62
     5
 10
-349.88574000000148
 20
-355.18536999999918
 30
0.0
 11
-349.80000000000018
 21
-355.19000000000233
 31
0.0
  0
LINE
  8
DETAIL
  6
CONTINUOUS
 62
     5
 10
-349.97020000000089
 20
-355.17176000000109
 30
0.0
 11
-349.88574000000148
 21
-355.18536999999918
 31
0.0
  0
LINE
  8
DETAIL
  6
CONTINUOUS
 62
     5
 10
-350.05367000000109
 20
-355.14907999999917
 30
0.0
 11
-349.97020000000089
 21
-355.17176000000109
 31
0.0
  0
LINE
  8
DETAIL
  6
CONTINUOUS
 62
     5
 10
-350.13522999999992
 20
-355.11763000000047
 30
0.0
 11
-350.05367000000109
 21
-355.14907999999917
 31
0.0
  0
LINE
  8
DETAIL
  6
CONTINUOUS
 62
     5
 10
-350.21421000000009
 20
-355.07754000000199
 30
0.0
 11
-350.13522999999992
 21
-355.11763000000047
 31
0.0
  0
LINE
  8
DETAIL
  6
CONTINUOUS
 62
     5
 10
-350.29007000000001
 20
-355.0292300000001
 30
0.0
 11
-350.21421000000009
 21
-355.07754000000199
 31
0.0
  0
LINE
  8
DETAIL
  6
CONTINUOUS
 62
     5
 10
-350.36217000000028
 20
-354.97295999999909
 30
0.0
 11
-350.29007000000001
 21
-355.0292300000001
 31
0.0
  0
LINE
  8
DETAIL
  6
CONTINUOUS
 62
     5
 10
-350.43001999999979
 20
-354.90925000000061
 30
0.0
 11
-350.36217000000028
 21
-354.97295999999909
 31
0.0
  0
LINE
  8
DETAIL
  6
CONTINUOUS
 62
     5
 10
-350.49304999999998
 20
-354.83850000000172
 30
0.0
 11
-350.43001999999979
 21
-354.90925000000061
 31
0.0
  0
LINE
  8
DETAIL
  6
CONTINUOUS
 62
     5
 10
-350.55083000000081
 20
-354.76134000000093
 30
0.0
 11
-350.49304999999998
 21
-354.83850000000172
 31
0.0
  0
LINE
  8
DETAIL
  6
CONTINUOUS
 62
     5
 10
-350.60286000000087
 20
-354.67827000000023
 30
0.0
 11
-350.55083000000081
 21
-354.76134000000093
 31
0.0
  0
LINE
  8
DETAIL
  6
CONTINUOUS
 62
     5
 10
-350.64882000000028
 20
-354.59000000000009
 30
0.0
 11
-350.60286000000087
 21
-354.67827000000023
 31
0.0
  0
LINE
  8
DETAIL
  6
CONTINUOUS
 62
     5
 10
-350.68829000000102
 20
-354.49712999999969
 30
0.0
 11
-350.64882000000028
 21
-354.59000000000009
 31
0.0
  0
LINE
  8
DETAIL
  6
CONTINUOUS
 62
     5
 10
-350.72103000000061
 20
-354.40042000000182
 30
0.0
 11
-350.68829000000102
 21
-354.49712999999969
 31
0.0
  0
LINE
  8
DETAIL
  6
CONTINUOUS
 62
     5
 10
-350.74672000000101
 20
-354.30056999999942
 30
0.0
 11
-350.72103000000061
 21
-354.40042000000182
 31
0.0
  0
LINE
  8
DETAIL
  6
CONTINUOUS
 62
     5
 10
-350.76525000000038
 20
-354.19836999999819
 30
0.0
 11
-350.74672000000101
 21
-354.30056999999942
 31
0.0
  0
LINE
  8
DETAIL
  6
CONTINUOUS
 62
     5
 10
-350.77636000000172
 20
-354.09497999999797
 30
0.0
 11
-350.76525000000038
 21
-354.19836999999819
 31
0.0
  0
LINE
  8
DETAIL
  6
CONTINUOUS
 62
     5
 10
-350.78014000000081
 20
-353.98999999999802
 30
0.0
 11
-350.77636000000172
 21
-354.09497999999797
 31
0.0
  0
LINE
  8
DETAIL
  6
CONTINUOUS
 62
     5
 10
-371.5
 20
-401.39999999999782
 30
0.0
 11
-368.5
 21
-404.40000000000151
 31
0.0
  0
LINE
  8
DETAIL
  6
CONTINUOUS
 62
     5
 10
221.99999999999909
 20
-619.0
 30
0.0
 11
201.99999999999909
 21
-619.0
 31
0.0
  0
LINE
  8
DETAIL
  6
CONTINUOUS
 62
     5
 10
244.0
 20
-619.0
 30
0.0
 11
224.0
 21
-619.0
 31
0.0
  0
LINE
  8
DETAIL
  6
CONTINUOUS
 62
     5
 10
266.0
 20
-619.0
 30
0.0
 11
246.0
 21
-619.0
 31
0.0
  0
LINE
  8
DETAIL
  6
CONTINUOUS
 62
     5
 10
287.99999999999909
 20
-619.0
 30
0.0
 11
267.99999999999909
 21
-619.0
 31
0.0
  0
LINE
  8
DETAIL
  6
CONTINUOUS
 62
     5
 10
310.0
 20
-619.0
 30
0.0
 11
290.0
 21
-619.0
 31
0.0
  0
LINE
  8
DETAIL
  6
CONTINUOUS
 62
     5
 10
221.99999999999909
 20
-617.63589000000138
 30
0.0
 11
201.99999999999909
 21
-617.63589000000138
 31
0.0
  0
LINE
  8
DETAIL
  6
CONTINUOUS
 62
     5
 10
244.0
 20
-617.63589000000138
 30
0.0
 11
224.0
 21
-617.63589000000138
 31
0.0
  0
LINE
  8
DETAIL
  6
CONTINUOUS
 62
     5
 10
266.0
 20
-617.63589000000138
 30
0.0
 11
246.0
 21
-617.63589000000138
 31
0.0
  0
LINE
  8
DETAIL
  6
CONTINUOUS
 62
     5
 10
287.99999999999909
 20
-617.63589000000138
 30
0.0
 11
267.99999999999909
 21
-617.63589000000138
 31
0.0
  0
LINE
  8
DETAIL
  6
CONTINUOUS
 62
     5
 10
310.0
 20
-617.63589000000138
 30
0.0
 11
290.0
 21
-617.63589000000138
 31
0.0
  0
LINE
  8
DETAIL
  6
CONTINUOUS
 62
     5
 10
325.0
 20
-613.00000000000364
 30
0.0
 11
186.99999999999909
 21
-613.00000000000364
 31
0.0
  0
LINE
  8
DETAIL
  6
CONTINUOUS
 62
     5
 10
370.0
 20
-610.0
 30
0.0
 11
-369.60000000000042
 21
-610.0
 31
0.0
  0
LINE
  8
DETAIL
  6
CONTINUOUS
 62
     5
 10
-299.80000000000018
 20
-355.19000000000233
 30
0.0
 11
-299.80000000000018
 21
-402.59000000000009
 31
0.0
  0
LINE
  8
DETAIL
  6
CONTINUOUS
 62
     5
 10
-297.60000000000042
 20
-1.999999999996362
 30
0.0
 11
-297.60000000000042
 21
-340.59000000000009
 31
0.0
  0
LINE
  8
DETAIL
  6
CONTINUOUS
 62
     5
 10
-299.80000000000018
 20
-402.59000000000009
 30
0.0
 11
-297.80000000000109
 21
-404.59000000000009
 31
0.0
  0
LINE
  8
DETAIL
  6
CONTINUOUS
 62
     5
 10
-349.62624000000051
 20
-340.59000000000009
 30
0.0
 11
-350.78014000000081
 21
-342.59000000000009
 31
0.0
  0
LINE
  8
DETAIL
  6
CONTINUOUS
 62
     5
 10
-289.80000000000018
 20
-1.200000000000728
 30
0.0
 11
-289.80000000000018
 21
-15.0
 31
0.0
  0
LINE
  8
DETAIL
  6
CONTINUOUS
 62
     5
 10
-289.19999999999982
 20
-1.200000000000728
 30
0.0
 11
-289.19999999999982
 21
-15.0
 31
0.0
  0
LINE
  8
DETAIL
  6
CONTINUOUS
 62
     5
 10
-287.80000000000109
 20
0.0
 30
0.0
 11
-287.80000000000109
 21
-15.0
 31
0.0
  0
LINE
  8
DETAIL
  6
CONTINUOUS
 62
     5
 10
-281.98014000000057
 20
-353.98999999999802
 30
0.0
 11
-281.98014000000057
 21
-340.59000000000009
 31
0.0
  0
LINE
  8
DETAIL
  6
CONTINUOUS
 62
     5
 10
-281.49007000000171
 20
-353.98999999999802
 30
0.0
 11
-281.49007000000171
 21
-340.59000000000009
 31
0.0
  0
LINE
  8
DETAIL
  6
CONTINUOUS
 62
     5
 10
-281.0
 20
-355.19000000000233
 30
0.0
 11
-281.0
 21
-354.59000000000009
 31
0.0
  0
LINE
  8
DETAIL
  6
CONTINUOUS
 62
     5
 10
-280.19999999999982
 20
-270.0
 30
0.0
 11
-280.19999999999982
 21
-15.0
 31
0.0
  0
LINE
  8
DETAIL
  6
CONTINUOUS
 62
     5
 10
-280.19999999999982
 20
-352.59000000000009
 30
0.0
 11
-280.19999999999982
 21
-330.0
 31
0.0
  0
LINE
  8
DETAIL
  6
CONTINUOUS
 62
     5
 10
-279.80000000000018
 20
-340.59000000000009
 30
0.0
 11
-279.80000000000018
 21
-355.19000000000233
 31
0.0
  0
LINE
  8
DETAIL
  6
CONTINUOUS
 62
     5
 10
-277.00000000000091
 20
-355.19000000000233
 30
0.0
 11
-277.00000000000091
 21
-355.68999999999869
 31
0.0
  0
LINE
  8
DETAIL
  6
CONTINUOUS
 62
     5
 10
-267.60000000000042
 20
-355.19000000000233
 30
0.0
 11
-267.60000000000042
 21
-355.68999999999869
 31
0.0
  0
LINE
  8
DETAIL
  6
CONTINUOUS
 62
     5
 10
-281.08574000000038
 20
-355.18536999999918
 30
0.0
 11
-281.0
 21
-355.19000000000233
 31
0.0
  0
LINE
  8
DETAIL
  6
CONTINUOUS
 62
     5
 10
-281.17020000000048
 20
-355.17176000000109
 30
0.0
 11
-281.08574000000038
 21
-355.18536999999918
 31
0.0
  0
LINE
  8
DETAIL
  6
CONTINUOUS
 62
     5
 10
-281.25367000000011
 20
-355.14907999999917
 30
0.0
 11
-281.17020000000048
 21
-355.17176000000109
 31
0.0
  0
LINE
  8
DETAIL
  6
CONTINUOUS
 62
     5
 10
-281.33523000000059
 20
-355.11763000000047
 30
0.0
 11
-281.25367000000011
 21
-355.14907999999917
 31
0.0
  0
LINE
  8
DETAIL
  6
CONTINUOUS
 62
     5
 10
-281.41421000000082
 20
-355.07754000000199
 30
0.0
 11
-281.33523000000059
 21
-355.11763000000047
 31
0.0
  0
LINE
  8
DETAIL
  6
CONTINUOUS
 62
     5
 10
-281.49007000000171
 20
-355.0292300000001
 30
0.0
 11
-281.41421000000082
 21
-355.07754000000199
 31
0.0
  0
LINE
  8
DETAIL
  6
CONTINUOUS
 62
     5
 10
-281.56217000000112
 20
-354.97295999999909
 30
0.0
 11
-281.49007000000171
 21
-355.0292300000001
 31
0.0
  0
LINE
  8
DETAIL
  6
CONTINUOUS
 62
     5
 10
-281.63002000000051
 20
-354.90925000000061
 30
0.0
 11
-281.56217000000112
 21
-354.97295999999909
 31
0.0
  0
LINE
  8
DETAIL
  6
CONTINUOUS
 62
     5
 10
-281.69304999999991
 20
-354.83850000000172
 30
0.0
 11
-281.63002000000051
 21
-354.90925000000061
 31
0.0
  0
LINE
  8
DETAIL
  6
CONTINUOUS
 62
     5
 10
-281.75083000000001
 20
-354.76134000000093
 30
0.0
 11
-281.69304999999991
 21
-354.83850000000172
 31
0.0
  0
LINE
  8
DETAIL
  6
CONTINUOUS
 62
     5
 10
-281.80286000000069
 20
-354.67827000000023
 30
0.0
 11
-281.75083000000001
 21
-354.76134000000093
 31
0.0
  0
LINE
  8
DETAIL
  6
CONTINUOUS
 62
     5
 10
-281.84882000000022
 20
-354.59000000000009
 30
0.0
 11
-281.80286000000069
 21
-354.67827000000023
 31
0.0
  0
LINE
  8
DETAIL
  6
CONTINUOUS
 62
     5
 10
-281.88829000000078
 20
-354.49712999999969
 30
0.0
 11
-281.84882000000022
 21
-354.59000000000009
 31
0.0
  0
LINE
  8
DETAIL
  6
CONTINUOUS
 62
     5
 10
-281.92102999999952
 20
-354.40042000000182
 30
0.0
 11
-281.88829000000078
 21
-354.49712999999969
 31
0.0
  0
LINE
  8
DETAIL
  6
CONTINUOUS
 62
     5
 10
-281.94671999999991
 20
-354.30056999999942
 30
0.0
 11
-281.92102999999952
 21
-354.40042000000182
 31
0.0
  0
LINE
  8
DETAIL
  6
CONTINUOUS
 62
     5
 10
-281.96524999999929
 20
-354.19836999999819
 30
0.0
 11
-281.94671999999991
 21
-354.30056999999942
 31
0.0
  0
LINE
  8
DETAIL
  6
CONTINUOUS
 62
     5
 10
-281.97636000000062
 20
-354.09497999999797
 30
0.0
 11
-281.96524999999929
 21
-354.19836999999819
 31
0.0
  0
LINE
  8
DETAIL
  6
CONTINUOUS
 62
     5
 10
-281.98014000000057
 20
-353.98999999999802
 30
0.0
 11
-281.97636000000062
 21
-354.09497999999797
 31
0.0
  0
LINE
  8
DETAIL
  6
CONTINUOUS
 62
     5
 10
-281.04287000000022
 20
-354.58768000000049
 30
0.0
 11
-281.0
 21
-354.59000000000009
 31
0.0
  0
LINE
  8
DETAIL
  6
CONTINUOUS
 62
     5
 10
-281.08510000000001
 20
-354.58087999999771
 30
0.0
 11
-281.04287000000022
 21
-354.58768000000049
 31
0.0
  0
LINE
  8
DETAIL
  6
CONTINUOUS
 62
     5
 10
-281.12683000000112
 20
-354.56954000000042
 30
0.0
 11
-281.08510000000001
 21
-354.58087999999771
 31
0.0
  0
LINE
  8
DETAIL
  6
CONTINUOUS
 62
     5
 10
-281.16761000000042
 20
-354.55381000000119
 30
0.0
 11
-281.12683000000112
 21
-354.56954000000042
 31
0.0
  0
LINE
  8
DETAIL
  6
CONTINUOUS
 62
     5
 10
-281.20711000000028
 20
-354.53376999999819
 30
0.0
 11
-281.16761000000042
 21
-354.55381000000119
 31
0.0
  0
LINE
  8
DETAIL
  6
CONTINUOUS
 62
     5
 10
-281.24502999999999
 20
-354.50961000000092
 30
0.0
 11
-281.20711000000028
 21
-354.53376999999819
 31
0.0
  0
LINE
  8
DETAIL
  6
CONTINUOUS
 62
     5
 10
-281.28108000000071
 20
-354.48147999999861
 30
0.0
 11
-281.24502999999999
 21
-354.50961000000092
 31
0.0
  0
LINE
  8
DETAIL
  6
CONTINUOUS
 62
     5
 10
-281.31501000000031
 20
-354.44961999999941
 30
0.0
 11
-281.28108000000071
 21
-354.48147999999861
 31
0.0
  0
LINE
  8
DETAIL
  6
CONTINUOUS
 62
     5
 10
-281.34652000000102
 20
-354.41424999999799
 30
0.0
 11
-281.31501000000031
 21
-354.44961999999941
 31
0.0
  0
LINE
  8
DETAIL
  6
CONTINUOUS
 62
     5
 10
-281.37541000000061
 20
-354.37566999999763
 30
0.0
 11
-281.34652000000102
 21
-354.41424999999799
 31
0.0
  0
LINE
  8
DETAIL
  6
CONTINUOUS
 62
     5
 10
-281.40142999999989
 20
-354.33413000000292
 30
0.0
 11
-281.37541000000061
 21
-354.37566999999763
 31
0.0
  0
LINE
  8
DETAIL
  6
CONTINUOUS
 62
     5
 10
-281.42441000000139
 20
-354.29000000000087
 30
0.0
 11
-281.40142999999989
 21
-354.33413000000292
 31
0.0
  0
LINE
  8
DETAIL
  6
CONTINUOUS
 62
     5
 10
-281.44413999999961
 20
-354.24355999999892
 30
0.0
 11
-281.42441000000139
 21
-354.29000000000087
 31
0.0
  0
LINE
  8
DETAIL
  6
CONTINUOUS
 62
     5
 10
-281.4605100000008
 20
-354.19521000000168
 30
0.0
 11
-281.44413999999961
 21
-354.24355999999892
 31
0.0
  0
LINE
  8
DETAIL
  6
CONTINUOUS
 62
     5
 10
-281.47336000000001
 20
-354.14528000000053
 30
0.0
 11
-281.4605100000008
 21
-354.19521000000168
 31
0.0
  0
LINE
  8
DETAIL
  6
CONTINUOUS
 62
     5
 10
-281.48262000000068
 20
-354.09418000000369
 30
0.0
 11
-281.47336000000001
 21
-354.14528000000053
 31
0.0
  0
LINE
  8
DETAIL
  6
CONTINUOUS
 62
     5
 10
-281.48818000000028
 20
-354.04249000000351
 30
0.0
 11
-281.48262000000068
 21
-354.09418000000369
 31
0.0
  0
LINE
  8
DETAIL
  6
CONTINUOUS
 62
     5
 10
-281.49007000000171
 20
-353.98999999999802
 30
0.0
 11
-281.48818000000028
 21
-354.04249000000351
 31
0.0
  0
LINE
  8
DETAIL
  6
CONTINUOUS
 62
     5
 10
-162.80000000000109
 20
-342.59000000000009
 30
0.0
 11
-164.80000000000021
 21
-340.59000000000009
 31
0.0
  0
LINE
  8
DETAIL
  6
CONTINUOUS
 62
     5
 10
-272.57187000000067
 20
-357.67865000000171
 30
0.0
 11
-272.30000000000018
 21
-357.69000000000233
 31
0.0
  0
LINE
  8
DETAIL
  6
CONTINUOUS
 62
     5
 10
-272.84444000000082
 20
-357.64439000000129
 30
0.0
 11
-272.57187000000067
 21
-357.67865000000171
 31
0.0
  0
LINE
  8
DETAIL
  6
CONTINUOUS
 62
     5
 10
-273.11509000000018
 20
-357.58733000000211
 30
0.0
 11
-272.84444000000082
 21
-357.64439000000129
 31
0.0
  0
LINE
  8
DETAIL
  6
CONTINUOUS
 62
     5
 10
-273.38288000000102
 20
-357.50765999999908
 30
0.0
 11
-273.11509000000018
 21
-357.58733000000211
 31
0.0
  0
LINE
  8
DETAIL
  6
CONTINUOUS
 62
     5
 10
-273.64686000000069
 20
-357.40567999999979
 30
0.0
 11
-273.38288000000102
 21
-357.50765999999908
 31
0.0
  0
LINE
  8
DETAIL
  6
CONTINUOUS
 62
     5
 10
-273.89098999999987
 20
-357.28962999999908
 30
0.0
 11
-273.64686000000069
 21
-357.40567999999979
 31
0.0
  0
LINE
  8
DETAIL
  6
CONTINUOUS
 62
     5
 10
-162.80000000000109
 20
-342.59000000000009
 30
0.0
 11
-162.80000000000109
 21
-348.09000000000009
 31
0.0
  0
LINE
  8
DETAIL
  6
CONTINUOUS
 62
     5
 10
-152.80000000000109
 20
-342.59000000000009
 30
0.0
 11
-152.80000000000109
 21
-348.09000000000009
 31
0.0
  0
LINE
  8
DETAIL
  6
CONTINUOUS
 62
     5
 10
298.19999999999891
 20
-404.59000000000009
 30
0.0
 11
-297.80000000000109
 21
-404.59000000000009
 31
0.0
  0
LINE
  8
DETAIL
  6
CONTINUOUS
 62
     5
 10
-297.98999999999978
 20
-404.40000000000151
 30
0.0
 11
-368.5
 21
-404.40000000000151
 31
0.0
  0
LINE
  8
DETAIL
  6
CONTINUOUS
 62
     5
 10
369.89999999999958
 20
-404.40000000000151
 30
0.0
 11
298.38999999999942
 21
-404.40000000000151
 31
0.0
  0
LINE
  8
DETAIL
  6
CONTINUOUS
 62
     5
 10
-272.0281300000006
 20
-357.67865000000171
 30
0.0
 11
-272.30000000000018
 21
-357.69000000000233
 31
0.0
  0
LINE
  8
DETAIL
  6
CONTINUOUS
 62
     5
 10
-271.75556000000051
 20
-357.64439000000129
 30
0.0
 11
-272.0281300000006
 21
-357.67865000000171
 31
0.0
  0
LINE
  8
DETAIL
  6
CONTINUOUS
 62
     5
 10
-271.48490000000038
 20
-357.58733000000211
 30
0.0
 11
-271.75556000000051
 21
-357.64439000000129
 31
0.0
  0
LINE
  8
DETAIL
  6
CONTINUOUS
 62
     5
 10
-271.21712000000031
 20
-357.50765999999908
 30
0.0
 11
-271.48490000000038
 21
-357.58733000000211
 31
0.0
  0
LINE
  8
DETAIL
  6
CONTINUOUS
 62
     5
 10
-270.95314000000047
 20
-357.40567999999979
 30
0.0
 11
-271.21712000000031
 21
-357.50765999999908
 31
0.0
  0
LINE
  8
DETAIL
  6
CONTINUOUS
 62
     5
 10
-270.70901000000049
 20
-357.28962999999908
 30
0.0
 11
-270.95314000000047
 21
-357.40567999999979
 31
0.0
  0
LINE
  8
DETAIL
  6
CONTINUOUS
 62
     5
 10
-150.80000000000109
 20
-340.59000000000009
 30
0.0
 11
-152.80000000000109
 21
-342.59000000000009
 31
0.0
  0
LINE
  8
DETAIL
  6
CONTINUOUS
 62
     5
 10
267.99999999999909
 20
-355.68999999999869
 30
0.0
 11
277.39999999999958
 21
-355.68999999999869
 31
0.0
  0
LINE
  8
DETAIL
  6
CONTINUOUS
 62
     5
 10
-277.00000000000091
 20
-355.68999999999869
 30
0.0
 11
-267.60000000000042
 21
-355.68999999999869
 31
0.0
  0
LINE
  8
DETAIL
  6
CONTINUOUS
 62
     5
 10
350.19999999999982
 20
-355.19000000000233
 30
0.0
 11
-349.80000000000018
 21
-355.19000000000233
 31
0.0
  0
LINE
  8
DETAIL
  6
CONTINUOUS
 62
     5
 10
-279.80000000000018
 20
-354.59000000000009
 30
0.0
 11
-281.0
 21
-354.59000000000009
 31
0.0
  0
LINE
  8
DETAIL
  6
CONTINUOUS
 62
     5
 10
281.39999999999958
 20
-354.59000000000009
 30
0.0
 11
280.19999999999982
 21
-354.59000000000009
 31
0.0
  0
LINE
  8
DETAIL
  6
CONTINUOUS
 62
     5
 10
280.50345000000021
 20
-353.20000000000078
 30
0.0
 11
281.89006999999953
 21
-353.20000000000078
 31
0.0
  0
LINE
  8
DETAIL
  6
CONTINUOUS
 62
     5
 10
-281.49007000000171
 20
-353.20000000000078
 30
0.0
 11
-280.10345000000052
 21
-353.20000000000078
 31
0.0
  0
LINE
  8
DETAIL
  6
CONTINUOUS
 62
     5
 10
-279.80000000000018
 20
-352.59000000000009
 30
0.0
 11
-281.49007000000171
 21
-352.59000000000009
 31
0.0
  0
LINE
  8
DETAIL
  6
CONTINUOUS
 62
     5
 10
281.89006999999953
 20
-352.59000000000009
 30
0.0
 11
280.19999999999982
 21
-352.59000000000009
 31
0.0
  0
LINE
  8
DETAIL
  6
CONTINUOUS
 62
     5
 10
-152.80000000000109
 20
-348.09000000000009
 30
0.0
 11
-162.80000000000109
 21
-348.09000000000009
 31
0.0
  0
LINE
  8
DETAIL
  6
CONTINUOUS
 62
     5
 10
212.69999999999979
 20
-348.09000000000009
 30
0.0
 11
202.69999999999979
 21
-348.09000000000009
 31
0.0
  0
LINE
  8
DETAIL
  6
CONTINUOUS
 62
     5
 10
-281.49007000000171
 20
-340.59000000000009
 30
0.0
 11
-349.62624000000051
 21
-340.59000000000009
 31
0.0
  0
LINE
  8
DETAIL
  6
CONTINUOUS
 62
     5
 10
350.02624999999898
 20
-340.59000000000009
 30
0.0
 11
281.89006999999953
 21
-340.59000000000009
 31
0.0
  0
LINE
  8
DETAIL
  6
CONTINUOUS
 62
     5
 10
214.69999999999979
 20
-340.59000000000009
 30
0.0
 11
280.19999999999982
 21
-340.59000000000009
 31
0.0
  0
LINE
  8
DETAIL
  6
CONTINUOUS
 62
     5
 10
-150.80000000000109
 20
-340.59000000000009
 30
0.0
 11
200.69999999999891
 21
-340.59000000000009
 31
0.0
  0
LINE
  8
DETAIL
  6
CONTINUOUS
 62
     5
 10
-279.80000000000018
 20
-340.59000000000009
 30
0.0
 11
-164.80000000000021
 21
-340.59000000000009
 31
0.0
  0
LINE
  8
DETAIL
  6
CONTINUOUS
 62
     5
 10
272.42812999999933
 20
-357.67865000000171
 30
0.0
 11
272.69999999999982
 21
-357.69000000000233
 31
0.0
  0
LINE
  8
DETAIL
  6
CONTINUOUS
 62
     5
 10
272.15555999999918
 20
-357.64439000000129
 30
0.0
 11
272.42812999999933
 21
-357.67865000000171
 31
0.0
  0
LINE
  8
DETAIL
  6
CONTINUOUS
 62
     5
 10
271.88490999999982
 20
-357.58733000000211
 30
0.0
 11
272.15555999999918
 21
-357.64439000000129
 31
0.0
  0
LINE
  8
DETAIL
  6
CONTINUOUS
 62
     5
 10
271.61711999999898
 20
-357.50765999999908
 30
0.0
 11
271.88490999999982
 21
-357.58733000000211
 31
0.0
  0
LINE
  8
DETAIL
  6
CONTINUOUS
 62
     5
 10
271.35313999999931
 20
-357.40567999999979
 30
0.0
 11
271.61711999999898
 21
-357.50765999999908
 31
0.0
  0
LINE
  8
DETAIL
  6
CONTINUOUS
 62
     5
 10
271.10901000000013
 20
-357.28962999999908
 30
0.0
 11
271.35313999999931
 21
-357.40567999999979
 31
0.0
  0
LINE
  8
DETAIL
  6
CONTINUOUS
 62
     5
 10
202.69999999999979
 20
-342.59000000000009
 30
0.0
 11
200.69999999999891
 21
-340.59000000000009
 31
0.0
  0
LINE
  8
DETAIL
  6
CONTINUOUS
 62
     5
 10
272.9718699999994
 20
-357.67865000000171
 30
0.0
 11
272.69999999999982
 21
-357.69000000000233
 31
0.0
  0
LINE
  8
DETAIL
  6
CONTINUOUS
 62
     5
 10
273.24443999999949
 20
-357.64439000000129
 30
0.0
 11
272.9718699999994
 21
-357.67865000000171
 31
0.0
  0
LINE
  8
DETAIL
  6
CONTINUOUS
 62
     5
 10
273.51509999999962
 20
-357.58733000000211
 30
0.0
 11
273.24443999999949
 21
-357.64439000000129
 31
0.0
  0
LINE
  8
DETAIL
  6
CONTINUOUS
 62
     5
 10
273.78287999999969
 20
-357.50765999999908
 30
0.0
 11
273.51509999999962
 21
-357.58733000000211
 31
0.0
  0
LINE
  8
DETAIL
  6
CONTINUOUS
 62
     5
 10
274.04685999999953
 20
-357.40567999999979
 30
0.0
 11
273.78287999999969
 21
-357.50765999999908
 31
0.0
  0
LINE
  8
DETAIL
  6
CONTINUOUS
 62
     5
 10
274.29098999999951
 20
-357.28962999999908
 30
0.0
 11
274.04685999999953
 21
-357.40567999999979
 31
0.0
  0
LINE
  8
DETAIL
  6
CONTINUOUS
 62
     5
 10
214.69999999999979
 20
-340.59000000000009
 30
0.0
 11
212.69999999999979
 21
-342.59000000000009
 31
0.0
  0
LINE
  8
DETAIL
  6
CONTINUOUS
 62
     5
 10
186.99999999999909
 20
-613.00000000000364
 30
0.0
 11
186.99999999999909
 21
-610.0
 31
0.0
  0
LINE
  8
DETAIL
  6
CONTINUOUS
 62
     5
 10
201.99999999999909
 20
-613.00000000000364
 30
0.0
 11
201.99999999999909
 21
-619.0
 31
0.0
  0
LINE
  8
DETAIL
  6
CONTINUOUS
 62
     5
 10
202.69999999999979
 20
-342.59000000000009
 30
0.0
 11
202.69999999999979
 21
-348.09000000000009
 31
0.0
  0
LINE
  8
DETAIL
  6
CONTINUOUS
 62
     5
 10
212.69999999999979
 20
-342.59000000000009
 30
0.0
 11
212.69999999999979
 21
-348.09000000000009
 31
0.0
  0
LINE
  8
DETAIL
  6
CONTINUOUS
 62
     5
 10
221.99999999999909
 20
-613.00000000000364
 30
0.0
 11
221.99999999999909
 21
-619.0
 31
0.0
  0
LINE
  8
DETAIL
  6
CONTINUOUS
 62
     5
 10
224.0
 20
-613.00000000000364
 30
0.0
 11
224.0
 21
-619.0
 31
0.0
  0
LINE
  8
DETAIL
  6
CONTINUOUS
 62
     5
 10
244.0
 20
-613.00000000000364
 30
0.0
 11
244.0
 21
-619.0
 31
0.0
  0
LINE
  8
DETAIL
  6
CONTINUOUS
 62
     5
 10
246.0
 20
-613.00000000000364
 30
0.0
 11
246.0
 21
-619.0
 31
0.0
  0
LINE
  8
DETAIL
  6
CONTINUOUS
 62
     5
 10
298.19999999999891
 20
-404.59000000000009
 30
0.0
 11
300.19999999999982
 21
-402.59000000000009
 31
0.0
  0
LINE
  8
DETAIL
  6
CONTINUOUS
 62
     5
 10
281.44286999999889
 20
-354.58768000000049
 30
0.0
 11
281.39999999999958
 21
-354.59000000000009
 31
0.0
  0
LINE
  8
DETAIL
  6
CONTINUOUS
 62
     5
 10
281.48509999999987
 20
-354.58087999999771
 30
0.0
 11
281.44286999999889
 21
-354.58768000000049
 31
0.0
  0
LINE
  8
DETAIL
  6
CONTINUOUS
 62
     5
 10
281.52684000000039
 20
-354.56954000000042
 30
0.0
 11
281.48509999999987
 21
-354.58087999999771
 31
0.0
  0
LINE
  8
DETAIL
  6
CONTINUOUS
 62
     5
 10
281.56761999999981
 20
-354.55381000000119
 30
0.0
 11
281.52684000000039
 21
-354.56954000000042
 31
0.0
  0
LINE
  8
DETAIL
  6
CONTINUOUS
 62
     5
 10
281.60710999999992
 20
-354.53376999999819
 30
0.0
 11
281.56761999999981
 21
-354.55381000000119
 31
0.0
  0
LINE
  8
DETAIL
  6
CONTINUOUS
 62
     5
 10
281.64503999999943
 20
-354.50961000000092
 30
0.0
 11
281.60710999999992
 21
-354.53376999999819
 31
0.0
  0
LINE
  8
DETAIL
  6
CONTINUOUS
 62
     5
 10
281.68108999999907
 20
-354.48147999999861
 30
0.0
 11
281.64503999999943
 21
-354.50961000000092
 31
0.0
  0
LINE
  8
DETAIL
  6
CONTINUOUS
 62
     5
 10
281.71500999999898
 20
-354.44961999999941
 30
0.0
 11
281.68108999999907
 21
-354.48147999999861
 31
0.0
  0
LINE
  8
DETAIL
  6
CONTINUOUS
 62
     5
 10
281.74652999999847
 20
-354.41424999999799
 30
0.0
 11
281.71500999999898
 21
-354.44961999999941
 31
0.0
  0
LINE
  8
DETAIL
  6
CONTINUOUS
 62
     5
 10
281.77541999999988
 20
-354.37566999999763
 30
0.0
 11
281.74652999999847
 21
-354.41424999999799
 31
0.0
  0
LINE
  8
DETAIL
  6
CONTINUOUS
 62
     5
 10
281.80142999999953
 20
-354.33413000000292
 30
0.0
 11
281.77541999999988
 21
-354.37566999999763
 31
0.0
  0
LINE
  8
DETAIL
  6
CONTINUOUS
 62
     5
 10
281.82440999999932
 20
-354.29000000000087
 30
0.0
 11
281.80142999999953
 21
-354.33413000000292
 31
0.0
  0
LINE
  8
DETAIL
  6
CONTINUOUS
 62
     5
 10
281.84414999999899
 20
-354.24355999999892
 30
0.0
 11
281.82440999999932
 21
-354.29000000000087
 31
0.0
  0
LINE
  8
DETAIL
  6
CONTINUOUS
 62
     5
 10
281.86052000000018
 20
-354.19521000000168
 30
0.0
 11
281.84414999999899
 21
-354.24355999999892
 31
0.0
  0
LINE
  8
DETAIL
  6
CONTINUOUS
 62
     5
 10
281.87335999999959
 20
-354.14528000000053
 30
0.0
 11
281.86052000000018
 21
-354.19521000000168
 31
0.0
  0
LINE
  8
DETAIL
  6
CONTINUOUS
 62
     5
 10
281.88263000000012
 20
-354.09418000000369
 30
0.0
 11
281.87335999999959
 21
-354.14528000000053
 31
0.0
  0
LINE
  8
DETAIL
  6
CONTINUOUS
 62
     5
 10
281.88817999999992
 20
-354.04249000000351
 30
0.0
 11
281.88263000000012
 21
-354.09418000000369
 31
0.0
  0
LINE
  8
DETAIL
  6
CONTINUOUS
 62
     5
 10
281.89006999999953
 20
-353.98999999999802
 30
0.0
 11
281.88817999999992
 21
-354.04249000000351
 31
0.0
  0
LINE
  8
DETAIL
  6
CONTINUOUS
 62
     5
 10
281.48574999999892
 20
-355.18536999999918
 30
0.0
 11
281.39999999999958
 21
-355.19000000000233
 31
0.0
  0
LINE
  8
DETAIL
  6
CONTINUOUS
 62
     5
 10
281.57020000000011
 20
-355.17176000000109
 30
0.0
 11
281.48574999999892
 21
-355.18536999999918
 31
0.0
  0
LINE
  8
DETAIL
  6
CONTINUOUS
 62
     5
 10
281.65366999999969
 20
-355.14907999999917
 30
0.0
 11
281.57020000000011
 21
-355.17176000000109
 31
0.0
  0
LINE
  8
DETAIL
  6
CONTINUOUS
 62
     5
 10
281.73522999999932
 20
-355.11763000000047
 30
0.0
 11
281.65366999999969
 21
-355.14907999999917
 31
0.0
  0
LINE
  8
DETAIL
  6
CONTINUOUS
 62
     5
 10
281.8142200000002
 20
-355.07754000000199
 30
0.0
 11
281.73522999999932
 21
-355.11763000000047
 31
0.0
  0
LINE
  8
DETAIL
  6
CONTINUOUS
 62
     5
 10
281.89006999999953
 20
-355.0292300000001
 30
0.0
 11
281.8142200000002
 21
-355.07754000000199
 31
0.0
  0
LINE
  8
DETAIL
  6
CONTINUOUS
 62
     5
 10
281.96216999999888
 20
-354.97295999999909
 30
0.0
 11
281.89006999999953
 21
-355.0292300000001
 31
0.0
  0
LINE
  8
DETAIL
  6
CONTINUOUS
 62
     5
 10
282.03001999999918
 20
-354.90925000000061
 30
0.0
 11
281.96216999999888
 21
-354.97295999999909
 31
0.0
  0
LINE
  8
DETAIL
  6
CONTINUOUS
 62
     5
 10
282.09304999999949
 20
-354.83850000000172
 30
0.0
 11
282.03001999999918
 21
-354.90925000000061
 31
0.0
  0
LINE
  8
DETAIL
  6
CONTINUOUS
 62
     5
 10
282.15082999999868
 20
-354.76134000000093
 30
0.0
 11
282.09304999999949
 21
-354.83850000000172
 31
0.0
  0
LINE
  8
DETAIL
  6
CONTINUOUS
 62
     5
 10
282.20286999999922
 20
-354.67827000000023
 30
0.0
 11
282.15082999999868
 21
-354.76134000000093
 31
0.0
  0
LINE
  8
DETAIL
  6
CONTINUOUS
 62
     5
 10
282.24882999999949
 20
-354.59000000000009
 30
0.0
 11
282.20286999999922
 21
-354.67827000000023
 31
0.0
  0
LINE
  8
DETAIL
  6
CONTINUOUS
 62
     5
 10
282.28829000000042
 20
-354.49712999999969
 30
0.0
 11
282.24882999999949
 21
-354.59000000000009
 31
0.0
  0
LINE
  8
DETAIL
  6
CONTINUOUS
 62
     5
 10
282.32102999999921
 20
-354.40042000000182
 30
0.0
 11
282.28829000000042
 21
-354.49712999999969
 31
0.0
  0
LINE
  8
DETAIL
  6
CONTINUOUS
 62
     5
 10
282.34671999999961
 20
-354.30056999999942
 30
0.0
 11
282.32102999999921
 21
-354.40042000000182
 31
0.0
  0
LINE
  8
DETAIL
  6
CONTINUOUS
 62
     5
 10
282.36524999999978
 20
-354.19836999999819
 30
0.0
 11
282.34671999999961
 21
-354.30056999999942
 31
0.0
  0
LINE
  8
DETAIL
  6
CONTINUOUS
 62
     5
 10
282.37635999999929
 20
-354.09497999999797
 30
0.0
 11
282.36524999999978
 21
-354.19836999999819
 31
0.0
  0
LINE
  8
DETAIL
  6
CONTINUOUS
 62
     5
 10
282.3801399999993
 20
-353.98999999999802
 30
0.0
 11
282.37635999999929
 21
-354.09497999999797
 31
0.0
  0
LINE
  8
DETAIL
  6
CONTINUOUS
 62
     5
 10
266.0
 20
-613.00000000000364
 30
0.0
 11
266.0
 21
-619.0
 31
0.0
  0
LINE
  8
DETAIL
  6
CONTINUOUS
 62
     5
 10
267.99999999999909
 20
-613.00000000000364
 30
0.0
 11
267.99999999999909
 21
-619.0
 31
0.0
  0
LINE
  8
DETAIL
  6
CONTINUOUS
 62
     5
 10
267.99999999999909
 20
-355.19000000000233
 30
0.0
 11
267.99999999999909
 21
-355.68999999999869
 31
0.0
  0
LINE
  8
DETAIL
  6
CONTINUOUS
 62
     5
 10
277.39999999999958
 20
-355.19000000000233
 30
0.0
 11
277.39999999999958
 21
-355.68999999999869
 31
0.0
  0
LINE
  8
DETAIL
  6
CONTINUOUS
 62
     5
 10
280.19999999999982
 20
-340.59000000000009
 30
0.0
 11
280.19999999999982
 21
-355.19000000000233
 31
0.0
  0
LINE
  8
DETAIL
  6
CONTINUOUS
 62
     5
 10
280.59999999999951
 20
-330.0
 30
0.0
 11
280.59999999999951
 21
-352.59000000000009
 31
0.0
  0
LINE
  8
DETAIL
  6
CONTINUOUS
 62
     5
 10
280.59999999999951
 20
-15.0
 30
0.0
 11
280.59999999999951
 21
-270.0
 31
0.0
  0
LINE
  8
DETAIL
  6
CONTINUOUS
 62
     5
 10
281.39999999999958
 20
-355.19000000000233
 30
0.0
 11
281.39999999999958
 21
-354.59000000000009
 31
0.0
  0
LINE
  8
DETAIL
  6
CONTINUOUS
 62
     5
 10
281.89006999999953
 20
-340.59000000000009
 30
0.0
 11
281.89006999999953
 21
-353.98999999999802
 31
0.0
  0
LINE
  8
DETAIL
  6
CONTINUOUS
 62
     5
 10
282.3801399999993
 20
-340.59000000000009
 30
0.0
 11
282.3801399999993
 21
-353.98999999999802
 31
0.0
  0
LINE
  8
DETAIL
  6
CONTINUOUS
 62
     5
 10
351.18014000000039
 20
-342.59000000000009
 30
0.0
 11
350.02624999999898
 21
-340.59000000000009
 31
0.0
  0
LINE
  8
DETAIL
  6
CONTINUOUS
 62
     5
 10
290.19999999999982
 20
-15.0
 30
0.0
 11
289.59999999999849
 21
-15.0
 31
0.0
  0
LINE
  8
DETAIL
  6
CONTINUOUS
 62
     5
 10
-289.80000000000018
 20
-15.0
 30
0.0
 11
-289.19999999999982
 21
-15.0
 31
0.0
  0
LINE
  8
DETAIL
  6
CONTINUOUS
 62
     5
 10
-289.80000000000018
 20
-2.6000000000021828
 30
0.0
 11
-295.60000000000042
 21
-2.6000000000021828
 31
0.0
  0
LINE
  8
DETAIL
  6
CONTINUOUS
 62
     5
 10
-287.80000000000109
 20
-2.6000000000021828
 30
0.0
 11
-289.19999999999982
 21
-2.6000000000021828
 31
0.0
  0
LINE
  8
DETAIL
  6
CONTINUOUS
 62
     5
 10
290.19999999999982
 20
-2.6000000000021828
 30
0.0
 11
296.0
 21
-2.6000000000021828
 31
0.0
  0
LINE
  8
DETAIL
  6
CONTINUOUS
 62
     5
 10
288.19999999999891
 20
-2.6000000000021828
 30
0.0
 11
289.59999999999849
 21
-2.6000000000021828
 31
0.0
  0
LINE
  8
DETAIL
  6
CONTINUOUS
 62
     5
 10
-296.20000000000073
 20
-0.5999999999985448
 30
0.0
 11
-368.5
 21
-0.5999999999985448
 31
0.0
  0
LINE
  8
DETAIL
  6
CONTINUOUS
 62
     5
 10
289.0
 20
-0.5999999999985448
 30
0.0
 11
288.19999999999891
 21
-0.5999999999985448
 31
0.0
  0
LINE
  8
DETAIL
  6
CONTINUOUS
 62
     5
 10
369.89999999999958
 20
-0.5999999999985448
 30
0.0
 11
296.59999999999951
 21
-0.5999999999985448
 31
0.0
  0
LINE
  8
DETAIL
  6
CONTINUOUS
 62
     5
 10
-288.60000000000042
 20
-0.5999999999985448
 30
0.0
 11
-287.80000000000109
 21
-0.5999999999985448
 31
0.0
  0
LINE
  8
DETAIL
  6
CONTINUOUS
 62
     5
 10
375.0
 20
0.0
 30
0.0
 11
-374.60000000000042
 21
0.0
 31
0.0
  0
LINE
  8
DETAIL
  6
CONTINUOUS
 62
     5
 10
287.99999999999909
 20
-613.00000000000364
 30
0.0
 11
287.99999999999909
 21
-619.0
 31
0.0
  0
LINE
  8
DETAIL
  6
CONTINUOUS
 62
     5
 10
288.19999999999891
 20
0.0
 30
0.0
 11
288.19999999999891
 21
-15.0
 31
0.0
  0
LINE
  8
DETAIL
  6
CONTINUOUS
 62
     5
 10
289.59999999999849
 20
-1.200000000000728
 30
0.0
 11
289.59999999999849
 21
-15.0
 31
0.0
  0
LINE
  8
DETAIL
  6
CONTINUOUS
 62
     5
 10
290.0
 20
-613.00000000000364
 30
0.0
 11
290.0
 21
-619.0
 31
0.0
  0
LINE
  8
DETAIL
  6
CONTINUOUS
 62
     5
 10
290.19999999999982
 20
-1.200000000000728
 30
0.0
 11
290.19999999999982
 21
-15.0
 31
0.0
  0
LINE
  8
DETAIL
  6
CONTINUOUS
 62
     5
 10
297.99999999999909
 20
-340.59000000000009
 30
0.0
 11
297.99999999999909
 21
-1.999999999996362
 31
0.0
  0
LINE
  8
DETAIL
  6
CONTINUOUS
 62
     5
 10
300.19999999999982
 20
-355.19000000000233
 30
0.0
 11
300.19999999999982
 21
-402.59000000000009
 31
0.0
  0
LINE
  8
DETAIL
  6
CONTINUOUS
 62
     5
 10
310.0
 20
-613.00000000000364
 30
0.0
 11
310.0
 21
-619.0
 31
0.0
  0
LINE
  8
DETAIL
  6
CONTINUOUS
 62
     5
 10
369.89999999999958
 20
-404.40000000000151
 30
0.0
 11
371.89999999999958
 21
-402.40000000000151
 31
0.0
  0
LINE
  8
DETAIL
  6
CONTINUOUS
 62
     5
 10
325.0
 20
-613.00000000000364
 30
0.0
 11
325.0
 21
-610.0
 31
0.0
  0
LINE
  8
DETAIL
  6
CONTINUOUS
 62
     5
 10
351.18014000000039
 20
-353.98999999999802
 30
0.0
 11
351.18014000000039
 21
-342.59000000000009
 31
0.0
  0
LINE
  8
DETAIL
  6
CONTINUOUS
 62
     5
 10
350.2857499999991
 20
-355.18536999999918
 30
0.0
 11
350.19999999999982
 21
-355.19000000000233
 31
0.0
  0
LINE
  8
DETAIL
  6
CONTINUOUS
 62
     5
 10
350.37019999999939
 20
-355.17176000000109
 30
0.0
 11
350.2857499999991
 21
-355.18536999999918
 31
0.0
  0
LINE
  8
DETAIL
  6
CONTINUOUS
 62
     5
 10
350.45366999999902
 20
-355.14907999999917
 30
0.0
 11
350.37019999999939
 21
-355.17176000000109
 31
0.0
  0
LINE
  8
DETAIL
  6
CONTINUOUS
 62
     5
 10
350.5352299999995
 20
-355.11763000000047
 30
0.0
 11
350.45366999999902
 21
-355.14907999999917
 31
0.0
  0
LINE
  8
DETAIL
  6
CONTINUOUS
 62
     5
 10
350.61421999999948
 20
-355.07754000000199
 30
0.0
 11
350.5352299999995
 21
-355.11763000000047
 31
0.0
  0
LINE
  8
DETAIL
  6
CONTINUOUS
 62
     5
 10
350.69006999999868
 20
-355.0292300000001
 30
0.0
 11
350.61421999999948
 21
-355.07754000000199
 31
0.0
  0
LINE
  8
DETAIL
  6
CONTINUOUS
 62
     5
 10
350.76216999999912
 20
-354.97295999999909
 30
0.0
 11
350.69006999999868
 21
-355.0292300000001
 31
0.0
  0
LINE
  8
DETAIL
  6
CONTINUOUS
 62
     5
 10
350.83001999999942
 20
-354.90925000000061
 30
0.0
 11
350.76216999999912
 21
-354.97295999999909
 31
0.0
  0
LINE
  8
DETAIL
  6
CONTINUOUS
 62
     5
 10
350.89304999999968
 20
-354.83850000000172
 30
0.0
 11
350.83001999999942
 21
-354.90925000000061
 31
0.0
  0
LINE
  8
DETAIL
  6
CONTINUOUS
 62
     5
 10
350.95082999999892
 20
-354.76134000000093
 30
0.0
 11
350.89304999999968
 21
-354.83850000000172
 31
0.0
  0
LINE
  8
DETAIL
  6
CONTINUOUS
 62
     5
 10
351.00286999999929
 20
-354.67827000000023
 30
0.0
 11
350.95082999999892
 21
-354.76134000000093
 31
0.0
  0
LINE
  8
DETAIL
  6
CONTINUOUS
 62
     5
 10
351.04882999999973
 20
-354.59000000000009
 30
0.0
 11
351.00286999999929
 21
-354.67827000000023
 31
0.0
  0
LINE
  8
DETAIL
  6
CONTINUOUS
 62
     5
 10
351.08828999999969
 20
-354.49712999999969
 30
0.0
 11
351.04882999999973
 21
-354.59000000000009
 31
0.0
  0
LINE
  8
DETAIL
  6
CONTINUOUS
 62
     5
 10
351.12102999999928
 20
-354.40042000000182
 30
0.0
 11
351.08828999999969
 21
-354.49712999999969
 31
0.0
  0
LINE
  8
DETAIL
  6
CONTINUOUS
 62
     5
 10
351.14672000000058
 20
-354.30056999999942
 30
0.0
 11
351.12102999999928
 21
-354.40042000000182
 31
0.0
  0
LINE
  8
DETAIL
  6
CONTINUOUS
 62
     5
 10
351.16525000000001
 20
-354.19836999999819
 30
0.0
 11
351.14672000000058
 21
-354.30056999999942
 31
0.0
  0
LINE
  8
DETAIL
  6
CONTINUOUS
 62
     5
 10
351.17635999999948
 20
-354.09497999999797
 30
0.0
 11
351.16525000000001
 21
-354.19836999999819
 31
0.0
  0
LINE
  8
DETAIL
  6
CONTINUOUS
 62
     5
 10
351.18014000000039
 20
-353.98999999999802
 30
0.0
 11
351.17635999999948
 21
-354.09497999999797
 31
0.0
  0
LINE
  8
DETAIL
  6
CONTINUOUS
 62
     5
 10
355.0
 20
-404.40000000000151
 30
0.0
 11
355.0
 21
-610.0
 31
0.0
  0
LINE
  8
DETAIL
  6
CONTINUOUS
 62
     5
 10
355.0
 20
0.0
 30
0.0
 11
355.0
 21
-0.5999999999985448
 31
0.0
  0
LINE
  8
DETAIL
  6
CONTINUOUS
 62
     5
 10
371.89999999999958
 20
-402.40000000000151
 30
0.0
 11
371.89999999999958
 21
-2.6000000000021828
 31
0.0
  0
LINE
  8
DETAIL
  6
CONTINUOUS
 62
     5
 10
375.0
 20
0.0
 30
0.0
 11
375.0
 21
-605.0
 31
0.0
  0
LINE
  8
DETAIL
  6
CONTINUOUS
 62
     5
 10
297.99999999999909
 20
-4.6000000000021828
 30
0.0
 11
296.0
 21
-2.6000000000021828
 31
0.0
  0
LINE
  8
DETAIL
  6
CONTINUOUS
 62
     5
 10
297.99999999999909
 20
-1.999999999996362
 30
0.0
 11
296.0
 21
0.0
 31
0.0
  0
LINE
  8
DETAIL
  6
CONTINUOUS
 62
     5
 10
371.89999999999958
 20
-2.6000000000021828
 30
0.0
 11
369.89999999999958
 21
-0.5999999999985448
 31
0.0
  0
LINE
  8
DETAIL
  6
CONTINUOUS
 62
     5
 10
-287.80000000000109
 20
-15.0
 30
0.0
 11
288.19999999999891
 21
-15.0
 31
0.0
  0
CIRCLE
  8
DETAIL
  6
CONTINUOUS
 62
     5
 10
362.19999999999982
 20
-240.0
 30
0.0
 40
3.0
  0
LINE
  8
DETAIL
  6
CONTINUOUS
 62
     5
 10
104.76152
 20
-284.83846999999878
 30
0.0
 11
108.4384799999998
 21
-281.16152000000147
 31
0.0
  0
LINE
  8
DETAIL
  6
CONTINUOUS
 62
     5
 10
108.4384799999998
 20
-284.83846999999878
 30
0.0
 11
104.76152
 21
-281.16152000000147
 31
0.0
  0
CIRCLE
  8
DETAIL
  6
CONTINUOUS
 62
     5
 10
106.60000000000041
 20
-283.00000000000358
 30
0.0
 40
4.0
  0
LINE
  8
DETAIL
  6
CONTINUOUS
 62
     5
 10
101.60000000000041
 20
-296.90000000000151
 30
0.0
 11
111.60000000000041
 21
-296.90000000000151
 31
0.0
  0
LINE
  8
DETAIL
  6
CONTINUOUS
 62
     5
 10
111.60000000000041
 20
-278.00000000000358
 30
0.0
 11
111.60000000000041
 21
-310.50000000000358
 31
0.0
  0
LINE
  8
DETAIL
  6
CONTINUOUS
 62
     5
 10
101.60000000000041
 20
-278.00000000000358
 30
0.0
 11
101.60000000000041
 21
-310.50000000000358
 31
0.0
  0
LINE
  8
DETAIL
  6
CONTINUOUS
 62
     5
 10
101.60000000000041
 20
-278.00000000000358
 30
0.0
 11
111.60000000000041
 21
-278.00000000000358
 31
0.0
  0
LINE
  8
DETAIL
  6
CONTINUOUS
 62
     5
 10
101.60000000000041
 20
-310.50000000000358
 30
0.0
 11
111.60000000000041
 21
-310.50000000000358
 31
0.0
  0
CIRCLE
  8
DETAIL
  6
CONTINUOUS
 62
     5
 10
50.399999999999643
 20
-59.400000000001462
 30
0.0
 40
3.0
  0
CIRCLE
  8
DETAIL
  6
CONTINUOUS
 62
     5
 10
50.399999999999643
 20
-229.40000000000151
 30
0.0
 40
3.0
  0
CIRCLE
  8
DETAIL
  6
CONTINUOUS
 62
     5
 10
220.39999999999961
 20
-59.400000000001462
 30
0.0
 40
3.0
  0
CIRCLE
  8
DETAIL
  6
CONTINUOUS
 62
     5
 10
220.39999999999961
 20
-229.40000000000151
 30
0.0
 40
3.0
  0
LINE
  8
DETAIL
  6
CONTINUOUS
 62
     5
 10
-282.00000000000091
 20
-269.40000000000151
 30
0.0
 11
-282.00000000000091
 21
-329.40000000000151
 31
0.0
  0
LINE
  8
DETAIL
  6
CONTINUOUS
 62
     5
 10
-278.80000000000018
 20
-269.40000000000151
 30
0.0
 11
-282.00000000000091
 21
-269.40000000000151
 31
0.0
  0
LINE
  8
DETAIL
  6
CONTINUOUS
 62
     5
 10
-278.80000000000018
 20
-239.40000000000151
 30
0.0
 11
-278.80000000000018
 21
-269.40000000000151
 31
0.0
  0
ARC
  8
DETAIL
  6
CONTINUOUS
 62
     5
 10
-240.0
 20
-289.40000000000151
 30
0.0
 40
6.0
 50
180.0
 51
0.0
  0
LINE
  8
DETAIL
  6
CONTINUOUS
 62
     5
 10
-234.0
 20
-239.40000000000151
 30
0.0
 11
-234.0
 21
-289.40000000000151
 31
0.0
  0
LINE
  8
DETAIL
  6
CONTINUOUS
 62
     5
 10
-246.0
 20
-239.40000000000151
 30
0.0
 11
-246.0
 21
-289.40000000000151
 31
0.0
  0
LINE
  8
DETAIL
  6
CONTINUOUS
 62
     5
 10
-278.80000000000018
 20
-239.40000000000151
 30
0.0
 11
-246.0
 21
-239.40000000000151
 31
0.0
  0
LINE
  8
DETAIL
  6
CONTINUOUS
 62
     5
 10
-234.0
 20
-239.40000000000151
 30
0.0
 11
-215.0
 21
-239.40000000000151
 31
0.0
  0
LINE
  8
DETAIL
  6
CONTINUOUS
 62
     5
 10
-215.0
 20
-239.40000000000151
 30
0.0
 11
-215.0
 21
-327.40000000000151
 31
0.0
  0
LINE
  8
DETAIL
  6
CONTINUOUS
 62
     5
 10
-217.00000000000091
 20
-329.40000000000151
 30
0.0
 11
-215.0
 21
-327.40000000000151
 31
0.0
  0
LINE
  8
DETAIL
  6
CONTINUOUS
 62
     5
 10
-282.00000000000091
 20
-329.40000000000151
 30
0.0
 11
-217.00000000000091
 21
-329.40000000000151
 31
0.0
  0
LINE
  8
DETAIL
  6
CONTINUOUS
 62
     5
 10
278.79999999999927
 20
-239.40000000000151
 30
0.0
 11
278.79999999999927
 21
-269.40000000000151
 31
0.0
  0
LINE
  8
DETAIL
  6
CONTINUOUS
 62
     5
 10
281.99999999999909
 20
-269.40000000000151
 30
0.0
 11
278.79999999999927
 21
-269.40000000000151
 31
0.0
  0
LINE
  8
DETAIL
  6
CONTINUOUS
 62
     5
 10
281.99999999999909
 20
-269.40000000000151
 30
0.0
 11
281.99999999999909
 21
-329.40000000000151
 31
0.0
  0
LINE
  8
DETAIL
  6
CONTINUOUS
 62
     5
 10
216.99999999999909
 20
-329.40000000000151
 30
0.0
 11
281.99999999999909
 21
-329.40000000000151
 31
0.0
  0
LINE
  8
DETAIL
  6
CONTINUOUS
 62
     5
 10
215.0
 20
-239.40000000000151
 30
0.0
 11
234.0
 21
-239.40000000000151
 31
0.0
  0
LINE
  8
DETAIL
  6
CONTINUOUS
 62
     5
 10
246.0
 20
-239.40000000000151
 30
0.0
 11
278.79999999999927
 21
-239.40000000000151
 31
0.0
  0
LINE
  8
DETAIL
  6
CONTINUOUS
 62
     5
 10
215.0
 20
-327.40000000000151
 30
0.0
 11
216.99999999999909
 21
-329.40000000000151
 31
0.0
  0
LINE
  8
DETAIL
  6
CONTINUOUS
 62
     5
 10
215.0
 20
-239.40000000000151
 30
0.0
 11
215.0
 21
-327.40000000000151
 31
0.0
  0
LINE
  8
DETAIL
  6
CONTINUOUS
 62
     5
 10
234.0
 20
-239.40000000000151
 30
0.0
 11
234.0
 21
-289.40000000000151
 31
0.0
  0
LINE
  8
DETAIL
  6
CONTINUOUS
 62
     5
 10
246.0
 20
-239.40000000000151
 30
0.0
 11
246.0
 21
-289.40000000000151
 31
0.0
  0
ARC
  8
DETAIL
  6
CONTINUOUS
 62
     5
 10
240.0
 20
-289.40000000000151
 30
0.0
 40
6.0
 50
180.0
 51
0.0
  0
ARC
  8
DETAIL
  6
CONTINUOUS
 62
     5
 10
95.399999999999636
 20
-317.29999999999922
 30
0.0
 40
5.0
 50
270.0
 51
90.0
  0
LINE
  8
DETAIL
  6
CONTINUOUS
 62
     5
 10
-2.9999999994961399
 20
-312.80326905000152
 30
0.0
 11
95.399999999999636
 21
-312.29999999999927
 31
0.0
  0
LINE
  8
DETAIL
  6
CONTINUOUS
 62
     5
 10
-2.9999999994961399
 20
-322.80326905000152
 30
0.0
 11
95.399999999999636
 21
-322.29999999999922
 31
0.0
  0
LINE
  8
DETAIL
  6
CONTINUOUS
 62
     5
 10
142.54858000000061
 20
40.593549999997776
 30
0.0
 11
30.39999999999964
 21
40.593549999997776
 31
0.0
  0
LINE
  8
DETAIL
  6
CONTINUOUS
 62
     5
 10
142.5474899999999
 20
30.59354999999778
 30
0.0
 11
30.39999999999964
 21
30.59354999999778
 31
0.0
  0
LINE
  8
DETAIL
  6
CONTINUOUS
 62
     5
 10
167.18755000000061
 20
17.849409999998901
 30
0.0
 11
153.30813000000029
 21
17.849409999998901
 31
0.0
  0
ARC
  8
DETAIL
  6
CONTINUOUS
 62
     5
 10
153.3446299366997
 20
47.77080670737314
 30
0.0
 40
6.7480245524731961
 50
89.690008079480691
 51
90.0
  0
ARC
  8
DETAIL
  6
CONTINUOUS
 62
     5
 10
153.52688043197301
 20
46.690875579490921
 30
0.0
 40
7.8300769698364387
 50
91.333719156519891
 51
131.1907033004438
  0
ARC
  8
DETAIL
  6
CONTINUOUS
 62
     5
 10
170.71922020942841
 20
36.286667621745778
 30
0.0
 40
28.497832835213408
 50
163.4934260224662
 51
180.20627615605051
  0
ARC
  8
DETAIL
  6
CONTINUOUS
 62
     5
 10
170.71922020942841
 20
36.081472378252897
 30
0.0
 40
28.497832835213408
 50
179.79372384394949
 51
196.5065739775338
  0
ARC
  8
DETAIL
  6
CONTINUOUS
 62
     5
 10
157.12561697666931
 20
30.088217083869949
 30
0.0
 40
13.520857404583859
 50
210.5316151432049
 51
229.64320595185379
  0
LINE
  8
DETAIL
  6
CONTINUOUS
 62
     5
 10
167.18755000000061
 20
54.518729999999778
 30
0.0
 11
153.30813000000029
 21
54.518729999999778
 31
0.0
  0
ARC
  8
DETAIL
  6
CONTINUOUS
 62
     5
 10
157.12561697666931
 20
42.279922916128498
 30
0.0
 40
13.520857404584079
 50
130.3567940481409
 51
149.4683848567951
  0
ARC
  8
DETAIL
  6
CONTINUOUS
 62
     5
 10
163.47766544435541
 20
38.440739738391471
 30
0.0
 40
20.94269818519528
 50
149.24965780072409
 51
163.51473086455201
  0
ARC
  8
DETAIL
  6
CONTINUOUS
 62
     5
 10
163.4776654443522
 20
33.92740026160584
 30
0.0
 40
20.942698185191929
 50
196.48526913544799
 51
210.75034219927591
  0
ARC
  8
DETAIL
  6
CONTINUOUS
 62
     5
 10
153.52688043197301
 20
25.67726442050775
 30
0.0
 40
7.8300769698364432
 50
228.8092966995562
 51
268.66628084348008
  0
ARC
  8
DETAIL
  6
CONTINUOUS
 62
     5
 10
153.36274836135181
 20
17.899707562482941
 30
0.0
 40
0.0535566644814387
 50
250.22650415716049
 51
290.08348830094201
  0
ARC
  8
DETAIL
  6
CONTINUOUS
 62
     5
 10
164.10276667929341
 20
42.920532870202578
 30
0.0
 40
12.60582013402056
 50
35.587229032618502
 51
50.042640932550967
  0
ARC
  8
DETAIL
  6
CONTINUOUS
 62
     5
 10
167.0418095680279
 20
46.690875579491149
 30
0.0
 40
7.830076969836278
 50
48.809296699556157
 51
88.666280843480109
  0
ARC
  8
DETAIL
  6
CONTINUOUS
 62
     5
 10
167.406310431973
 20
46.690875579491149
 30
0.0
 40
7.8300769698362771
 50
91.333719156519891
 51
131.1907033004438
  0
ARC
  8
DETAIL
  6
CONTINUOUS
 62
     5
 10
171.00504697666929
 20
42.279922916128498
 30
0.0
 40
13.520857404584079
 50
130.3567940481409
 51
149.4683848567951
  0
ARC
  8
DETAIL
  6
CONTINUOUS
 62
     5
 10
177.3570954443494
 20
38.440739738394093
 30
0.0
 40
20.9426981851886
 50
149.24965780071989
 51
163.51473086455201
  0
ARC
  8
DETAIL
  6
CONTINUOUS
 62
     5
 10
184.5986502094311
 20
36.286667621745437
 30
0.0
 40
28.49783283521603
 50
163.4934260224662
 51
180.206276156044
  0
ARC
  8
DETAIL
  6
CONTINUOUS
 62
     5
 10
184.5986502094311
 20
36.081472378253238
 30
0.0
 40
28.497832835216041
 50
179.793723843956
 51
196.5065739775338
  0
ARC
  8
DETAIL
  6
CONTINUOUS
 62
     5
 10
177.3570954443494
 20
33.927400261604589
 30
0.0
 40
20.9426981851886
 50
196.48526913544799
 51
210.75034219928011
  0
ARC
  8
DETAIL
  6
CONTINUOUS
 62
     5
 10
171.00504697666929
 20
30.088217083869949
 30
0.0
 40
13.520857404583859
 50
210.5316151432049
 51
229.64320595185379
  0
ARC
  8
DETAIL
  6
CONTINUOUS
 62
     5
 10
167.406310431973
 20
25.67726442050753
 30
0.0
 40
7.830076969836278
 50
228.8092966995562
 51
268.66628084348008
  0
ARC
  8
DETAIL
  6
CONTINUOUS
 62
     5
 10
167.0418095680279
 20
25.67726442050753
 30
0.0
 40
7.8300769698362771
 50
271.33371915649383
 51
311.19070330044377
  0
ARC
  8
DETAIL
  6
CONTINUOUS
 62
     5
 10
168.78745864253051
 20
24.667267055596771
 30
0.0
 40
5.9558143870452094
 50
304.93976709184142
 51
324.05135790047473
  0
LINE
  8
DETAIL
  6
CONTINUOUS
 62
     5
 10
177.36499999999981
 20
21.170849999998609
 30
0.0
 11
165.46072999999981
 21
21.170849999998609
 31
0.0
  0
LINE
  8
DETAIL
  6
CONTINUOUS
 62
     5
 10
170.92025999999899
 20
35.371510000000853
 30
0.0
 11
170.92025999999899
 21
45.093720000000758
 31
0.0
  0
LINE
  8
DETAIL
  6
CONTINUOUS
 62
     5
 10
173.4258499999996
 20
45.093720000000758
 30
0.0
 11
173.4258499999996
 21
35.371510000000853
 31
0.0
  0
LINE
  8
DETAIL
  6
CONTINUOUS
 62
     5
 10
172.3318299999992
 20
35.371510000000853
 30
0.0
 11
172.3318299999992
 21
45.093720000000758
 31
0.0
  0
LINE
  8
DETAIL
  6
CONTINUOUS
 62
     5
 10
160.78924999999981
 20
45.093720000000758
 30
0.0
 11
160.78924999999981
 21
35.371510000000853
 31
0.0
  0
LINE
  8
DETAIL
  6
CONTINUOUS
 62
     5
 10
160.78924999999981
 20
45.093720000000758
 30
0.0
 11
172.3318299999992
 21
45.093720000000758
 31
0.0
  0
LINE
  8
DETAIL
  6
CONTINUOUS
 62
     5
 10
172.3318299999992
 20
35.371510000000853
 30
0.0
 11
160.78924999999981
 21
35.371510000000853
 31
0.0
  0
LINE
  8
DETAIL
  6
CONTINUOUS
 62
     5
 10
173.4258499999996
 20
45.093720000000758
 30
0.0
 11
184.96843000000081
 21
45.093720000000758
 31
0.0
  0
LINE
  8
DETAIL
  6
CONTINUOUS
 62
     5
 10
184.96843000000081
 20
35.371510000000853
 30
0.0
 11
173.4258499999996
 21
35.371510000000853
 31
0.0
  0
LINE
  8
DETAIL
  6
CONTINUOUS
 62
     5
 10
177.36499999999981
 20
50.256389999998653
 30
0.0
 11
165.46072999999981
 21
50.256389999998653
 31
0.0
  0
LINE
  8
DETAIL
  6
CONTINUOUS
 62
     5
 10
165.46072999999981
 20
48.455589999997763
 30
0.0
 11
177.36499999999981
 21
48.455589999997763
 31
0.0
  0
LINE
  8
DETAIL
  6
CONTINUOUS
 62
     5
 10
177.36499999999981
 20
30.330730000001491
 30
0.0
 11
165.46072999999981
 21
30.330730000001491
 31
0.0
  0
LINE
  8
DETAIL
  6
CONTINUOUS
 62
     5
 10
165.46072999999981
 20
21.170849999998609
 30
0.0
 11
165.46072999999981
 21
30.330730000001491
 31
0.0
  0
LINE
  8
DETAIL
  6
CONTINUOUS
 62
     5
 10
165.46072999999981
 20
48.455589999997763
 30
0.0
 11
165.46072999999981
 21
50.256389999998653
 31
0.0
  0
LINE
  8
DETAIL
  6
CONTINUOUS
 62
     5
 10
177.36499999999981
 20
48.455589999997763
 30
0.0
 11
177.36499999999981
 21
50.256389999998653
 31
0.0
  0
LINE
  8
DETAIL
  6
CONTINUOUS
 62
     5
 10
171.76225000000071
 20
48.455589999997763
 30
0.0
 11
171.76225000000071
 21
50.256389999998653
 31
0.0
  0
LINE
  8
DETAIL
  6
CONTINUOUS
 62
     5
 10
177.36499999999981
 20
21.170849999998609
 30
0.0
 11
177.36499999999981
 21
30.330730000001491
 31
0.0
  0
LINE
  8
DETAIL
  6
CONTINUOUS
 62
     5
 10
175.76421999999999
 20
21.170849999998609
 30
0.0
 11
175.76421999999999
 21
30.330730000001491
 31
0.0
  0
ARC
  8
DETAIL
  6
CONTINUOUS
 62
     5
 10
161.47653919450289
 20
40.07130928179788
 30
0.0
 40
16.54369511200829
 50
17.67302064180803
 51
30.45064606951621
  0
ARC
  8
DETAIL
  6
CONTINUOUS
 62
     5
 10
154.6331379759722
 20
35.121535535693511
 30
0.0
 40
23.929588992384431
 50
341.79560228917592
 51
342.64721802876528
  0
ARC
  8
DETAIL
  6
CONTINUOUS
 62
     5
 10
153.64374088698099
 20
35.641541085866272
 30
0.0
 40
25.029858040039009
 50
342.18654066056939
 51
359.38185598279671
  0
LINE
  8
DETAIL
  6
CONTINUOUS
 62
     5
 10
183.5568600000006
 20
35.371510000000853
 30
0.0
 11
183.5568600000006
 21
45.093720000000758
 31
0.0
  0
LINE
  8
DETAIL
  6
CONTINUOUS
 62
     5
 10
184.96843000000081
 20
35.371510000000853
 30
0.0
 11
184.96843000000081
 21
45.093720000000758
 31
0.0
  0
LINE
  8
DETAIL
  6
CONTINUOUS
 62
     5
 10
10.39999999999964
 20
20.59354999999778
 30
0.0
 11
10.39999999999964
 21
-288.79999999999927
 31
0.0
  0
LINE
  8
DETAIL
  6
CONTINUOUS
 62
     5
 10
20.39999999999964
 20
20.59354999999778
 30
0.0
 11
20.39999999999964
 21
-288.79999999999927
 31
0.0
  0
ARC
  8
DETAIL
  6
CONTINUOUS
 62
     5
 10
30.39999999999964
 20
20.59354999999778
 30
0.0
 40
20.0
 50
90.0
 51
180.0
  0
ARC
  8
DETAIL
  6
CONTINUOUS
 62
     5
 10
30.39999999999964
 20
20.59354999999778
 30
0.0
 40
10.0
 50
90.0
 51
180.0
  0
LINE
  8
DETAIL
  6
CONTINUOUS
 62
     5
 10
30.39999999999964
 20
-298.79999999999927
 30
0.0
 11
101.60000000000041
 21
-298.79999999999927
 31
0.0
  0
LINE
  8
DETAIL
  6
CONTINUOUS
 62
     5
 10
30.39999999999964
 20
-308.79999999999927
 30
0.0
 11
101.60000000000041
 21
-308.79999999999927
 31
0.0
  0
ARC
  8
DETAIL
  6
CONTINUOUS
 62
     5
 10
190.39999999999961
 20
-303.79999999999927
 30
0.0
 40
5.0
 50
270.0
 51
90.0
  0
ARC
  8
DETAIL
  6
CONTINUOUS
 62
     5
 10
30.39999999999964
 20
-288.79999999999927
 30
0.0
 40
10.0
 50
180.0
 51
270.0
  0
ARC
  8
DETAIL
  6
CONTINUOUS
 62
     5
 10
30.39999999999964
 20
-288.79999999999927
 30
0.0
 40
20.0
 50
180.0
 51
270.0
  0
LINE
  8
DETAIL
  6
CONTINUOUS
 62
     5
 10
111.60000000000041
 20
-298.79999999999927
 30
0.0
 11
190.39999999999961
 21
-298.79999999999927
 31
0.0
  0
LINE
  8
DETAIL
  6
CONTINUOUS
 62
     5
 10
111.60000000000041
 20
-308.79999999999927
 30
0.0
 11
190.39999999999961
 21
-308.79999999999927
 31
0.0
  0
ARC
  8
DETAIL
  6
CONTINUOUS
 62
     5
 10
101.39999999999959
 20
-283.00000000000358
 30
0.0
 40
3.297400000000001
 50
90.0
 51
270.0
  0
LINE
  8
DETAIL
  6
CONTINUOUS
 62
     5
 10
35.635340000000717
 20
-220.68614000000159
 30
0.0
 11
35.336750000000393
 21
-204.8889600000002
 31
0.0
  0
LINE
  8
DETAIL
  6
CONTINUOUS
 62
     5
 10
235.39999999999961
 20
-44.400000000001462
 30
0.0
 11
235.39999999999961
 21
-244.40000000000151
 31
0.0
  0
LINE
  8
DETAIL
  6
CONTINUOUS
 62
     5
 10
234.80000000000021
 20
-45.0
 30
0.0
 11
234.80000000000021
 21
-243.7999999999993
 31
0.0
  0
LINE
  8
DETAIL
  6
CONTINUOUS
 62
     5
 10
222.40000000000049
 20
-211.71270000000001
 30
0.0
 11
222.40000000000049
 21
-77.087289999999484
 31
0.0
  0
LINE
  8
DETAIL
  6
CONTINUOUS
 62
     5
 10
101.39999999999959
 20
-287.10000000000218
 30
0.0
 11
101.39999999999959
 21
-278.89999999999782
 31
0.0
  0
LINE
  8
DETAIL
  6
CONTINUOUS
 62
     5
 10
48.400000000000553
 20
-77.087289999999484
 30
0.0
 11
48.400000000000553
 21
-211.71270000000001
 31
0.0
  0
LINE
  8
DETAIL
  6
CONTINUOUS
 62
     5
 10
36.0
 20
-243.7999999999993
 30
0.0
 11
36.0
 21
-45.0
 31
0.0
  0
LINE
  8
DETAIL
  6
CONTINUOUS
 62
     5
 10
35.399999999999643
 20
-244.40000000000151
 30
0.0
 11
35.399999999999643
 21
-44.400000000001462
 31
0.0
  0
LINE
  8
DETAIL
  6
CONTINUOUS
 62
     5
 10
235.39999999999961
 20
-244.40000000000151
 30
0.0
 11
35.399999999999643
 21
-244.40000000000151
 31
0.0
  0
LINE
  8
DETAIL
  6
CONTINUOUS
 62
     5
 10
234.80000000000021
 20
-243.7999999999993
 30
0.0
 11
36.0
 21
-243.7999999999993
 31
0.0
  0
LINE
  8
DETAIL
  6
CONTINUOUS
 62
     5
 10
68.087300000000141
 20
-231.39999999999779
 30
0.0
 11
202.71270000000001
 21
-231.39999999999779
 31
0.0
  0
LINE
  8
DETAIL
  6
CONTINUOUS
 62
     5
 10
202.71270000000001
 20
-57.400000000001462
 30
0.0
 11
68.087300000000141
 21
-57.400000000001462
 31
0.0
  0
LINE
  8
DETAIL
  6
CONTINUOUS
 62
     5
 10
218.97746000000009
 20
-60.130059999999503
 30
0.0
 11
221.36719999999971
 21
-60.673709999999119
 31
0.0
  0
LINE
  8
DETAIL
  6
CONTINUOUS
 62
     5
 10
36.0
 20
-45.0
 30
0.0
 11
234.80000000000021
 21
-45.0
 31
0.0
  0
LINE
  8
DETAIL
  6
CONTINUOUS
 62
     5
 10
35.399999999999643
 20
-44.400000000001462
 30
0.0
 11
235.39999999999961
 21
-44.400000000001462
 31
0.0
  0
CIRCLE
  8
DETAIL
  6
CONTINUOUS
 62
     5
 10
220.39999999999961
 20
-229.40000000000151
 30
0.0
 40
1.6000000000000001
  0
CIRCLE
  8
DETAIL
  6
CONTINUOUS
 62
     5
 10
220.39999999999961
 20
-59.400000000001462
 30
0.0
 40
1.6000000000000001
  0
ARC
  8
DETAIL
  6
CONTINUOUS
 62
     5
 10
101.39999999999959
 20
-283.00000000000358
 30
0.0
 40
4.0
 50
90.0
 51
270.0
  0
CIRCLE
  8
DETAIL
  6
CONTINUOUS
 62
     5
 10
50.399999999999643
 20
-229.40000000000151
 30
0.0
 40
1.6000000000000001
  0
ARC
  8
DETAIL
  6
CONTINUOUS
 62
     5
 10
135.39999999999961
 20
-144.40000000000151
 30
0.0
 40
110.0
 50
127.7294510000068
 51
142.2705489999945
  0
ARC
  8
DETAIL
  6
CONTINUOUS
 62
     5
 10
135.0
 20
-144.40000000000151
 30
0.0
 40
110.0
 50
217.7294510000055
 51
232.27054899999331
  0
ARC
  8
DETAIL
  6
CONTINUOUS
 62
     5
 10
135.0
 20
-144.40000000000151
 30
0.0
 40
110.0
 50
307.72945100000669
 51
322.2705489999945
  0
ARC
  8
DETAIL
  6
CONTINUOUS
 62
     5
 10
135.39999999999961
 20
-144.40000000000151
 30
0.0
 40
110.0
 50
37.72945100000549
 51
52.270548999993231
  0
CIRCLE
  8
DETAIL
  6
CONTINUOUS
 62
     5
 10
135.39999999999961
 20
-144.40000000000151
 30
0.0
 40
77.0
  0
CIRCLE
  8
DETAIL
  6
CONTINUOUS
 62
     5
 10
135.39999999999961
 20
-144.40000000000151
 30
0.0
 40
74.0
  0
CIRCLE
  8
DETAIL
  6
CONTINUOUS
 62
     5
 10
50.399999999999643
 20
-59.400000000001462
 30
0.0
 40
1.6000000000000001
  0
ARC
  8
OUTLINE
  6
CONTINUOUS
 62
     3
 10
-369.60000000000042
 20
-605.0
 30
0.0
 40
5.0
 50
180.0
 51
270.0
  0
ARC
  8
OUTLINE
  6
CONTINUOUS
 62
     3
 10
370.0
 20
-605.0
 30
0.0
 40
5.0
 50
270.0
 51
0.0
  0
LINE
  8
OUTLINE
  6
CONTINUOUS
 62
     3
 10
-374.60000000000042
 20
-605.0
 30
0.0
 11
-374.60000000000042
 21
0.0
 31
0.0
  0
LINE
  8
OUTLINE
  6
CONTINUOUS
 62
     3
 10
370.0
 20
-610.0
 30
0.0
 11
-369.60000000000042
 21
-610.0
 31
0.0
  0
LINE
  8
OUTLINE
  6
CONTINUOUS
 62
     3
 10
375.0
 20
0.0
 30
0.0
 11
-374.60000000000042
 21
0.0
 31
0.0
  0
LINE
  8
OUTLINE
  6
CONTINUOUS
 62
     3
 10
375.0
 20
0.0
 30
0.0
 11
375.0
 21
-605.0
 31
0.0
  0
LINE
  8
SIZE
  6
CONTINUOUS
 62
    30
 10
-374.60000000000042
 20
-625.0
 30
0.0
 11
-374.60000000000042
 21
-827.14436915132842
 31
0.0
  0
LINE
  8
SIZE
  6
CONTINUOUS
 62
    30
 10
375.0
 20
-625.0
 30
0.0
 11
375.0
 21
-827.14436915132842
 31
0.0
  0
LINE
  8
SIZE
  6
CONTINUOUS
 62
    30
 10
-362.60000000000042
 20
-807.14436915132842
 30
0.0
 11
363.0
 21
-807.14436915132842
 31
0.0
  0
CIRCLE
  8
SIZE
  6
CONTINUOUS
 62
    30
 10
-374.60000000000042
 20
-807.14436915132842
 30
0.0
 40
6.0
  0
LINE
  8
SIZE
  6
CONTINUOUS
 62
    30
 10
-374.60000000000042
 20
-807.14436915132842
 30
0.0
 11
-362.60000000000042
 21
-807.14436915132842
 31
0.0
  0
CIRCLE
  8
SIZE
  6
CONTINUOUS
 62
    30
 10
375.0
 20
-807.14436915132842
 30
0.0
 40
6.0
  0
LINE
  8
SIZE
  6
CONTINUOUS
 62
    30
 10
375.0
 20
-807.14436915132842
 30
0.0
 11
363.0
 21
-807.14436915132842
 31
0.0
  0
TEXT
  8
SIZE
  6
CONTINUOUS
 62
    30
 10
-73.857142857143046
 20
-782.14436915132842
 30
0.0
 40
64.0
  1
750
 41
0.9
 72
     1
 11
0.1999999999998181
 21
-782.14436915132842
 31
0.0
  0
CIRCLE
  8
DETAIL
  6
CONTINUOUS
 62
     5
 10
-119.9999999994961
 20
-150.10326905000079
 30
0.0
 40
51.0
  0
LINE
  8
DETAIL
  6
CONTINUOUS
 62
     5
 10
-84.412139999496503
 20
-180.034279050001
 30
0.0
 11
-81.8162299994965
 21
-182.63017905000129
 31
0.0
  0
LINE
  8
DETAIL
  6
CONTINUOUS
 62
     5
 10
-90.068989999496807
 20
-185.6911290500004
 30
0.0
 11
-87.473089999495642
 21
-188.28702905000071
 31
0.0
  0
LINE
  8
DETAIL
  6
CONTINUOUS
 62
     5
 10
-81.8162299994965
 20
-182.63017905000129
 30
0.0
 11
-87.473089999495642
 21
-188.28702905000071
 31
0.0
  0
ARC
  8
DETAIL
  6
CONTINUOUS
 62
     5
 10
-2.9999999994961399
 20
-302.80326905000152
 30
0.0
 40
20.0
 50
180.0
 51
270.0
  0
ARC
  8
DETAIL
  6
CONTINUOUS
 62
     5
 10
-2.9999999994961399
 20
-302.80326905000152
 30
0.0
 40
10.0
 50
180.0
 51
270.0
  0
LINE
  8
DETAIL
  6
CONTINUOUS
 62
     5
 10
-22.99999999949614
 20
-266.60073905000291
 30
0.0
 11
-22.99999999949614
 21
-302.80326905000152
 31
0.0
  0
LINE
  8
DETAIL
  6
CONTINUOUS
 62
     5
 10
-12.99999999949614
 20
-266.60073905000291
 30
0.0
 11
-12.99999999949614
 21
-302.80326905000152
 31
0.0
  0
LINE
  8
DETAIL
  6
CONTINUOUS
 62
     5
 10
-87.646819999496074
 20
-189.52751905000079
 30
0.0
 11
-31.78678999949625
 21
-245.3875390500009
 31
0.0
  0
LINE
  8
DETAIL
  6
CONTINUOUS
 62
     5
 10
-80.575749999496111
 20
-182.4564490500027
 30
0.0
 11
-24.71572999949603
 21
-238.31646905000281
 31
0.0
  0
ARC
  8
DETAIL
  6
CONTINUOUS
 62
     5
 10
-52.99999999949614
 20
-266.60073905000291
 30
0.0
 40
30.0
 50
0.0
 51
45.000000000018417
  0
ARC
  8
DETAIL
  6
CONTINUOUS
 62
     5
 10
-52.99999999949614
 20
-266.60073905000291
 30
0.0
 40
40.0
 50
0.0
 51
45.000000000018417
  0
CIRCLE
  8
DETAIL
  6
CONTINUOUS
 62
     5
 10
-119.9999999994961
 20
-150.10326905000079
 30
0.0
 40
46.5
  0
CIRCLE
  8
DETAIL
  6
CONTINUOUS
 62
     5
 10
95.399999999999636
 20
-317.29999999999922
 30
0.0
 40
13.5
  0
CIRCLE
  8
DETAIL
  6
CONTINUOUS
 62
     5
 10
190.39999999999961
 20
-303.79999999999927
 30
0.0
 40
13.5
  0
ENDSEC
  0
EOF
