  0
SECTION
  2
HEADER
  9
$ACADVER
  1
AC1009
  9
$INSBASE
 10
0.0
 20
0.0
 30
0.0
  9
$EXTMIN
 10
-1029.2358165947221
 20
-1029.6386557859821
 30
-0.0015258207003583
  9
$EXTMAX
 10
1220.214859838848
 20
629.92859997312553
 30
0.0000000349246037
  9
$LIMMIN
 10
-4200.0
 20
-2970.0
  9
$LIMMAX
 10
4200.0
 20
2970.0
  9
$ORTHOMODE
 70
     1
  9
$REGENMODE
 70
     0
  9
$FILLMODE
 70
     1
  9
$QTEXTMODE
 70
     0
  9
$MIRRTEXT
 70
     0
  9
$DRAGMODE
 70
     2
  9
$LTSCALE
 40
20.0
  9
$OSMODE
 70
    32
  9
$ATTMODE
 70
     1
  9
$TEXTSIZE
 40
64.0
  9
$TRACEWID
 40
0.05
  9
$TEXTSTYLE
  7
STANDARD
  9
$CLAYER
  8
ETC
  9
$CELTYPE
  6
CONTINUOUS
  9
$CECOLOR
 62
    30
  9
$DIMSCALE
 40
1.0
  9
$DIMASZ
 40
12.0
  9
$DIMEXO
 40
20.0
  9
$DIMDLI
 40
200.0
  9
$DIMRND
 40
0.0
  9
$DIMDLE
 40
0.0
  9
$DIMEXE
 40
20.0
  9
$DIMTP
 40
0.0
  9
$DIMTM
 40
0.0
  9
$DIMTXT
 40
64.0
  9
$DIMCEN
 40
0.09
  9
$DIMTSZ
 40
0.0
  9
$DIMTOL
 70
     0
  9
$DIMLIM
 70
     0
  9
$DIMTIH
 70
     0
  9
$DIMTOH
 70
     0
  9
$DIMSE1
 70
     0
  9
$DIMSE2
 70
     0
  9
$DIMTAD
 70
     1
  9
$DIMZIN
 70
     8
  9
$DIMBLK
  1
NONE
  9
$DIMASO
 70
     1
  9
$DIMSHO
 70
     0
  9
$DIMPOST
  1

  9
$DIMAPOST
  1

  9
$DIMALT
 70
     0
  9
$DIMALTD
 70
     2
  9
$DIMALTF
 40
25.399999999999999
  9
$DIMLFAC
 40
1.0
  9
$DIMTOFL
 70
     1
  9
$DIMTVP
 40
0.0
  9
$DIMTIX
 70
     1
  9
$DIMSOXD
 70
     0
  9
$DIMSAH
 70
     0
  9
$DIMBLK1
  1

  9
$DIMBLK2
  1

  9
$DIMSTYLE
  2
STANDARD
  9
$DIMCLRD
 70
   256
  9
$DIMCLRE
 70
   256
  9
$DIMCLRT
 70
   256
  9
$DIMTFAC
 40
1.0
  9
$DIMGAP
 40
25.0
  9
$LUNITS
 70
     2
  9
$LUPREC
 70
     4
  9
$SKETCHINC
 40
0.1
  9
$FILLETRAD
 40
0.0
  9
$AUNITS
 70
     1
  9
$AUPREC
 70
     3
  9
$MENU
  1
ACAD
  9
$ELEVATION
 40
0.0
  9
$PELEVATION
 40
0.0
  9
$THICKNESS
 40
0.0
  9
$LIMCHECK
 70
     1
  9
$BLIPMODE
 70
     0
  9
$CHAMFERA
 40
0.0
  9
$CHAMFERB
 40
0.0
  9
$SKPOLY
 70
     0
  9
$TDCREATE
 40
2451997.744768519
  9
$TDUPDATE
 40
2454743.761797755
  9
$TDINDWG
 40
0.0164279514
  9
$TDUSRTIMER
 40
0.0164277778
  9
$USRTIMER
 70
     1
  9
$ANGBASE
 50
0.0
  9
$ANGDIR
 70
     0
  9
$PDMODE
 70
     3
  9
$PDSIZE
 40
-2.0
  9
$PLINEWID
 40
0.0
  9
$COORDS
 70
     1
  9
$SPLFRAME
 70
     0
  9
$SPLINETYPE
 70
     6
  9
$SPLINESEGS
 70
     8
  9
$ATTDIA
 70
     0
  9
$ATTREQ
 70
     1
  9
$HANDLING
 70
     1
  9
$HANDSEED
  5
3C2
  9
$SURFTAB1
 70
     6
  9
$SURFTAB2
 70
     6
  9
$SURFTYPE
 70
     6
  9
$SURFU
 70
     6
  9
$SURFV
 70
     6
  9
$UCSNAME
  2

  9
$UCSORG
 10
0.0
 20
0.0
 30
0.0
  9
$UCSXDIR
 10
1.0
 20
0.0
 30
0.0
  9
$UCSYDIR
 10
0.0
 20
1.0
 30
0.0
  9
$PUCSNAME
  2

  9
$PUCSORG
 10
0.0
 20
0.0
 30
0.0
  9
$PUCSXDIR
 10
1.0
 20
0.0
 30
0.0
  9
$PUCSYDIR
 10
0.0
 20
1.0
 30
0.0
  9
$USERI1
 70
     0
  9
$USERI2
 70
     0
  9
$USERI3
 70
     0
  9
$USERI4
 70
     0
  9
$USERI5
 70
     0
  9
$USERR1
 40
20.0
  9
$USERR2
 40
0.0
  9
$USERR3
 40
0.0
  9
$USERR4
 40
0.0
  9
$USERR5
 40
0.0
  9
$WORLDVIEW
 70
     1
  9
$SHADEDGE
 70
     3
  9
$SHADEDIF
 70
    70
  9
$TILEMODE
 70
     1
  9
$MAXACTVP
 70
    48
  9
$PLIMCHECK
 70
     0
  9
$PEXTMIN
 10
1.0000000000000000E+020
 20
1.0000000000000000E+020
 30
1.0000000000000000E+020
  9
$PEXTMAX
 10
-1.0000000000000000E+020
 20
-1.0000000000000000E+020
 30
-1.0000000000000000E+020
  9
$PLIMMIN
 10
0.0
 20
0.0
  9
$PLIMMAX
 10
12.0
 20
9.0
  9
$UNITMODE
 70
     0
  9
$VISRETAIN
 70
     1
  9
$PLINEGEN
 70
     0
  9
$PSLTSCALE
 70
     1
  0
ENDSEC
  0
SECTION
  2
TABLES
  0
TABLE
  2
VPORT
 70
     1
  0
VPORT
  2
*ACTIVE
 70
     0
 10
0.0
 20
0.0
 11
1.0
 21
1.0
 12
248.79327249991411
 22
-241.66561534307539
 13
0.0
 23
0.0
 14
400.0
 24
400.0
 15
400.0
 25
400.0
 16
0.0
 26
0.0
 36
1.0
 17
0.0
 27
0.0
 37
0.0
 40
1878.582458593711
 41
1.812051649928264
 42
50.0
 43
0.0
 44
0.0
 50
0.0
 51
0.0
 71
     0
 72
   500
 73
     1
 74
     0
 75
     0
 76
     0
 77
     0
 78
     1
  0
ENDTAB
  0
TABLE
  2
LTYPE
 70
     9
  0
LTYPE
  2
CONTINUOUS
 70
     0
  3
実線
 72
    65
 73
     0
 40
0.0
  0
LTYPE
  2
DOT
 70
     0
  3
...............................................
 72
    65
 73
     2
 40
0.8
 49
0.5
 49
-0.3
  0
LTYPE
  2
DASHED
 70
     0
  3
_ _ _ _ _ _ _ _ _ _ _ _ _ _ _ _ _ _ _ _ _ _ _
 72
    65
 73
     2
 40
2.0
 49
1.1999999999999991
 49
-0.8
  0
LTYPE
  2
DASHDOT
 70
     0
  3
____ _ ____ _ ____ _ ____ _ ____ _ ____ _ ____
 72
    65
 73
     4
 40
5.5
 49
4.0
 49
-0.6
 49
0.3
 49
-0.6
  0
LTYPE
  2
DASHDOT1
 70
     0
  3
____ _ ____ _ ____ _ ____ _ ____ _ ____ _ ____
 72
    65
 73
     4
 40
2.0
 49
1.5
 49
-0.2
 49
0.1
 49
-0.2
  0
LTYPE
  2
DIVIDE
 70
     0
  3
_____ _ _ _____ _ _ _____ _ _ _____ _ _ ____
 72
    65
 73
     6
 40
6.4000000000000004
 49
4.0
 49
-0.6
 49
0.3
 49
-0.6
 49
0.3
 49
-0.6
  0
LTYPE
  2
DIVIDE1
 70
     0
  3
_____ _ _ _____ _ _ _____ _ _ _____ _ _ ____
 72
    65
 73
     6
 40
3.2000000000000002
 49
2.0
 49
-0.3
 49
0.15
 49
-0.3
 49
0.15
 49
-0.3
  0
LTYPE
  2
CONTINOUS
 70
     0
  3
Solid line
 72
    65
 73
     0
 40
0.0
  0
ENDTAB
  0
TABLE
  2
LAYER
 70
    12
  0
LAYER
  2
0
 70
     0
 62
     7
  6
CONTINUOUS
  0
LAYER
  2
SIZE
 70
     0
 62
    30
  6
CONTINUOUS
  0
LAYER
  2
OUTLINE
 70
     0
 62
     3
  6
CONTINUOUS
  0
LAYER
  2
DETAIL
 70
     0
 62
     5
  6
CONTINUOUS
  0
LAYER
  2
BASIS
 70
     0
 62
     6
  6
DASHDOT
  0
LAYER
  2
NOTE
 70
     0
 62
     4
  6
CONTINUOUS
  0
LAYER
  2
ARRANGE
 70
     0
 62
     1
  6
CONTINUOUS
  0
LAYER
  2
FIX
 70
     0
 62
    11
  6
CONTINUOUS
  0
LAYER
  2
ETC
 70
     0
 62
    61
  6
CONTINUOUS
  0
LAYER
  2
DEFPOINTS
 70
     0
 62
     7
  6
CONTINUOUS
  0
LAYER
  2
SERVICESPACE
 70
     0
 62
     2
  6
DASHDOT
  0
LAYER
  2
SYMBOLLINE
 70
     0
 62
    15
  6
CONTINUOUS
  0
ENDTAB
  0
TABLE
  2
STYLE
 70
     2
  0
STYLE
  2
STANDARD
 70
     0
 40
0.0
 41
0.9
 50
0.0
 71
     0
 42
64.0
  3
SIMPLEX
  4
BIGFONT
  0
STYLE
  2
ANNOTATIVE
 70
     0
 40
0.0
 41
1.0
 50
0.0
 71
     0
 42
0.2
  3
txt
  4

  0
ENDTAB
  0
TABLE
  2
VIEW
 70
     1
  0
VIEW
  2
ALL
 70
     0
 40
6374.9789810000002
 10
0.0
 20
58.11501599999999
 41
8842.1052629999976
 11
0.0
 21
0.0
 31
1.0
 12
0.0
 22
0.0
 32
0.0
 42
50.0
 43
0.0
 44
0.0
 50
0.0
 71
     0
  0
ENDTAB
  0
TABLE
  2
UCS
 70
     0
  0
ENDTAB
  0
TABLE
  2
APPID
 70
     4
  0
APPID
  2
ACAD
 70
     0
  0
APPID
  2
ACADANNOTATIVE
 70
     0
  0
APPID
  2
ACAD_MLEADERVER
 70
     0
  0
APPID
  2
ACAD_EXEMPT_FROM_CAD_STANDARDS
 70
     0
  0
ENDTAB
  0
TABLE
  2
DIMSTYLE
 70
     2
  0
DIMSTYLE
  2
STANDARD
 70
     0
  3

  4

  5

  6

  7

 40
1.0
 41
0.18
 42
0.0625
 43
0.38
 44
0.18
 45
0.0
 46
0.0
 47
0.0
 48
0.0
140
0.18
141
0.09
142
0.0
143
25.399999999999999
144
1.0
145
0.0
146
1.0
147
0.09
 71
     0
 72
     0
 73
     1
 74
     1
 75
     0
 76
     0
 77
     0
 78
     0
170
     0
171
     2
172
     0
173
     0
174
     0
175
     0
176
     0
177
     0
178
     0
  0
DIMSTYLE
  2
ANNOTATIVE
 70
     0
  3

  4

  5

  6

  7

 40
1.0
 41
0.18
 42
0.0625
 43
0.38
 44
0.18
 45
0.0
 46
0.0
 47
0.0
 48
0.0
140
0.18
141
0.09
142
0.0
143
25.399999999999999
144
1.0
145
0.0
146
1.0
147
0.09
 71
     0
 72
     0
 73
     1
 74
     1
 75
     0
 76
     0
 77
     0
 78
     0
170
     0
171
     2
172
     0
173
     0
174
     0
175
     0
176
     0
177
     0
178
     0
  0
ENDTAB
  0
ENDSEC
  0
SECTION
  2
BLOCKS
  0
BLOCK
  8
0
  2
$MODEL_SPACE
 70
     0
 10
0.0
 20
0.0
 30
0.0
  3
$MODEL_SPACE
  1

  0
ENDBLK
  5
366
  8
0
  0
BLOCK
 67
     1
  8
0
  2
$PAPER_SPACE
 70
     0
 10
0.0
 20
0.0
 30
0.0
  3
$PAPER_SPACE
  1

  0
ENDBLK
  5
362
 67
     1
  8
0
  0
BLOCK
  8
0
 62
    30
  2
_NONE
 70
     0
 10
0.0
 20
0.0
 30
0.0
  3
_NONE
  1

  0
ENDBLK
  5
1B3
  8
0
 62
    30
  0
BLOCK
  8
0
 62
    30
  2
_OPEN30
 70
     0
 10
0.0
 20
0.0
 30
0.0
  3
_OPEN30
  1

  0
LINE
  5
1B6
  8
0
  6
BYBLOCK
 62
     0
 10
-1.0
 20
0.26794919
 30
0.0
 11
0.0
 21
0.0
 31
0.0
  0
LINE
  5
1B7
  8
0
  6
BYBLOCK
 62
     0
 10
0.0
 20
0.0
 30
0.0
 11
-1.0
 21
-0.26794919
 31
0.0
  0
LINE
  5
1B8
  8
0
  6
BYBLOCK
 62
     0
 10
0.0
 20
0.0
 30
0.0
 11
-1.0
 21
0.0
 31
0.0
  0
ENDBLK
  5
1B9
  8
0
 62
    30
  0
ENDSEC
  0
SECTION
  2
ENTITIES
  0
LINE
  5
1C4
  8
DETAIL
  6
CONTINUOUS
 62
     5
 10
450.0
 20
-200.0
 30
0.0
 11
450.0
 21
0.0
 31
0.0
  0
LINE
  5
1C5
  8
DETAIL
  6
CONTINUOUS
 62
     5
 10
-450.0
 20
0.0
 30
0.0
 11
450.0
 21
0.0
 31
0.0
  0
LINE
  5
1C6
  8
BASIS
  6
DASHDOT
 62
     6
 10
0.0
 20
-671.94006799999966
 30
0.0
 11
0.0
 21
62.599742999999989
 31
0.0
  0
LINE
  5
1C7
  8
DETAIL
  6
CONTINOUS
 62
     5
 10
450.0
 20
-600.0
 30
0.0
 11
450.0
 21
-200.0
 31
0.0
  0
LINE
  5
1C8
  8
DETAIL
  6
CONTINOUS
 62
     5
 10
450.0
 20
-200.0
 30
0.0
 11
-450.0
 21
-200.0
 31
0.0
  0
LINE
  5
1C9
  8
DETAIL
  6
CONTINOUS
 62
     5
 10
-450.0
 20
-600.0
 30
0.0
 11
-450.0
 21
0.0
 31
0.0
  0
LINE
  5
1CA
  8
DETAIL
  6
CONTINOUS
 62
     5
 10
450.0
 20
-600.0
 30
0.0
 11
-450.0
 21
-600.0
 31
0.0
  0
CIRCLE
  5
1CB
  8
FIX
  6
CONTINUOUS
 62
    11
 10
240.0
 20
-260.0
 30
0.0
 40
4.0
  0
CIRCLE
  5
1CC
  8
FIX
  6
CONTINUOUS
 62
    11
 10
-240.0
 20
-260.0
 30
0.0
 40
4.0
  0
CIRCLE
  5
1CD
  8
FIX
  6
CONTINUOUS
 62
    11
 10
240.0
 20
-495.0
 30
0.0
 40
4.0
  0
CIRCLE
  5
1CE
  8
FIX
  6
CONTINUOUS
 62
    11
 10
-240.0
 20
-495.0
 30
0.0
 40
4.0
  0
CIRCLE
  5
1CF
  8
FIX
  6
CONTINUOUS
 62
    11
 10
240.0
 20
-200.0
 30
0.0
 40
12.5
  0
CIRCLE
  5
1D0
  8
FIX
  6
CONTINUOUS
 62
    11
 10
-240.0
 20
-200.0
 30
0.0
 40
12.5
  0
TEXT
  5
1D1
  8
NOTE
  6
CONTINUOUS
 62
     4
 10
-46.875295000000001
 20
-120.5883959999999
 30
0.0
 40
64.0
  1
EA
 41
0.9
  0
TEXT
  5
1D2
  8
NOTE
  6
CONTINUOUS
 62
     4
 10
-265.68241799999998
 20
-397.29981199999992
 30
0.0
 40
64.0
  1
EL
 41
0.9
  0
LINE
  5
1D3
  8
NOTE
  6
CONTINUOUS
 62
     4
 10
-151.348455
 20
-426.41268400000001
 30
0.0
 11
-301.348455
 21
-426.41268400000001
 31
0.0
  0
TEXT
  5
1D4
  8
NOTE
  6
CONTINUOUS
 62
     4
 10
-788.03323499999988
 20
-732.88894100000005
 30
0.0
 40
64.0
  1
4-φ8
 41
0.9
  0
LINE
  5
1D5
  8
NOTE
  6
CONTINUOUS
 62
     4
 10
-519.80605400000002
 20
-764.54697499999975
 30
0.0
 11
-813.35995000000003
 21
-764.54697499999975
 31
0.0
  0
TEXT
  5
1D6
  8
NOTE
  6
CONTINUOUS
 62
     4
 10
566.13579200000004
 20
162.514535
 30
0.0
 40
64.0
  1
AH 2×2-φ25
 41
0.9
  0
LINE
  5
1D7
  8
NOTE
  6
CONTINUOUS
 62
     4
 10
530.23193000000003
 20
126.312783
 30
0.0
 11
1138.46
 21
126.312783
 31
0.0
  0
LINE
  5
1D8
  8
SIZE
  6
CONTINUOUS
 62
    30
 10
635.44316800000001
 20
-596.0
 30
0.0
 11
635.44316800000001
 21
-774.35803099999964
 31
0.0
  0
LINE
  5
1D9
  8
NOTE
  6
CONTINUOUS
 62
     4
 10
-192.0
 20
-200.0
 30
0.0
 11
-153.348455
 21
-426.41268400000001
 31
0.0
  0
LINE
  5
1DA
  8
NOTE
  6
CONTINUOUS
 62
     4
 10
240.0
 20
-200.0
 30
0.0
 11
530.23193000000003
 21
126.312783
 31
0.0
  0
POINT
  5
1DB
  8
ARRANGE
  6
CONTINUOUS
 62
     1
 10
0.0
 20
0.0
 30
0.0
  0
CIRCLE
  5
1DC
  8
ARRANGE
  6
CONTINUOUS
 62
     1
 10
0.0
 20
0.0
 30
0.0
 40
40.0
  0
CIRCLE
  5
1DD
  8
DETAIL
  6
CONTINUOUS
 62
     5
 10
-240.0
 20
-260.0
 30
0.0
 40
4.0
  0
CIRCLE
  5
1DE
  8
DETAIL
  6
CONTINUOUS
 62
     5
 10
-240.0
 20
-495.0
 30
0.0
 40
4.0
  0
CIRCLE
  5
1DF
  8
DETAIL
  6
CONTINUOUS
 62
     5
 10
240.0
 20
-260.0
 30
0.0
 40
4.0
  0
CIRCLE
  5
1E0
  8
DETAIL
  6
CONTINUOUS
 62
     5
 10
240.0
 20
-495.0
 30
0.0
 40
4.0
  0
LINE
  5
1E1
  8
DETAIL
  6
CONTINOUS
 62
     5
 10
-280.0
 20
-200.0
 30
0.0
 11
0.0
 21
-200.0
 31
0.0
  0
LINE
  5
1E2
  8
DETAIL
  6
CONTINOUS
 62
     5
 10
280.0
 20
-200.0
 30
0.0
 11
0.0
 21
-200.0
 31
0.0
  0
LINE
  5
1E3
  8
DETAIL
  6
CONTINOUS
 62
     5
 10
-435.0
 20
-200.0
 30
0.0
 11
-435.0
 21
0.0
 31
0.0
  0
LINE
  5
1E4
  8
DETAIL
  6
CONTINUOUS
 62
     5
 10
435.0
 20
-200.0
 30
0.0
 11
435.0
 21
0.0
 31
0.0
  0
LINE
  5
1E5
  8
DETAIL
  6
CONTINOUS
 62
     5
 10
430.0
 20
-600.0
 30
0.0
 11
430.0
 21
-200.0
 31
0.0
  0
LINE
  5
1E6
  8
DETAIL
  6
CONTINOUS
 62
     5
 10
-430.0
 20
-600.0
 30
0.0
 11
-430.0
 21
-200.0
 31
0.0
  0
LINE
  5
1E7
  8
NOTE
  6
CONTINUOUS
 62
     4
 10
-240.0
 20
-495.0
 30
0.0
 11
-519.80605400000002
 21
-764.54697499999975
 31
0.0
  0
LINE
  5
1E8
  8
DETAIL
  6
CONTINUOUS
 62
     5
 10
130.0
 20
-197.0
 30
0.0
 11
130.0
 21
-200.0
 31
0.0
  0
ARC
  5
1E9
  8
DETAIL
  6
CONTINUOUS
 62
     5
 10
-129.0
 20
-196.0
 30
0.0
 40
1.0
 50
90.0
 51
180.0
  0
LINE
  5
1EA
  8
DETAIL
  6
CONTINUOUS
 62
     5
 10
-73.999591000000024
 20
-145.0
 30
0.0
 11
74.000408999999976
 21
-145.0
 31
0.0
  0
LINE
  5
1EB
  8
DETAIL
  6
CONTINUOUS
 62
     5
 10
130.0
 20
-197.0
 30
0.0
 11
130.0
 21
-196.0
 31
0.0
  0
LINE
  5
1EC
  8
DETAIL
  6
CONTINUOUS
 62
     5
 10
129.0
 20
-195.0
 30
0.0
 11
-119.715074
 21
-195.0
 31
0.0
  0
ARC
  5
1ED
  8
DETAIL
  6
CONTINUOUS
 62
     5
 10
129.0
 20
-196.0
 30
0.0
 40
1.0
 50
0.0
 51
90.0
  0
LINE
  5
1EE
  8
DETAIL
  6
CONTINUOUS
 62
     5
 10
77.000408999999976
 20
-189.40000000000001
 30
0.0
 11
77.000408999999976
 21
-186.64705900000001
 31
0.0
  0
LINE
  5
1EF
  8
DETAIL
  6
CONTINUOUS
 62
     5
 10
74.000408999999976
 20
-183.976471
 30
0.0
 11
74.000408999999976
 21
-145.0
 31
0.0
  0
LINE
  5
1F0
  8
DETAIL
  6
CONTINUOUS
 62
     5
 10
-73.999591000000024
 20
-185.0
 30
0.0
 11
75.125408999999976
 21
-185.0
 31
0.0
  0
LINE
  5
1F1
  8
DETAIL
  6
CONTINUOUS
 62
     5
 10
-130.0
 20
-200.0
 30
0.0
 11
-130.0
 21
-196.0
 31
0.0
  0
LINE
  5
1F2
  8
DETAIL
  6
CONTINUOUS
 62
     5
 10
-119.715074
 20
-195.0
 30
0.0
 11
-129.0
 21
-195.0
 31
0.0
  0
ARC
  5
1F3
  8
DETAIL
  6
CONTINUOUS
 62
     5
 10
75.000408999999976
 20
-183.976471
 30
0.0
 40
1.0
 50
180.0
 51
262.84733099999988
  0
ARC
  5
1F4
  8
DETAIL
  6
CONTINUOUS
 62
     5
 10
75.400408999999982
 20
-186.64705900000001
 30
0.0
 40
1.6000000000000001
 50
0.0
 51
82.847331000000025
  0
LINE
  5
1F5
  8
DETAIL
  6
CONTINUOUS
 62
     5
 10
74.875895
 20
-184.9686889999999
 30
0.0
 11
75.599630000000005
 21
-185.0595099999999
 31
0.0
  0
ARC
  5
1F6
  8
DETAIL
  6
CONTINUOUS
 62
     5
 10
87.000408999999948
 20
-189.40000000000001
 30
0.0
 40
10.0
 50
180.0
 51
214.05579800000001
  0
LINE
  5
1F7
  8
DETAIL
  6
CONTINUOUS
 62
     5
 10
-73.999591000000024
 20
-183.976471
 30
0.0
 11
-73.999591000000024
 21
-145.0
 31
0.0
  0
LINE
  5
1F8
  8
DETAIL
  6
CONTINUOUS
 62
     5
 10
-74.875078000000002
 20
-184.9686889999999
 30
0.0
 11
-75.598813000000007
 21
-185.0595099999999
 31
0.0
  0
ARC
  5
1F9
  8
DETAIL
  6
CONTINUOUS
 62
     5
 10
-74.999591000000024
 20
-183.976471
 30
0.0
 40
1.0
 50
277.15266899999989
 51
0.0
  0
LINE
  5
1FA
  8
DETAIL
  6
CONTINUOUS
 62
     5
 10
-76.999590999999981
 20
-189.40000000000001
 30
0.0
 11
-76.999590999999981
 21
-186.64705900000001
 31
0.0
  0
ARC
  5
1FB
  8
DETAIL
  6
CONTINUOUS
 62
     5
 10
-86.999590999999995
 20
-189.40000000000001
 30
0.0
 40
10.0
 50
325.94420200000002
 51
0.0
  0
ARC
  5
1FC
  8
DETAIL
  6
CONTINUOUS
 62
     5
 10
-75.399591000000001
 20
-186.64705900000001
 30
0.0
 40
1.6000000000000001
 50
97.152669000000003
 51
180.0
  0
LINE
  5
1FD
  8
SIZE
  6
CONTINUOUS
 62
    30
 10
-647.75795199999982
 20
-200.0
 30
0.0
 11
-647.75795199999982
 21
-30.234965999999989
 31
0.0
  0
TEXT
  5
1FE
  8
NOTE
  6
CONTINUOUS
 62
     4
 10
-344.91579300000001
 20
184.1304899999999
 30
0.0
 40
64.0
  1
ダクト接続口可動寸法
 41
0.9
  0
LINE
  5
1FF
  8
SIZE
  6
CONTINUOUS
 62
    30
 10
74.000408999999976
 20
-426.92821700000002
 30
0.0
 11
301.22407999999967
 21
-426.92821700000002
 31
0.0
  0
LINE
  5
200
  8
SIZE
  6
BYBLOCK
 62
    30
 10
-73.999591000000024
 20
-203.976471
 30
0.0
 11
-73.999591000000024
 21
-456.92821700000002
 31
0.0
  0
LINE
  5
201
  8
SIZE
  6
BYBLOCK
 62
    30
 10
74.000408999999976
 20
-203.976471
 30
0.0
 11
74.000408999999976
 21
-456.92821700000002
 31
0.0
  0
LINE
  5
202
  8
SIZE
  6
BYBLOCK
 62
    30
 10
76.000408999999976
 20
-426.92821700000002
 30
0.0
 11
78.000408999999976
 21
-426.92821700000002
 31
0.0
  0
LINE
  5
203
  8
SIZE
  6
BYBLOCK
 62
    30
 10
-75.999591000000024
 20
-426.92821700000002
 30
0.0
 11
-77.999591000000024
 21
-426.92821700000002
 31
0.0
  0
LINE
  5
204
  8
SIZE
  6
BYBLOCK
 62
    30
 10
74.000408999999976
 20
-426.92821700000002
 30
0.0
 11
-73.999591000000024
 21
-426.92821700000002
 31
0.0
  0
TEXT
  5
205
  8
SIZE
  6
BYBLOCK
 62
    30
 10
87.926152000000002
 20
-394.92821700000002
 30
0.0
 40
64.0
  1
φ148
 41
0.9
  0
LINE
  5
206
  8
SIZE
  6
BYBLOCK
 62
    30
 10
10.0
 20
-70.883473999999978
 30
0.0
 11
10.0
 21
291.81558299999989
 31
0.0
  0
LINE
  5
207
  8
SIZE
  6
BYBLOCK
 62
    30
 10
-10.0
 20
-70.883473999999978
 30
0.0
 11
-10.0
 21
291.81558299999989
 31
0.0
  0
LINE
  5
208
  8
SIZE
  6
BYBLOCK
 62
    30
 10
-12.0
 20
261.815583
 30
0.0
 11
-14.0
 21
261.815583
 31
0.0
  0
LINE
  5
209
  8
SIZE
  6
BYBLOCK
 62
    30
 10
12.0
 20
261.815583
 30
0.0
 11
14.0
 21
261.815583
 31
0.0
  0
LINE
  5
20A
  8
SIZE
  6
BYBLOCK
 62
    30
 10
-10.0
 20
261.815583
 30
0.0
 11
10.0
 21
261.815583
 31
0.0
  0
TEXT
  5
20B
  8
SIZE
  6
BYBLOCK
 62
    30
 10
-46.628571000000001
 20
293.81558299999989
 30
0.0
 40
64.0
  1
20
 41
0.9
  0
LINE
  5
20D
  8
SIZE
  6
BYBLOCK
 62
    30
 10
-93.999591000000024
 20
-185.0
 30
0.0
 11
-677.7579519999997
 21
-185.0
 31
0.0
  0
LINE
  5
20E
  8
SIZE
  6
BYBLOCK
 62
    30
 10
-647.75795199999982
 20
-183.0
 30
0.0
 11
-647.75795199999982
 21
-181.0
 31
0.0
  0
LINE
  5
20F
  8
SIZE
  6
BYBLOCK
 62
    30
 10
-647.75795199999982
 20
-202.0
 30
0.0
 11
-647.75795199999982
 21
-204.0
 31
0.0
  0
LINE
  5
210
  8
SIZE
  6
BYBLOCK
 62
    30
 10
-647.75795199999982
 20
-185.0
 30
0.0
 11
-647.75795199999982
 21
-200.0
 31
0.0
  0
TEXT
  5
211
  8
SIZE
  6
BYBLOCK
 62
    30
 10
-683.6020900000002
 20
-119.7824659999999
 30
0.0
 40
64.0
  1
15
 50
90.0
 41
0.9
  0
LINE
  5
213
  8
SIZE
  6
BYBLOCK
 62
    30
 10
-93.999591000000024
 20
-145.0
 30
0.0
 11
-818.25639999999987
 21
-145.0
 31
0.0
  0
LINE
  5
214
  8
SIZE
  6
BYBLOCK
 62
    30
 10
-788.25639999999999
 20
-143.0
 30
0.0
 11
-788.25639999999999
 21
-141.0
 31
0.0
  0
LINE
  5
215
  8
SIZE
  6
BYBLOCK
 62
    30
 10
-788.25639999999999
 20
-202.0
 30
0.0
 11
-788.25639999999999
 21
-204.0
 31
0.0
  0
LINE
  5
216
  8
SIZE
  6
BYBLOCK
 62
    30
 10
-788.25639999999999
 20
-145.0
 30
0.0
 11
-788.25639999999999
 21
-200.0
 31
0.0
  0
TEXT
  5
217
  8
SIZE
  6
BYBLOCK
 62
    30
 10
-820.25639999999999
 20
-217.12857099999991
 30
0.0
 40
64.0
  1
55
 50
90.0
 41
0.9
  0
LINE
  5
218
  8
SIZE
  6
BYBLOCK
 62
    30
 10
240.0
 20
-160.0
 30
0.0
 11
240.0
 21
441.24682599999988
 31
0.0
  0
LINE
  5
219
  8
SIZE
  6
BYBLOCK
 62
    30
 10
-240.0
 20
-160.0
 30
0.0
 11
-240.0
 21
441.24682599999988
 31
0.0
  0
LINE
  5
21A
  8
SIZE
  6
BYBLOCK
 62
    30
 10
238.0
 20
411.24682599999988
 30
0.0
 11
0.0
 21
411.24682599999988
 31
0.0
  0
LINE
  5
21B
  8
SIZE
  6
BYBLOCK
 62
    30
 10
-238.0
 20
411.24682599999988
 30
0.0
 11
0.0
 21
411.24682599999988
 31
0.0
  0
TEXT
  5
21C
  8
SIZE
  6
BYBLOCK
 62
    30
 10
-74.057143000000025
 20
443.246826
 30
0.0
 40
64.0
  1
480
 41
0.9
  0
LINE
  5
21D
  8
SIZE
  6
BYBLOCK
 62
    30
 10
470.0
 20
-600.0
 30
0.0
 11
816.56543899999986
 21
-600.0
 31
0.0
  0
LINE
  5
21E
  8
SIZE
  6
BYBLOCK
 62
    30
 10
280.0
 20
-260.0
 30
0.0
 11
816.56543899999986
 21
-260.0
 31
0.0
  0
LINE
  5
21F
  8
SIZE
  6
BYBLOCK
 62
    30
 10
786.56543899999986
 20
-598.0
 30
0.0
 11
786.56543899999986
 21
-430.0
 31
0.0
  0
LINE
  5
220
  8
SIZE
  6
BYBLOCK
 62
    30
 10
786.56543899999986
 20
-262.0
 30
0.0
 11
786.56543899999986
 21
-430.0
 31
0.0
  0
TEXT
  5
221
  8
SIZE
  6
BYBLOCK
 62
    30
 10
754.56543899999986
 20
-504.05714299999988
 30
0.0
 40
64.0
  1
340
 50
90.0
 41
0.9
  0
LINE
  5
222
  8
SIZE
  6
BYBLOCK
 62
    30
 10
470.0
 20
-600.0
 30
0.0
 11
665.44316800000001
 21
-600.0
 31
0.0
  0
LINE
  5
223
  8
SIZE
  6
BYBLOCK
 62
    30
 10
280.0
 20
-495.0
 30
0.0
 11
665.44316800000001
 21
-495.0
 31
0.0
  0
LINE
  5
224
  8
SIZE
  6
BYBLOCK
 62
    30
 10
635.44316800000001
 20
-493.0
 30
0.0
 11
635.44316800000001
 21
-491.0
 31
0.0
  0
LINE
  5
225
  8
SIZE
  6
BYBLOCK
 62
    30
 10
635.44316800000001
 20
-602.0
 30
0.0
 11
635.44316800000001
 21
-604.0
 31
0.0
  0
LINE
  5
226
  8
SIZE
  6
BYBLOCK
 62
    30
 10
635.44316800000001
 20
-495.0
 30
0.0
 11
635.44316800000001
 21
-600.0
 31
0.0
  0
TEXT
  5
227
  8
SIZE
  6
BYBLOCK
 62
    30
 10
603.4431679999999
 20
-768.78868499999987
 30
0.0
 40
64.0
  1
105
 50
90.0
 41
0.9
  0
LINE
  5
228
  8
SIZE
  6
BYBLOCK
 62
    30
 10
-470.0
 20
-600.0
 30
0.0
 11
-818.25639999999987
 21
-600.0
 31
0.0
  0
LINE
  5
229
  8
SIZE
  6
BYBLOCK
 62
    30
 10
-470.0
 20
-200.0
 30
0.0
 11
-818.25639999999987
 21
-200.0
 31
0.0
  0
LINE
  5
22A
  8
SIZE
  6
BYBLOCK
 62
    30
 10
-788.25639999999999
 20
-598.0
 30
0.0
 11
-788.25639999999999
 21
-400.0
 31
0.0
  0
LINE
  5
22B
  8
SIZE
  6
BYBLOCK
 62
    30
 10
-788.25639999999999
 20
-202.0
 30
0.0
 11
-788.25639999999999
 21
-400.0
 31
0.0
  0
TEXT
  5
22C
  8
SIZE
  6
BYBLOCK
 62
    30
 10
-820.25639999999999
 20
-474.057143
 30
0.0
 40
64.0
  1
400
 50
90.0
 41
0.9
  0
LINE
  5
22D
  8
SIZE
  6
BYBLOCK
 62
    30
 10
-470.0
 20
-600.0
 30
0.0
 11
-962.84680299999957
 21
-600.0
 31
0.0
  0
LINE
  5
22E
  8
SIZE
  6
BYBLOCK
 62
    30
 10
-470.0
 20
0.0
 30
0.0
 11
-962.84680299999957
 21
0.0
 31
0.0
  0
LINE
  5
22F
  8
SIZE
  6
BYBLOCK
 62
    30
 10
-932.84680299999991
 20
-598.0
 30
0.0
 11
-932.84680299999991
 21
-300.0
 31
0.0
  0
LINE
  5
230
  8
SIZE
  6
BYBLOCK
 62
    30
 10
-932.84680299999991
 20
-2.0
 30
0.0
 11
-932.84680299999991
 21
-300.0
 31
0.0
  0
TEXT
  5
231
  8
SIZE
  6
BYBLOCK
 62
    30
 10
-964.84680300000002
 20
-374.057143
 30
0.0
 40
64.0
  1
600
 50
90.0
 41
0.9
  0
LINE
  5
232
  8
SIZE
  6
BYBLOCK
 62
    30
 10
-450.0
 20
-620.0
 30
0.0
 11
-450.0
 21
-1029.37402
 31
0.0
  0
LINE
  5
233
  8
SIZE
  6
BYBLOCK
 62
    30
 10
450.0
 20
-620.0
 30
0.0
 11
450.0
 21
-1029.37402
 31
0.0
  0
LINE
  5
234
  8
SIZE
  6
BYBLOCK
 62
    30
 10
-448.0
 20
-999.37401999999986
 30
0.0
 11
0.0
 21
-999.37401999999986
 31
0.0
  0
LINE
  5
235
  8
SIZE
  6
BYBLOCK
 62
    30
 10
448.0
 20
-999.37401999999986
 30
0.0
 11
0.0
 21
-999.37401999999986
 31
0.0
  0
TEXT
  5
236
  8
SIZE
  6
BYBLOCK
 62
    30
 10
-67.199046999999993
 20
-967.37401999999986
 30
0.0
 40
64.0
  1
900
 41
0.9
  0
LINE
  5
237
  8
SIZE
  6
BYBLOCK
 62
    30
 10
240.0
 20
-535.0
 30
0.0
 11
240.0
 21
-889.84092599999985
 31
0.0
  0
LINE
  5
238
  8
SIZE
  6
BYBLOCK
 62
    30
 10
-240.0
 20
-535.0
 30
0.0
 11
-240.0
 21
-889.84092599999985
 31
0.0
  0
LINE
  5
239
  8
SIZE
  6
BYBLOCK
 62
    30
 10
238.0
 20
-859.84092599999985
 30
0.0
 11
0.0
 21
-859.84092599999985
 31
0.0
  0
LINE
  5
23A
  8
SIZE
  6
BYBLOCK
 62
    30
 10
-238.0
 20
-859.84092599999985
 30
0.0
 11
0.0
 21
-859.84092599999985
 31
0.0
  0
TEXT
  5
23B
  8
SIZE
  6
BYBLOCK
 62
    30
 10
-74.057143000000025
 20
-827.84092599999985
 30
0.0
 40
64.0
  1
480
 41
0.9
  0
CIRCLE
  5
23C
  8
SIZE
  6
CONTINUOUS
 62
    30
 10
-240.0
 20
-859.84092599999985
 30
0.0
 40
6.0
  0
CIRCLE
  5
23D
  8
SIZE
  6
CONTINUOUS
 62
    30
 10
240.0
 20
-859.84092599999985
 30
0.0
 40
6.0
  0
CIRCLE
  5
23E
  8
SIZE
  6
CONTINUOUS
 62
    30
 10
450.0
 20
-999.37401999999986
 30
0.0
 40
6.0
  0
CIRCLE
  5
23F
  8
SIZE
  6
CONTINUOUS
 62
    30
 10
-450.0
 20
-999.37401999999986
 30
0.0
 40
6.0
  0
CIRCLE
  5
240
  8
SIZE
  6
CONTINUOUS
 62
    30
 10
-932.84680299999991
 20
0.0
 30
0.0
 40
6.0
  0
CIRCLE
  5
241
  8
SIZE
  6
CONTINUOUS
 62
    30
 10
-932.84680299999991
 20
-600.0
 30
0.0
 40
6.0
  0
CIRCLE
  5
242
  8
SIZE
  6
CONTINUOUS
 62
    30
 10
-788.25639999999999
 20
-200.0
 30
0.0
 40
6.0
  0
CIRCLE
  5
243
  8
SIZE
  6
CONTINUOUS
 62
    30
 10
-788.25639999999999
 20
-600.0
 30
0.0
 40
6.0
  0
CIRCLE
  5
244
  8
SIZE
  6
CONTINUOUS
 62
    30
 10
635.44316800000001
 20
-600.0
 30
0.0
 40
6.0
  0
CIRCLE
  5
245
  8
SIZE
  6
CONTINUOUS
 62
    30
 10
635.44316800000001
 20
-495.0
 30
0.0
 40
6.0
  0
CIRCLE
  5
246
  8
SIZE
  6
CONTINUOUS
 62
    30
 10
786.56543899999986
 20
-260.0
 30
0.0
 40
6.0
  0
CIRCLE
  5
247
  8
SIZE
  6
CONTINUOUS
 62
    30
 10
786.56543899999986
 20
-600.0
 30
0.0
 40
6.0
  0
CIRCLE
  5
248
  8
SIZE
  6
CONTINUOUS
 62
    30
 10
-240.0
 20
411.24682599999988
 30
0.0
 40
6.0
  0
CIRCLE
  5
249
  8
SIZE
  6
CONTINUOUS
 62
    30
 10
240.0
 20
411.24682599999988
 30
0.0
 40
6.0
  0
CIRCLE
  5
24A
  8
SIZE
  6
CONTINUOUS
 62
    30
 10
-788.25639999999999
 20
-200.0
 30
0.0
 40
6.0
  0
CIRCLE
  5
24B
  8
SIZE
  6
CONTINUOUS
 62
    30
 10
-788.25639999999999
 20
-145.0
 30
0.0
 40
6.0
  0
CIRCLE
  5
24C
  8
SIZE
  6
CONTINUOUS
 62
    30
 10
-647.75795199999982
 20
-200.0
 30
0.0
 40
6.0
  0
CIRCLE
  5
24D
  8
SIZE
  6
CONTINUOUS
 62
    30
 10
-647.75795199999982
 20
-185.0
 30
0.0
 40
6.0
  0
CIRCLE
  5
24E
  8
SIZE
  6
CONTINUOUS
 62
    30
 10
10.0
 20
261.815583
 30
0.0
 40
6.0
  0
CIRCLE
  5
24F
  8
SIZE
  6
CONTINUOUS
 62
    30
 10
-10.0
 20
261.815583
 30
0.0
 40
6.0
  0
CIRCLE
  5
250
  8
SIZE
  6
CONTINUOUS
 62
    30
 10
-73.999591000000024
 20
-426.92821700000002
 30
0.0
 40
6.0
  0
CIRCLE
  5
251
  8
SIZE
  6
CONTINUOUS
 62
    30
 10
74.000408999999976
 20
-426.92821700000002
 30
0.0
 40
6.0
  0
LINE
  5
252
  8
NOTE
  6
CONTINUOUS
 62
     4
 10
-240.0
 20
-220.0
 30
0.0
 11
-240.0
 21
-180.0
 31
0.0
  0
LINE
  5
253
  8
NOTE
  6
CONTINUOUS
 62
     4
 10
-260.0
 20
-200.0
 30
0.0
 11
-220.0
 21
-200.0
 31
0.0
  0
LINE
  5
254
  8
NOTE
  6
CONTINUOUS
 62
     4
 10
240.0
 20
-220.0
 30
0.0
 11
240.0
 21
-180.0
 31
0.0
  0
LINE
  5
255
  8
NOTE
  6
CONTINUOUS
 62
     4
 10
260.0
 20
-200.0
 30
0.0
 11
220.0
 21
-200.0
 31
0.0
  0
LINE
  5
256
  8
NOTE
  6
CONTINUOUS
 62
     4
 10
-240.0
 20
-515.0
 30
0.0
 11
-240.0
 21
-475.0
 31
0.0
  0
LINE
  5
257
  8
NOTE
  6
CONTINUOUS
 62
     4
 10
-260.0
 20
-495.0
 30
0.0
 11
-220.0
 21
-495.0
 31
0.0
  0
LINE
  5
258
  8
NOTE
  6
CONTINUOUS
 62
     4
 10
-240.0
 20
-280.0
 30
0.0
 11
-240.0
 21
-240.0
 31
0.0
  0
LINE
  5
259
  8
NOTE
  6
CONTINUOUS
 62
     4
 10
-260.0
 20
-260.0
 30
0.0
 11
-220.0
 21
-260.0
 31
0.0
  0
LINE
  5
25A
  8
NOTE
  6
CONTINUOUS
 62
     4
 10
240.0
 20
-515.0
 30
0.0
 11
240.0
 21
-475.0
 31
0.0
  0
LINE
  5
25B
  8
NOTE
  6
CONTINUOUS
 62
     4
 10
260.0
 20
-495.0
 30
0.0
 11
220.0
 21
-495.0
 31
0.0
  0
LINE
  5
25C
  8
NOTE
  6
CONTINUOUS
 62
     4
 10
240.0
 20
-280.0
 30
0.0
 11
240.0
 21
-240.0
 31
0.0
  0
LINE
  5
25D
  8
NOTE
  6
CONTINUOUS
 62
     4
 10
260.0
 20
-260.0
 30
0.0
 11
220.0
 21
-260.0
 31
0.0
  0
TEXT
  5
25E
  8
ETC
  6
CONTINUOUS
 62
    61
 10
655.06420707354198
 20
565.84738500085984
 30
0.0
 40
64.0
  1
V-904KD7_3
 41
0.9
  0
TEXT
  5
25F
  8
ETC
  6
CONTINUOUS
 62
    61
 10
794.60571978913595
 20
371.06406971555992
 30
0.0
 40
50.0
  1
V-904KD6
 41
0.9
  0
TEXT
  5
260
  8
ETC
  6
CONTINUOUS
 62
    61
 10
654.98152007354201
 20
456.30093500085991
 30
0.0
 40
64.0
  1
換気扇
 41
0.9
  0
LINE
  5
261
  8
NOTE
  6
CONTINUOUS
 62
     4
 10
-192.0
 20
-220.0
 30
0.0
 11
-192.0
 21
-180.0
 31
0.0
  0
LINE
  5
262
  8
NOTE
  6
CONTINUOUS
 62
     4
 10
-209.75173769157101
 20
-200.0
 30
0.0
 11
-173.93717608095719
 21
-200.0
 31
0.0
  0
LINE
  5
263
  8
OUTLINE
  6
CONTINOUS
 62
     3
 10
450.0
 20
-600.0
 30
0.0
 11
-450.0
 21
-600.0
 31
0.0
  0
LINE
  5
264
  8
OUTLINE
  6
CONTINUOUS
 62
     3
 10
-450.0
 20
0.0
 30
0.0
 11
450.0
 21
0.0
 31
0.0
  0
LINE
  5
266
  8
OUTLINE
  6
CONTINOUS
 62
     3
 10
-450.0
 20
-600.0
 30
0.0
 11
-450.0
 21
0.0
 31
0.0
  0
LINE
  5
267
  8
OUTLINE
  6
CONTINOUS
 62
     3
 10
450.0
 20
-600.0
 30
0.0
 11
450.0
 21
-200.0
 31
0.0
  0
LINE
  5
268
  8
BASIS
  6
DASHDOT
 62
     6
 10
10.0
 20
-264.4926789999999
 30
0.0
 11
10.0
 21
-90.883474000000007
 31
0.0
  0
LINE
  5
269
  8
BASIS
  6
DASHDOT
 62
     6
 10
-10.0
 20
-264.4926789999999
 30
0.0
 11
-10.0
 21
-90.883474000000007
 31
0.0
  0
LINE
  5
26A
  8
OUTLINE
  6
CONTINUOUS
 62
     3
 10
450.0
 20
-200.0
 30
0.0
 11
450.0
 21
0.0
 31
0.0
  0
CIRCLE
  5
26B
  8
SIZE
  6
CONTINUOUS
 62
    30
 10
-450.0
 20
70.528123800065273
 30
0.0
 40
6.0
  0
CIRCLE
  5
26C
  8
SIZE
  6
CONTINUOUS
 62
    30
 10
-191.9999999999998
 20
70.528123800065273
 30
0.0
 40
6.0
  0
LINE
  5
26D
  8
SIZE
  6
CONTINUOUS
 10
-192.0
 20
-160.0
 30
0.0
 11
-191.9999999999998
 21
90.528123800065259
 31
0.0
  0
LINE
  5
26E
  8
SIZE
  6
CONTINUOUS
 10
-450.0
 20
20.0
 30
0.0
 11
-450.0
 21
90.528123800065259
 31
0.0
  0
LINE
  5
26F
  8
SIZE
  6
CONTINUOUS
 10
-191.9999999999998
 20
70.528123800065273
 30
0.0
 11
-450.0
 21
70.528123800065273
 31
0.0
  0
LINE
  5
270
  8
NOTE
  6
CONTINUOUS
 62
     4
 10
-194.59698700000001
 20
-239.91560699999999
 30
0.0
 11
-192.0
 21
-200.0
 31
0.0
  0
LINE
  5
271
  8
NOTE
  6
CONTINUOUS
 62
     4
 10
-192.0
 20
-200.0
 30
0.0
 11
-174.2912539999999
 21
-235.866423
 31
0.0
  0
TEXT
  5
272
  8
SIZE
  6
CONTINUOUS
 10
-395.05714285714271
 20
95.528123800065259
 30
0.0
 40
64.0
  1
258
 41
0.9
  0
LINE
  5
273
  8
NOTE
  6
CONTINUOUS
 62
     4
 10
-254.6396629999999
 20
-532.22472699999992
 30
0.0
 11
-240.0
 21
-495.0
 31
0.0
  0
LINE
  5
274
  8
NOTE
  6
CONTINUOUS
 62
     4
 10
-240.0
 20
-495.0
 30
0.0
 11
-279.02464646907521
 21
-513.58562142766266
 31
0.0
  0
LINE
  5
275
  8
NOTE
  6
CONTINUOUS
 62
     4
 10
256.92313799999999
 20
-163.75627800000001
 30
0.0
 11
240.0
 21
-200.0
 31
0.0
  0
LINE
  5
276
  8
NOTE
  6
CONTINUOUS
 62
     4
 10
240.0
 20
-200.0
 30
0.0
 11
272.77772799999991
 21
-177.07358400000001
 31
0.0
  0
TEXT
  5
387
  8
ETC
  6
CONTINUOUS
 62
    61
 10
794.60571978913595
 20
294.87336272639038
 30
0.0
 40
50.0
  1
V-904KD7
 41
0.9
  0
ENDSEC
  0
EOF
