  0
SECTION
  2
HEADER
  9
$ACADVER
  1
AC1009
  9
$INSBASE
 10
0.0
 20
0.0
 30
0.0
  9
$EXTMIN
 10
-1126.576
 20
-1237.493999999999
 30
0.0
  9
$EXTMAX
 10
1039.1802383433619
 20
589.3358611330957
 30
0.0
  9
$LIMMIN
 10
-4200.0
 20
-2970.0
  9
$LIMMAX
 10
4200.0
 20
2970.0
  9
$ORTHOMODE
 70
     1
  9
$REGENMODE
 70
     0
  9
$FILLMODE
 70
     1
  9
$QTEXTMODE
 70
     0
  9
$MIRRTEXT
 70
     0
  9
$DRAGMODE
 70
     2
  9
$LTSCALE
 40
20.0
  9
$OSMODE
 70
    32
  9
$ATTMODE
 70
     1
  9
$TEXTSIZE
 40
64.0
  9
$TRACEWID
 40
0.05
  9
$TEXTSTYLE
  7
STANDARD
  9
$CLAYER
  8
ETC
  9
$CELTYPE
  6
CONTINUOUS
  9
$CECOLOR
 62
    30
  9
$DIMSCALE
 40
1.0
  9
$DIMASZ
 40
40.0
  9
$DIMEXO
 40
20.0
  9
$DIMDLI
 40
200.0
  9
$DIMRND
 40
0.0
  9
$DIMDLE
 40
0.0
  9
$DIMEXE
 40
20.0
  9
$DIMTP
 40
0.0
  9
$DIMTM
 40
0.0
  9
$DIMTXT
 40
64.0
  9
$DIMCEN
 40
12.0
  9
$DIMTSZ
 40
0.0
  9
$DIMTOL
 70
     0
  9
$DIMLIM
 70
     0
  9
$DIMTIH
 70
     0
  9
$DIMTOH
 70
     0
  9
$DIMSE1
 70
     0
  9
$DIMSE2
 70
     0
  9
$DIMTAD
 70
     1
  9
$DIMZIN
 70
     8
  9
$DIMBLK
  1
NONE
  9
$DIMASO
 70
     1
  9
$DIMSHO
 70
     0
  9
$DIMPOST
  1

  9
$DIMAPOST
  1

  9
$DIMALT
 70
     0
  9
$DIMALTD
 70
     2
  9
$DIMALTF
 40
25.399999999999999
  9
$DIMLFAC
 40
1.0
  9
$DIMTOFL
 70
     1
  9
$DIMTVP
 40
0.0
  9
$DIMTIX
 70
     1
  9
$DIMSOXD
 70
     0
  9
$DIMSAH
 70
     0
  9
$DIMBLK1
  1

  9
$DIMBLK2
  1

  9
$DIMSTYLE
  2
STANDARD
  9
$DIMCLRD
 70
   256
  9
$DIMCLRE
 70
   256
  9
$DIMCLRT
 70
   256
  9
$DIMTFAC
 40
1.0
  9
$DIMGAP
 40
25.0
  9
$LUNITS
 70
     2
  9
$LUPREC
 70
     4
  9
$SKETCHINC
 40
0.1
  9
$FILLETRAD
 40
0.0
  9
$AUNITS
 70
     1
  9
$AUPREC
 70
     3
  9
$MENU
  1
ACAD
  9
$ELEVATION
 40
0.0
  9
$PELEVATION
 40
0.0
  9
$THICKNESS
 40
0.0
  9
$LIMCHECK
 70
     1
  9
$BLIPMODE
 70
     0
  9
$CHAMFERA
 40
0.0
  9
$CHAMFERB
 40
0.0
  9
$SKPOLY
 70
     0
  9
$TDCREATE
 40
2451997.7725925921
  9
$TDUPDATE
 40
2454743.7632947918
  9
$TDINDWG
 40
0.0080029167
  9
$TDUSRTIMER
 40
0.0080025694
  9
$USRTIMER
 70
     1
  9
$ANGBASE
 50
0.0
  9
$ANGDIR
 70
     0
  9
$PDMODE
 70
     3
  9
$PDSIZE
 40
-2.0
  9
$PLINEWID
 40
0.0
  9
$COORDS
 70
     1
  9
$SPLFRAME
 70
     0
  9
$SPLINETYPE
 70
     6
  9
$SPLINESEGS
 70
     8
  9
$ATTDIA
 70
     0
  9
$ATTREQ
 70
     1
  9
$HANDLING
 70
     1
  9
$HANDSEED
  5
255
  9
$SURFTAB1
 70
     6
  9
$SURFTAB2
 70
     6
  9
$SURFTYPE
 70
     6
  9
$SURFU
 70
     6
  9
$SURFV
 70
     6
  9
$UCSNAME
  2

  9
$UCSORG
 10
0.0
 20
0.0
 30
0.0
  9
$UCSXDIR
 10
1.0
 20
0.0
 30
0.0
  9
$UCSYDIR
 10
0.0
 20
1.0
 30
0.0
  9
$PUCSNAME
  2

  9
$PUCSORG
 10
0.0
 20
0.0
 30
0.0
  9
$PUCSXDIR
 10
1.0
 20
0.0
 30
0.0
  9
$PUCSYDIR
 10
0.0
 20
1.0
 30
0.0
  9
$USERI1
 70
     0
  9
$USERI2
 70
     0
  9
$USERI3
 70
     0
  9
$USERI4
 70
     0
  9
$USERI5
 70
     0
  9
$USERR1
 40
20.0
  9
$USERR2
 40
0.0
  9
$USERR3
 40
0.0
  9
$USERR4
 40
0.0
  9
$USERR5
 40
0.0
  9
$WORLDVIEW
 70
     1
  9
$SHADEDGE
 70
     3
  9
$SHADEDIF
 70
    70
  9
$TILEMODE
 70
     1
  9
$MAXACTVP
 70
    64
  9
$PLIMCHECK
 70
     0
  9
$PEXTMIN
 10
1.0000000000000000E+020
 20
1.0000000000000000E+020
 30
1.0000000000000000E+020
  9
$PEXTMAX
 10
-1.0000000000000000E+020
 20
-1.0000000000000000E+020
 30
-1.0000000000000000E+020
  9
$PLIMMIN
 10
0.0
 20
0.0
  9
$PLIMMAX
 10
12.0
 20
9.0
  9
$UNITMODE
 70
     0
  9
$VISRETAIN
 70
     1
  9
$PLINEGEN
 70
     0
  9
$PSLTSCALE
 70
     1
  0
ENDSEC
  0
SECTION
  2
TABLES
  0
TABLE
  2
VPORT
 70
     1
  0
VPORT
  2
*ACTIVE
 70
     0
 10
0.0
 20
0.0
 11
1.0
 21
1.0
 12
261.15850356724951
 22
-66.389428155705446
 13
0.0
 23
0.0
 14
400.0
 24
400.0
 15
400.0
 25
400.0
 16
0.0
 26
0.0
 36
1.0
 17
0.0
 27
0.0
 37
0.0
 40
1375.906949041979
 41
1.812051649928264
 42
50.0
 43
0.0
 44
0.0
 50
0.0
 51
0.0
 71
     0
 72
   500
 73
     1
 74
     0
 75
     0
 76
     0
 77
     0
 78
     1
  0
ENDTAB
  0
TABLE
  2
LTYPE
 70
     9
  0
LTYPE
  2
CONTINUOUS
 70
     0
  3
実線
 72
    65
 73
     0
 40
0.0
  0
LTYPE
  2
DOT
 70
     0
  3
...............................................
 72
    65
 73
     2
 40
0.8
 49
0.5
 49
-0.3
  0
LTYPE
  2
DASHED
 70
     0
  3
_ _ _ _ _ _ _ _ _ _ _ _ _ _ _ _ _ _ _ _ _ _ _
 72
    65
 73
     2
 40
2.0
 49
1.1999999999999991
 49
-0.8
  0
LTYPE
  2
DASHDOT
 70
     0
  3
____ _ ____ _ ____ _ ____ _ ____ _ ____ _ ____
 72
    65
 73
     4
 40
5.5
 49
4.0
 49
-0.6
 49
0.3
 49
-0.6
  0
LTYPE
  2
DASHDOT1
 70
     0
  3
____ _ ____ _ ____ _ ____ _ ____ _ ____ _ ____
 72
    65
 73
     4
 40
2.0
 49
1.5
 49
-0.2
 49
0.1
 49
-0.2
  0
LTYPE
  2
DIVIDE
 70
     0
  3
_____ _ _ _____ _ _ _____ _ _ _____ _ _ ____
 72
    65
 73
     6
 40
6.4000000000000004
 49
4.0
 49
-0.6
 49
0.3
 49
-0.6
 49
0.3
 49
-0.6
  0
LTYPE
  2
DIVIDE1
 70
     0
  3
_____ _ _ _____ _ _ _____ _ _ _____ _ _ ____
 72
    65
 73
     6
 40
3.2000000000000002
 49
2.0
 49
-0.3
 49
0.15
 49
-0.3
 49
0.15
 49
-0.3
  0
LTYPE
  2
CONTINOUS
 70
     0
  3
Solid line
 72
    65
 73
     0
 40
0.0
  0
ENDTAB
  0
TABLE
  2
LAYER
 70
    12
  0
LAYER
  2
0
 70
     0
 62
     7
  6
CONTINUOUS
  0
LAYER
  2
SIZE
 70
     0
 62
    30
  6
CONTINUOUS
  0
LAYER
  2
OUTLINE
 70
     0
 62
     3
  6
CONTINUOUS
  0
LAYER
  2
DETAIL
 70
     0
 62
     5
  6
CONTINUOUS
  0
LAYER
  2
BASIS
 70
     0
 62
     6
  6
DASHDOT
  0
LAYER
  2
NOTE
 70
     0
 62
     4
  6
CONTINUOUS
  0
LAYER
  2
ARRANGE
 70
     0
 62
     1
  6
CONTINUOUS
  0
LAYER
  2
FIX
 70
     0
 62
    11
  6
CONTINUOUS
  0
LAYER
  2
ETC
 70
     0
 62
    61
  6
CONTINUOUS
  0
LAYER
  2
DEFPOINTS
 70
     0
 62
     7
  6
CONTINUOUS
  0
LAYER
  2
SERVICESPACE
 70
     0
 62
     2
  6
DASHDOT
  0
LAYER
  2
SYMBOLLINE
 70
     0
 62
    15
  6
CONTINUOUS
  0
ENDTAB
  0
TABLE
  2
STYLE
 70
     2
  0
STYLE
  2
STANDARD
 70
     0
 40
0.0
 41
0.9
 50
0.0
 71
     0
 42
64.0
  3
SIMPLEX
  4
BIGFONT
  0
STYLE
  2
ANNOTATIVE
 70
     0
 40
0.0
 41
1.0
 50
0.0
 71
     0
 42
0.2
  3
txt
  4

  0
ENDTAB
  0
TABLE
  2
VIEW
 70
     1
  0
VIEW
  2
ALL
 70
     0
 40
6374.9789810000002
 10
0.0
 20
58.11501599999999
 41
8842.1052629999976
 11
0.0
 21
0.0
 31
1.0
 12
0.0
 22
0.0
 32
0.0
 42
50.0
 43
0.0
 44
0.0
 50
0.0
 71
     0
  0
ENDTAB
  0
TABLE
  2
UCS
 70
     0
  0
ENDTAB
  0
TABLE
  2
APPID
 70
     4
  0
APPID
  2
ACAD
 70
     0
  0
APPID
  2
ACADANNOTATIVE
 70
     0
  0
APPID
  2
ACAD_MLEADERVER
 70
     0
  0
APPID
  2
ACAD_EXEMPT_FROM_CAD_STANDARDS
 70
     0
  0
ENDTAB
  0
TABLE
  2
DIMSTYLE
 70
     2
  0
DIMSTYLE
  2
STANDARD
 70
     0
  3

  4

  5

  6

  7

 40
1.0
 41
0.18
 42
0.0625
 43
0.38
 44
0.18
 45
0.0
 46
0.0
 47
0.0
 48
0.0
140
0.18
141
0.09
142
0.0
143
25.399999999999999
144
1.0
145
0.0
146
1.0
147
0.09
 71
     0
 72
     0
 73
     1
 74
     1
 75
     0
 76
     0
 77
     0
 78
     0
170
     0
171
     2
172
     0
173
     0
174
     0
175
     0
176
     0
177
     0
178
     0
  0
DIMSTYLE
  2
ANNOTATIVE
 70
     0
  3

  4

  5

  6

  7

 40
1.0
 41
0.18
 42
0.0625
 43
0.38
 44
0.18
 45
0.0
 46
0.0
 47
0.0
 48
0.0
140
0.18
141
0.09
142
0.0
143
25.399999999999999
144
1.0
145
0.0
146
1.0
147
0.09
 71
     0
 72
     0
 73
     1
 74
     1
 75
     0
 76
     0
 77
     0
 78
     0
170
     0
171
     2
172
     0
173
     0
174
     0
175
     0
176
     0
177
     0
178
     0
  0
ENDTAB
  0
ENDSEC
  0
SECTION
  2
BLOCKS
  0
BLOCK
  8
0
  2
$MODEL_SPACE
 70
     0
 10
0.0
 20
0.0
 30
0.0
  3
$MODEL_SPACE
  1

  0
ENDBLK
  5
1F7
  8
0
  0
BLOCK
 67
     1
  8
0
  2
$PAPER_SPACE
 70
     0
 10
0.0
 20
0.0
 30
0.0
  3
$PAPER_SPACE
  1

  0
ENDBLK
  5
1F3
 67
     1
  8
0
  0
BLOCK
  8
0
 62
    30
  2
_NONE
 70
     0
 10
0.0
 20
0.0
 30
0.0
  3
_NONE
  1

  0
ENDBLK
  5
113
  8
0
 62
    30
  0
BLOCK
  8
0
 62
    30
  2
_OPEN30
 70
     0
 10
0.0
 20
0.0
 30
0.0
  3
_OPEN30
  1

  0
LINE
  5
115
  8
0
  6
BYBLOCK
 62
     0
 10
-1.0
 20
0.26794919
 30
0.0
 11
0.0
 21
0.0
 31
0.0
  0
LINE
  5
116
  8
0
  6
BYBLOCK
 62
     0
 10
0.0
 20
0.0
 30
0.0
 11
-1.0
 21
-0.26794919
 31
0.0
  0
LINE
  5
117
  8
0
  6
BYBLOCK
 62
     0
 10
0.0
 20
0.0
 30
0.0
 11
-1.0
 21
0.0
 31
0.0
  0
ENDBLK
  5
119
  8
0
 62
    30
  0
BLOCK
  8
0
 62
    30
  2
*D4
 70
     1
 10
0.0
 20
0.0
 30
0.0
  3
*D4
  1

  0
LINE
  5
127
  8
SIZE
  6
CONTINUOUS
 10
-216.999999
 20
-240.0
 30
0.0
 11
-216.999999
 21
-729.96411420105665
 31
0.0
  0
LINE
  5
128
  8
SIZE
  6
CONTINUOUS
 10
0.0000009999999988
 20
-620.0
 30
0.0
 11
0.000000999999992
 21
-729.96411420105665
 31
0.0
  0
LINE
  5
129
  8
SIZE
  6
CONTINUOUS
 10
-216.999999
 20
-709.96411420105676
 30
0.0
 11
0.0000009999999933
 21
-709.96411420105676
 31
0.0
  0
TEXT
  5
12A
  8
SIZE
  6
CONTINUOUS
 10
-177.0714275714285
 20
-684.96411420105665
 30
0.0
 40
64.0
  1
217
 41
0.9
  0
POINT
  5
12B
  8
DEFPOINTS
  6
CONTINUOUS
 62
     0
 10
-216.999999
 20
-220.0
 30
0.0
  0
POINT
  5
12C
  8
DEFPOINTS
  6
CONTINUOUS
 62
     0
 10
0.000001
 20
-600.0
 30
0.0
  0
POINT
  5
12D
  8
DEFPOINTS
  6
CONTINUOUS
 62
     0
 10
0.0000009999999933
 20
-709.96411420105676
 30
0.0
  0
ENDBLK
  5
12F
  8
0
 62
    30
  0
ENDSEC
  0
SECTION
  2
ENTITIES
  0
LINE
  5
3A
  8
NOTE
  6
CONTINUOUS
 62
     4
 10
-170.08192199999991
 20
-308.54204399999998
 30
0.0
 11
-216.999999
 21
-200.0
 31
0.0
  0
LINE
  5
3B
  8
NOTE
  6
CONTINUOUS
 62
     4
 10
-542.50243599999999
 20
179.52579
 30
0.0
 11
-289.99999899999989
 21
-200.0
 31
0.0
  0
LINE
  5
41
  8
SIZE
  6
CONTINUOUS
 62
    30
 10
451.40994999999992
 20
-46.616061999999999
 30
0.0
 11
451.40994999999992
 21
-191.26116099999999
 31
0.0
  0
LINE
  5
42
  8
NOTE
  6
CONTINUOUS
 62
     4
 10
0.000001
 20
-260.0
 30
0.0
 11
59.866495999999991
 21
-105.9690489999999
 31
0.0
  0
LINE
  5
43
  8
NOTE
  6
CONTINUOUS
 62
     4
 10
59.866495999999991
 20
-105.9690489999999
 30
0.0
 11
324.31849899999997
 21
-105.9690489999999
 31
0.0
  0
TEXT
  5
44
  8
NOTE
  6
CONTINUOUS
 62
     4
 10
76.038093000000003
 20
-84.050817000000009
 30
0.0
 40
64.0
  1
4-φ8
 41
0.9
  0
POINT
  5
45
  8
ARRANGE
  6
CONTINUOUS
 62
     1
 10
0.0
 20
0.0
 30
0.0
  0
LINE
  5
46
  8
SIZE
  6
CONTINUOUS
 62
    30
 10
-72.999589999999998
 20
234.03305899999989
 30
0.0
 11
235.04652899999991
 21
234.03305899999989
 31
0.0
  0
LINE
  5
47
  8
DETAIL
  6
CONTINUOUS
 62
     5
 10
-219.999999
 20
-185.0
 30
0.0
 11
-69.999999000000003
 21
-185.0
 31
0.0
  0
TEXT
  5
48
  8
NOTE
  6
CONTINUOUS
 62
     4
 10
-1121.52468
 20
212.70402799999991
 30
0.0
 40
64.0
  1
AH 2×2-φ25
 41
0.9
  0
LINE
  5
49
  8
NOTE
  6
CONTINUOUS
 62
     4
 10
-170.08192199999991
 20
-308.54204399999998
 30
0.0
 11
-70.887834999999995
 21
-308.54204399999998
 31
0.0
  0
TEXT
  5
4A
  8
NOTE
  6
CONTINUOUS
 62
     4
 10
-156.67201900000001
 20
-291.71211899999992
 30
0.0
 40
64.0
  1
EL
 41
0.9
  0
LINE
  5
4B
  8
DETAIL
  6
CONTINOUS
 62
     5
 10
-319.999999
 20
-600.0
 30
0.0
 11
-319.999999
 21
-200.0
 31
0.0
  0
LINE
  5
4C
  8
BASIS
  6
DASHDOT
 62
     6
 10
-144.999999
 20
-220.65042799999989
 30
0.0
 11
-144.999999
 21
-109.12141799999991
 31
0.0
  0
LINE
  5
4D
  8
DETAIL
  6
CONTINOUS
 62
     5
 10
-294.999999
 20
-200.0
 30
0.0
 11
-294.999999
 21
0.0
 31
0.0
  0
LINE
  5
4E
  8
DETAIL
  6
CONTINOUS
 62
     5
 10
-349.999999
 20
-200.0
 30
0.0
 11
-349.999999
 21
0.0
 31
0.0
  0
LINE
  5
4F
  8
DETAIL
  6
CONTINOUS
 62
     5
 10
-349.999999
 20
0.0
 30
0.0
 11
-294.999999
 21
0.0
 31
0.0
  0
LINE
  5
50
  8
DETAIL
  6
CONTINOUS
 62
     5
 10
-414.35512499999987
 20
-200.0
 30
0.0
 11
0.000001
 21
-200.0
 31
0.0
  0
LINE
  5
51
  8
DETAIL
  6
CONTINOUS
 62
     5
 10
0.000001
 20
-600.0
 30
0.0
 11
-322.95429100000001
 21
-600.0
 31
0.0
  0
LINE
  5
52
  8
DETAIL
  6
CONTINOUS
 62
     5
 10
0.000001
 20
-600.0
 30
0.0
 11
0.000001
 21
-200.0
 31
0.0
  0
ARC
  5
53
  8
DETAIL
  6
CONTINOUS
 62
     5
 10
-334.5540759999999
 20
51.0
 30
0.0
 40
650.0
 50
248.35695200000001
 51
271.02254499999998
  0
LINE
  5
54
  8
DETAIL
  6
CONTINOUS
 62
     5
 10
-596.21892700000001
 20
-459.31670100000002
 30
0.0
 11
-430.20377699999989
 21
-211.41966899999991
 31
0.0
  0
LINE
  5
55
  8
DETAIL
  6
CONTINOUS
 62
     5
 10
-583.84268699999996
 20
-542.44387500000005
 30
0.0
 11
-599.999999
 21
-482.14396499999998
 31
0.0
  0
ARC
  5
56
  8
DETAIL
  6
CONTINOUS
 62
     5
 10
-406.93892599999992
 20
-227.0
 30
0.0
 40
28.0
 50
105.358886
 51
146.1900179999999
  0
ARC
  5
57
  8
DETAIL
  6
CONTINOUS
 62
     5
 10
-572.95407599999987
 20
-474.89703200000002
 30
0.0
 40
28.0
 50
146.1900179999999
 51
195.0
  0
ARC
  5
58
  8
DETAIL
  6
CONTINOUS
 62
     5
 10
-568.3878739999999
 20
-538.30277000000001
 30
0.0
 40
16.0
 50
195.0
 51
248.35695200000001
  0
LINE
  5
59
  8
DETAIL
  6
CONTINUOUS
 62
     5
 10
-55.499590000000012
 20
-197.0
 30
0.0
 11
-55.499590000000012
 21
-200.0
 31
0.0
  0
ARC
  5
5A
  8
DETAIL
  6
CONTINUOUS
 62
     5
 10
-232.9995899999999
 20
-196.0
 30
0.0
 40
1.0
 50
90.0
 51
180.0
  0
LINE
  5
5B
  8
DETAIL
  6
CONTINUOUS
 62
     5
 10
-218.9995899999999
 20
-145.0
 30
0.0
 11
-70.999589999999998
 21
-145.0
 31
0.0
  0
LINE
  5
5C
  8
DETAIL
  6
CONTINUOUS
 62
     5
 10
-55.499590000000012
 20
-197.0
 30
0.0
 11
-55.499590000000012
 21
-196.0
 31
0.0
  0
LINE
  5
5D
  8
DETAIL
  6
CONTINUOUS
 62
     5
 10
-56.499589999999991
 20
-195.0
 30
0.0
 11
-223.714664
 21
-195.0
 31
0.0
  0
ARC
  5
5E
  8
DETAIL
  6
CONTINUOUS
 62
     5
 10
-56.499589999999991
 20
-196.0
 30
0.0
 40
1.0
 50
0.0
 51
90.0
  0
LINE
  5
5F
  8
DETAIL
  6
CONTINUOUS
 62
     5
 10
-67.999589999999998
 20
-189.40000000000001
 30
0.0
 11
-67.999589999999998
 21
-186.64705900000001
 31
0.0
  0
LINE
  5
60
  8
DETAIL
  6
CONTINUOUS
 62
     5
 10
-70.999589999999998
 20
-183.97647000000001
 30
0.0
 11
-70.999589999999998
 21
-145.0
 31
0.0
  0
LINE
  5
61
  8
DETAIL
  6
CONTINUOUS
 62
     5
 10
-233.9995899999999
 20
-200.0
 30
0.0
 11
-233.9995899999999
 21
-196.0
 31
0.0
  0
LINE
  5
62
  8
DETAIL
  6
CONTINUOUS
 62
     5
 10
-223.714664
 20
-195.0
 30
0.0
 11
-232.9995899999999
 21
-195.0
 31
0.0
  0
ARC
  5
63
  8
DETAIL
  6
CONTINUOUS
 62
     5
 10
-69.999589999999998
 20
-183.97647000000001
 30
0.0
 40
1.0
 50
180.0
 51
262.84733099999988
  0
ARC
  5
64
  8
DETAIL
  6
CONTINUOUS
 62
     5
 10
-69.599590000000006
 20
-186.64705900000001
 30
0.0
 40
1.6000000000000001
 50
0.0
 51
82.847331000000025
  0
LINE
  5
65
  8
DETAIL
  6
CONTINUOUS
 62
     5
 10
-70.124104000000003
 20
-184.9686879999999
 30
0.0
 11
-69.400368999999984
 21
-185.0595099999999
 31
0.0
  0
ARC
  5
66
  8
DETAIL
  6
CONTINUOUS
 62
     5
 10
-57.999590000000012
 20
-189.40000000000001
 30
0.0
 40
10.0
 50
180.0
 51
214.05579800000001
  0
LINE
  5
67
  8
DETAIL
  6
CONTINUOUS
 62
     5
 10
-218.9995899999999
 20
-183.97647000000001
 30
0.0
 11
-218.9995899999999
 21
-145.0
 31
0.0
  0
LINE
  5
68
  8
DETAIL
  6
CONTINUOUS
 62
     5
 10
-219.875077
 20
-184.9686879999999
 30
0.0
 11
-220.59881200000001
 21
-185.0595099999999
 31
0.0
  0
ARC
  5
69
  8
DETAIL
  6
CONTINUOUS
 62
     5
 10
-219.9995899999999
 20
-183.97647000000001
 30
0.0
 40
1.0
 50
277.15266899999989
 51
0.0
  0
LINE
  5
6A
  8
DETAIL
  6
CONTINUOUS
 62
     5
 10
-221.9995899999999
 20
-189.40000000000001
 30
0.0
 11
-221.9995899999999
 21
-186.64705900000001
 31
0.0
  0
ARC
  5
6B
  8
DETAIL
  6
CONTINUOUS
 62
     5
 10
-231.9995899999999
 20
-189.40000000000001
 30
0.0
 40
10.0
 50
325.94420200000002
 51
0.0
  0
ARC
  5
6C
  8
DETAIL
  6
CONTINUOUS
 62
     5
 10
-220.3995899999999
 20
-186.64705900000001
 30
0.0
 40
1.6000000000000001
 50
97.152669000000003
 51
180.0
  0
TEXT
  5
6D
  8
SIZE
  6
CONTINUOUS
 62
    30
 10
14.581077000000001
 20
265.36387200000001
 30
0.0
 40
64.0
  1
φ
 41
0.9
  0
CIRCLE
  5
6E
  8
ARRANGE
  6
CONTINUOUS
 62
     1
 10
0.0
 20
0.0
 30
0.0
 40
40.0
  0
ARC
  5
6F
  8
OUTLINE
  6
CONTINOUS
 62
     3
 10
-568.3878739999999
 20
-538.30277000000001
 30
0.0
 40
16.0
 50
195.0
 51
248.35695200000001
  0
ARC
  5
70
  8
OUTLINE
  6
CONTINOUS
 62
     3
 10
-572.95407599999987
 20
-474.89703200000002
 30
0.0
 40
28.0
 50
146.1900179999999
 51
195.0
  0
ARC
  5
71
  8
OUTLINE
  6
CONTINOUS
 62
     3
 10
-406.93892599999992
 20
-227.0
 30
0.0
 40
28.0
 50
105.358886
 51
146.1900179999999
  0
LINE
  5
72
  8
OUTLINE
  6
CONTINOUS
 62
     3
 10
-583.84268699999996
 20
-542.44387500000005
 30
0.0
 11
-599.999999
 21
-482.14396499999998
 31
0.0
  0
LINE
  5
73
  8
OUTLINE
  6
CONTINOUS
 62
     3
 10
-596.21892700000001
 20
-459.31670100000002
 30
0.0
 11
-430.20377699999989
 21
-211.41966899999991
 31
0.0
  0
ARC
  5
74
  8
OUTLINE
  6
CONTINOUS
 62
     3
 10
-334.5540759999999
 20
51.0
 30
0.0
 40
650.0
 50
248.35695200000001
 51
271.02254499999998
  0
LINE
  5
75
  8
OUTLINE
  6
CONTINOUS
 62
     3
 10
0.000001
 20
-600.0
 30
0.0
 11
0.000001
 21
-200.0
 31
0.0
  0
LINE
  5
76
  8
OUTLINE
  6
CONTINOUS
 62
     3
 10
0.000001
 20
-600.0
 30
0.0
 11
-322.95429100000001
 21
-600.0
 31
0.0
  0
LINE
  5
77
  8
OUTLINE
  6
CONTINOUS
 62
     3
 10
-414.35512499999987
 20
-200.0
 30
0.0
 11
-349.999999
 21
-200.0
 31
0.0
  0
LINE
  5
78
  8
OUTLINE
  6
CONTINOUS
 62
     3
 10
-349.999999
 20
0.0
 30
0.0
 11
-294.999999
 21
0.0
 31
0.0
  0
LINE
  5
79
  8
OUTLINE
  6
CONTINOUS
 62
     3
 10
-349.999999
 20
-200.0
 30
0.0
 11
-349.999999
 21
0.0
 31
0.0
  0
LINE
  5
7A
  8
OUTLINE
  6
CONTINOUS
 62
     3
 10
-294.999999
 20
-200.0
 30
0.0
 11
-294.999999
 21
0.0
 31
0.0
  0
LINE
  5
7B
  8
OUTLINE
  6
CONTINOUS
 62
     3
 10
-374.999999
 20
-200.0
 30
0.0
 11
0.000001
 21
-200.0
 31
0.0
  0
LINE
  5
7C
  8
NOTE
  6
CONTINUOUS
 62
     4
 10
-542.50243599999999
 20
179.52579
 30
0.0
 11
-1126.576
 21
179.52579
 31
0.0
  0
LINE
  5
7D
  8
SIZE
  6
CONTINUOUS
 62
    30
 10
-349.999999
 20
348.32698900000008
 30
0.0
 11
-480.13356299999992
 21
348.32698900000008
 31
0.0
  0
LINE
  5
7E
  8
SIZE
  6
CONTINUOUS
 62
    30
 10
586.24674000000005
 20
-145.0
 30
0.0
 11
586.24674000000005
 21
-18.432946999999992
 31
0.0
  0
CIRCLE
  5
7F
  8
FIX
  6
CONTINUOUS
 62
    11
 10
0.000001
 20
-260.0
 30
0.0
 40
4.0
  0
CIRCLE
  5
80
  8
FIX
  6
CONTINUOUS
 62
    11
 10
0.000001
 20
-495.0
 30
0.0
 40
4.0
  0
CIRCLE
  5
81
  8
FIX
  6
CONTINUOUS
 62
    11
 10
-289.99999899999989
 20
-200.0
 30
0.0
 40
12.5
  0
CIRCLE
  5
82
  8
FIX
  6
CONTINUOUS
 62
    11
 10
-254.999999
 20
-200.0
 30
0.0
 40
12.5
  0
LINE
  5
83
  8
SIZE
  6
CONTINUOUS
 62
    30
 10
262.44885299999987
 20
-600.0
 30
0.0
 11
262.44885299999987
 21
-797.55940899999985
 31
0.0
  0
LINE
  5
84
  8
BASIS
  6
DASHDOT
 62
     6
 10
-151.999999
 20
-213.65235699999999
 30
0.0
 11
-151.999999
 21
-109.12141799999991
 31
0.0
  0
LINE
  5
85
  8
BASIS
  6
DASHDOT
 62
     6
 10
-144.999999
 20
-220.65042799999989
 30
0.0
 11
-144.999999
 21
-101.0869209999999
 31
0.0
  0
LINE
  5
86
  8
BASIS
  6
DASHDOT
 62
     6
 10
-137.9999989999998
 20
-213.65235699999999
 30
0.0
 11
-137.9999989999998
 21
-109.12141799999991
 31
0.0
  0
TEXT
  5
87
  8
NOTE
  6
CONTINUOUS
 62
     4
 10
-133.84905900000001
 20
17.791622
 30
0.0
 40
64.0
  1
ダクト接続口可動寸法
 41
0.9
  0
LINE
  5
88
  8
SIZE
  6
CONTINUOUS
 62
    30
 10
-133.999999
 20
102.6058759999999
 30
0.0
 11
135.4893209999999
 21
102.6058759999999
 31
0.0
  0
TEXT
  5
89
  8
NOTE
  6
CONTINUOUS
 62
     4
 10
-197.04969600000001
 20
-85.464894999999984
 30
0.0
 40
64.0
  1
EA
 41
0.9
  0
LINE
  5
8A
  8
SIZE
  6
BYBLOCK
 62
    30
 10
-137.9999989999998
 20
-89.121418000000006
 30
0.0
 11
-137.9999989999998
 21
132.60587599999999
 31
0.0
  0
LINE
  5
8B
  8
SIZE
  6
BYBLOCK
 62
    30
 10
-151.999999
 20
-89.121418000000006
 30
0.0
 11
-151.999999
 21
132.60587599999999
 31
0.0
  0
LINE
  5
8C
  8
SIZE
  6
BYBLOCK
 62
    30
 10
-153.999999
 20
102.6058759999999
 30
0.0
 11
-155.999999
 21
102.6058759999999
 31
0.0
  0
LINE
  5
8D
  8
SIZE
  6
BYBLOCK
 62
    30
 10
-135.999999
 20
102.6058759999999
 30
0.0
 11
-133.999999
 21
102.6058759999999
 31
0.0
  0
LINE
  5
8E
  8
SIZE
  6
BYBLOCK
 62
    30
 10
-151.999999
 20
102.6058759999999
 30
0.0
 11
-137.9999989999998
 21
102.6058759999999
 31
0.0
  0
TEXT
  5
8F
  8
SIZE
  6
BYBLOCK
 62
    30
 10
32.595187000000003
 20
134.60587599999999
 30
0.0
 40
64.0
  1
14
 41
0.9
  0
LINE
  5
90
  8
SIZE
  6
BYBLOCK
 62
    30
 10
0.000001
 20
-180.0
 30
0.0
 11
0.000001
 21
496.52960099999979
 31
0.0
  0
LINE
  5
91
  8
SIZE
  6
BYBLOCK
 62
    30
 10
-349.999999
 20
20.0
 30
0.0
 11
-349.999999
 21
496.52960099999979
 31
0.0
  0
LINE
  5
92
  8
SIZE
  6
BYBLOCK
 62
    30
 10
-351.999999
 20
466.52960099999979
 30
0.0
 11
-353.999999
 21
466.52960099999979
 31
0.0
  0
LINE
  5
93
  8
SIZE
  6
BYBLOCK
 62
    30
 10
2.0000009999999979
 20
466.52960099999979
 30
0.0
 11
4.0000010000000001
 21
466.52960099999979
 31
0.0
  0
LINE
  5
94
  8
SIZE
  6
BYBLOCK
 62
    30
 10
-349.999999
 20
466.52960099999979
 30
0.0
 11
0.000001
 21
466.52960099999979
 31
0.0
  0
TEXT
  5
95
  8
SIZE
  6
BYBLOCK
 62
    30
 10
-365.90285599999987
 20
498.52960099999979
 30
0.0
 40
64.0
  1
350～400
 41
0.9
  0
LINE
  5
96
  8
SIZE
  6
BYBLOCK
 62
    30
 10
0.000001
 20
-620.0
 30
0.0
 11
0.000001
 21
-749.34008700000004
 31
0.0
  0
LINE
  5
9A
  8
SIZE
  6
BYBLOCK
 62
    30
 10
0.000001
 20
-620.0
 30
0.0
 11
0.000001
 21
-856.70550100000003
 31
0.0
  0
LINE
  5
9B
  8
SIZE
  6
BYBLOCK
 62
    30
 10
-254.999999
 20
-240.0
 30
0.0
 11
-254.999999
 21
-856.70550100000003
 31
0.0
  0
LINE
  5
9C
  8
SIZE
  6
BYBLOCK
 62
    30
 10
-1.9999990000000001
 20
-826.7055009999998
 30
0.0
 11
-252.999999
 21
-826.7055009999998
 31
0.0
  0
TEXT
  5
9D
  8
SIZE
  6
BYBLOCK
 62
    30
 10
-201.557142
 20
-794.70550100000003
 30
0.0
 40
64.0
  1
255
 41
0.9
  0
LINE
  5
9E
  8
SIZE
  6
BYBLOCK
 62
    30
 10
0.000001
 20
-620.0
 30
0.0
 11
0.000001
 21
-974.46111699999983
 31
0.0
  0
LINE
  5
9F
  8
SIZE
  6
BYBLOCK
 62
    30
 10
-289.99999899999989
 20
-240.0
 30
0.0
 11
-289.99999899999989
 21
-974.46111699999983
 31
0.0
  0
LINE
  5
A0
  8
SIZE
  6
BYBLOCK
 62
    30
 10
-1.9999990000000001
 20
-944.46111699999994
 30
0.0
 11
-287.99999899999989
 21
-944.46111699999994
 31
0.0
  0
TEXT
  5
A1
  8
SIZE
  6
BYBLOCK
 62
    30
 10
-219.05714199999991
 20
-912.46111699999994
 30
0.0
 40
64.0
  1
290
 41
0.9
  0
LINE
  5
A2
  8
SIZE
  6
BYBLOCK
 62
    30
 10
20.000001000000001
 20
-200.0
 30
0.0
 11
481.40994999999998
 21
-200.0
 31
0.0
  0
LINE
  5
A3
  8
SIZE
  6
BYBLOCK
 62
    30
 10
-49.874590000000012
 20
-185.0
 30
0.0
 11
481.40994999999998
 21
-185.0
 31
0.0
  0
LINE
  5
A4
  8
SIZE
  6
BYBLOCK
 62
    30
 10
451.40994999999992
 20
-183.0
 30
0.0
 11
451.40994999999992
 21
-181.0
 31
0.0
  0
LINE
  5
A5
  8
SIZE
  6
BYBLOCK
 62
    30
 10
451.40994999999992
 20
-202.0
 30
0.0
 11
451.40994999999992
 21
-204.0
 31
0.0
  0
LINE
  5
A6
  8
SIZE
  6
BYBLOCK
 62
    30
 10
451.40994999999992
 20
-185.0
 30
0.0
 11
451.40994999999992
 21
-200.0
 31
0.0
  0
TEXT
  5
A7
  8
SIZE
  6
BYBLOCK
 62
    30
 10
419.40994999999998
 20
-132.4234169999998
 30
0.0
 40
64.0
  1
15
 50
90.0
 41
0.9
  0
LINE
  5
A8
  8
SIZE
  6
BYBLOCK
 62
    30
 10
0.000001
 20
-180.0
 30
0.0
 11
0.000001
 21
379.17047699999989
 31
0.0
  0
LINE
  5
A9
  8
SIZE
  6
BYBLOCK
 62
    30
 10
-144.999999
 20
-89.121418000000006
 30
0.0
 11
-144.999999
 21
379.17047699999989
 31
0.0
  0
LINE
  5
AA
  8
SIZE
  6
BYBLOCK
 62
    30
 10
-1.9999990000000001
 20
349.17047700000001
 30
0.0
 11
-72.499999000000003
 21
349.17047700000001
 31
0.0
  0
LINE
  5
AB
  8
SIZE
  6
BYBLOCK
 62
    30
 10
-142.9999989999998
 20
349.17047700000001
 30
0.0
 11
-72.499999000000003
 21
349.17047700000001
 31
0.0
  0
TEXT
  5
AC
  8
SIZE
  6
BYBLOCK
 62
    30
 10
-141.071428
 20
381.17047700000001
 30
0.0
 40
64.0
  1
145
 41
0.9
  0
LINE
  5
AD
  8
SIZE
  6
BYBLOCK
 62
    30
 10
-70.999589999999998
 20
-125.0
 30
0.0
 11
-70.999589999999998
 21
264.03305899999998
 31
0.0
  0
LINE
  5
AE
  8
SIZE
  6
BYBLOCK
 62
    30
 10
-218.9995899999999
 20
-125.0
 30
0.0
 11
-218.9995899999999
 21
264.03305899999998
 31
0.0
  0
LINE
  5
AF
  8
SIZE
  6
BYBLOCK
 62
    30
 10
-72.999589999999998
 20
234.03305899999989
 30
0.0
 11
-144.9995899999999
 21
234.03305899999989
 31
0.0
  0
LINE
  5
B0
  8
SIZE
  6
BYBLOCK
 62
    30
 10
-216.9995899999999
 20
234.03305899999989
 30
0.0
 11
-144.9995899999999
 21
234.03305899999989
 31
0.0
  0
TEXT
  5
B1
  8
SIZE
  6
BYBLOCK
 62
    30
 10
81.424295999999984
 20
266.03305899999998
 30
0.0
 40
64.0
  1
148
 41
0.9
  0
LINE
  5
B2
  8
SIZE
  6
BYBLOCK
 62
    30
 10
-294.999999
 20
20.0
 30
0.0
 11
-294.999999
 21
378.32698900000003
 31
0.0
  0
LINE
  5
B3
  8
SIZE
  6
BYBLOCK
 62
    30
 10
-349.999999
 20
20.0
 30
0.0
 11
-349.999999
 21
378.32698900000003
 31
0.0
  0
LINE
  5
B4
  8
SIZE
  6
BYBLOCK
 62
    30
 10
-351.999999
 20
348.32698900000008
 30
0.0
 11
-353.999999
 21
348.32698900000008
 31
0.0
  0
LINE
  5
B5
  8
SIZE
  6
BYBLOCK
 62
    30
 10
-292.999999
 20
348.32698900000008
 30
0.0
 11
-290.999999
 21
348.32698900000008
 31
0.0
  0
LINE
  5
B6
  8
SIZE
  6
BYBLOCK
 62
    30
 10
-349.999999
 20
348.32698900000008
 30
0.0
 11
-294.999999
 21
348.32698900000008
 31
0.0
  0
TEXT
  5
B7
  8
SIZE
  6
BYBLOCK
 62
    30
 10
-473.13611500000002
 20
380.32698900000003
 30
0.0
 40
64.0
  1
55
 41
0.9
  0
LINE
  5
B8
  8
SIZE
  6
BYBLOCK
 62
    30
 10
20.000001000000001
 20
-600.0
 30
0.0
 11
292.44885299999987
 21
-600.0
 31
0.0
  0
LINE
  5
B9
  8
SIZE
  6
BYBLOCK
 62
    30
 10
40.000000999999997
 20
-495.0
 30
0.0
 11
292.44885299999987
 21
-495.0
 31
0.0
  0
LINE
  5
BA
  8
SIZE
  6
BYBLOCK
 62
    30
 10
262.44885299999987
 20
-493.0
 30
0.0
 11
262.44885299999987
 21
-491.0
 31
0.0
  0
LINE
  5
BB
  8
SIZE
  6
BYBLOCK
 62
    30
 10
262.44885299999987
 20
-602.0
 30
0.0
 11
262.44885299999987
 21
-604.0
 31
0.0
  0
LINE
  5
BC
  8
SIZE
  6
BYBLOCK
 62
    30
 10
262.44885299999987
 20
-495.0
 30
0.0
 11
262.44885299999987
 21
-600.0
 31
0.0
  0
TEXT
  5
BD
  8
SIZE
  6
BYBLOCK
 62
    30
 10
230.4488529999999
 20
-790.85645199999988
 30
0.0
 40
64.0
  1
105
 50
90.0
 41
0.9
  0
LINE
  5
BE
  8
SIZE
  6
BYBLOCK
 62
    30
 10
20.000001000000001
 20
-600.0
 30
0.0
 11
616.24674000000005
 21
-600.0
 31
0.0
  0
LINE
  5
BF
  8
SIZE
  6
BYBLOCK
 62
    30
 10
20.000001000000001
 20
-200.0
 30
0.0
 11
616.24674000000005
 21
-200.0
 31
0.0
  0
LINE
  5
C0
  8
SIZE
  6
BYBLOCK
 62
    30
 10
586.24674000000005
 20
-598.0
 30
0.0
 11
586.24674000000005
 21
-202.0
 31
0.0
  0
TEXT
  5
C1
  8
SIZE
  6
BYBLOCK
 62
    30
 10
554.24674000000005
 20
-474.057142
 30
0.0
 40
64.0
  1
400
 50
90.0
 41
0.9
  0
LINE
  5
C2
  8
SIZE
  6
BYBLOCK
 62
    30
 10
20.000001000000001
 20
-200.0
 30
0.0
 11
616.24674000000005
 21
-200.0
 31
0.0
  0
LINE
  5
C3
  8
SIZE
  6
BYBLOCK
 62
    30
 10
-50.999590000000012
 20
-145.0
 30
0.0
 11
616.24674000000005
 21
-145.0
 31
0.0
  0
LINE
  5
C4
  8
SIZE
  6
BYBLOCK
 62
    30
 10
586.24674000000005
 20
-143.0
 30
0.0
 11
586.24674000000005
 21
-141.0
 31
0.0
  0
LINE
  5
C5
  8
SIZE
  6
BYBLOCK
 62
    30
 10
586.24674000000005
 20
-202.0
 30
0.0
 11
586.24674000000005
 21
-204.0
 31
0.0
  0
LINE
  5
C6
  8
SIZE
  6
BYBLOCK
 62
    30
 10
586.24674000000005
 20
-145.0
 30
0.0
 11
586.24674000000005
 21
-200.0
 31
0.0
  0
TEXT
  5
C7
  8
SIZE
  6
BYBLOCK
 62
    30
 10
554.24674000000005
 20
-118.40499799999991
 30
0.0
 40
64.0
  1
55
 50
90.0
 41
0.9
  0
LINE
  5
C8
  8
SIZE
  6
BYBLOCK
 62
    30
 10
20.000001000000001
 20
-600.0
 30
0.0
 11
429.15878899999979
 21
-600.0
 31
0.0
  0
LINE
  5
C9
  8
SIZE
  6
BYBLOCK
 62
    30
 10
40.000000999999997
 20
-260.0
 30
0.0
 11
429.15878899999979
 21
-260.0
 31
0.0
  0
LINE
  5
CA
  8
SIZE
  6
BYBLOCK
 62
    30
 10
399.15878900000001
 20
-598.0
 30
0.0
 11
399.15878900000001
 21
-262.0
 31
0.0
  0
TEXT
  5
CB
  8
SIZE
  6
BYBLOCK
 62
    30
 10
367.15878900000001
 20
-504.057142
 30
0.0
 40
64.0
  1
340
 50
90.0
 41
0.9
  0
LINE
  5
CC
  8
SIZE
  6
BYBLOCK
 62
    30
 10
0.000001
 20
-620.0
 30
0.0
 11
0.000001
 21
-1088.7429999999999
 31
0.0
  0
LINE
  5
CD
  8
SIZE
  6
BYBLOCK
 62
    30
 10
-319.999999
 20
-620.0
 30
0.0
 11
-319.999999
 21
-1088.7429999999999
 31
0.0
  0
LINE
  5
CE
  8
SIZE
  6
BYBLOCK
 62
    30
 10
-1.9999990000000001
 20
-1058.742999999999
 30
0.0
 11
-159.999999
 21
-1058.742999999999
 31
0.0
  0
LINE
  5
CF
  8
SIZE
  6
BYBLOCK
 62
    30
 10
-317.999999
 20
-1058.742999999999
 30
0.0
 11
-159.999999
 21
-1058.742999999999
 31
0.0
  0
TEXT
  5
D0
  8
SIZE
  6
BYBLOCK
 62
    30
 10
-234.05714199999991
 20
-1026.742999999999
 30
0.0
 40
64.0
  1
320
 41
0.9
  0
LINE
  5
D1
  8
SIZE
  6
BYBLOCK
 62
    30
 10
0.000001
 20
-620.0
 30
0.0
 11
0.000001
 21
-1237.493999999999
 31
0.0
  0
LINE
  5
D2
  8
SIZE
  6
BYBLOCK
 62
    30
 10
-599.999999
 20
-502.14396499999992
 30
0.0
 11
-599.999999
 21
-1237.493999999999
 31
0.0
  0
LINE
  5
D3
  8
SIZE
  6
BYBLOCK
 62
    30
 10
-1.9999990000000001
 20
-1207.4939999999999
 30
0.0
 11
-299.999999
 21
-1207.4939999999999
 31
0.0
  0
LINE
  5
D4
  8
SIZE
  6
BYBLOCK
 62
    30
 10
-597.999999
 20
-1207.4939999999999
 30
0.0
 11
-299.999999
 21
-1207.4939999999999
 31
0.0
  0
TEXT
  5
D5
  8
SIZE
  6
BYBLOCK
 62
    30
 10
-374.057142
 20
-1175.4939999999999
 30
0.0
 40
64.0
  1
600
 41
0.9
  0
LINE
  5
D6
  8
SIZE
  6
BYBLOCK
 62
    30
 10
-359.999999
 20
-600.0
 30
0.0
 11
-852.30590500000005
 21
-600.0
 31
0.0
  0
LINE
  5
D7
  8
SIZE
  6
BYBLOCK
 62
    30
 10
-369.999999
 20
0.0
 30
0.0
 11
-852.30590500000005
 21
0.0
 31
0.0
  0
LINE
  5
D8
  8
SIZE
  6
BYBLOCK
 62
    30
 10
-822.30590499999983
 20
-598.0
 30
0.0
 11
-822.30590499999983
 21
-300.0
 31
0.0
  0
LINE
  5
D9
  8
SIZE
  6
BYBLOCK
 62
    30
 10
-822.30590499999983
 20
-2.0
 30
0.0
 11
-822.30590499999983
 21
-300.0
 31
0.0
  0
TEXT
  5
DA
  8
SIZE
  6
BYBLOCK
 62
    30
 10
-854.30590500000005
 20
-374.057143
 30
0.0
 40
64.0
  1
600
 50
90.0
 41
0.9
  0
CIRCLE
  5
DB
  8
SIZE
  6
CONTINUOUS
 62
    30
 10
-822.30590499999983
 20
0.0
 30
0.0
 40
6.0
  0
CIRCLE
  5
DC
  8
SIZE
  6
CONTINUOUS
 62
    30
 10
-822.30590499999983
 20
-600.0
 30
0.0
 40
6.0
  0
CIRCLE
  5
DD
  8
SIZE
  6
CONTINUOUS
 62
    30
 10
-599.999999
 20
-1207.4939999999999
 30
0.0
 40
6.0
  0
CIRCLE
  5
DE
  8
SIZE
  6
CONTINUOUS
 62
    30
 10
0.000001
 20
-1207.4939999999999
 30
0.0
 40
6.0
  0
CIRCLE
  5
DF
  8
SIZE
  6
CONTINUOUS
 62
    30
 10
-319.999999
 20
-1058.742999999999
 30
0.0
 40
6.0
  0
CIRCLE
  5
E0
  8
SIZE
  6
CONTINUOUS
 62
    30
 10
0.000001
 20
-1058.742999999999
 30
0.0
 40
6.0
  0
CIRCLE
  5
E1
  8
SIZE
  6
CONTINUOUS
 62
    30
 10
399.15878900000001
 20
-260.0
 30
0.0
 40
6.0
  0
CIRCLE
  5
E2
  8
SIZE
  6
CONTINUOUS
 62
    30
 10
399.15878900000001
 20
-600.0
 30
0.0
 40
6.0
  0
CIRCLE
  5
E3
  8
SIZE
  6
CONTINUOUS
 62
    30
 10
586.24674000000005
 20
-200.0
 30
0.0
 40
6.0
  0
CIRCLE
  5
E4
  8
SIZE
  6
CONTINUOUS
 62
    30
 10
586.24674000000005
 20
-145.0
 30
0.0
 40
6.0
  0
CIRCLE
  5
E5
  8
SIZE
  6
CONTINUOUS
 62
    30
 10
586.24674000000005
 20
-200.0
 30
0.0
 40
6.0
  0
CIRCLE
  5
E6
  8
SIZE
  6
CONTINUOUS
 62
    30
 10
586.24674000000005
 20
-600.0
 30
0.0
 40
6.0
  0
CIRCLE
  5
E7
  8
SIZE
  6
CONTINUOUS
 62
    30
 10
262.44885299999987
 20
-600.0
 30
0.0
 40
6.0
  0
CIRCLE
  5
E8
  8
SIZE
  6
CONTINUOUS
 62
    30
 10
262.44885299999987
 20
-495.0
 30
0.0
 40
6.0
  0
CIRCLE
  5
E9
  8
SIZE
  6
CONTINUOUS
 62
    30
 10
-294.999999
 20
348.32698900000008
 30
0.0
 40
6.0
  0
CIRCLE
  5
EA
  8
SIZE
  6
CONTINUOUS
 62
    30
 10
-349.999999
 20
348.32698900000008
 30
0.0
 40
6.0
  0
CIRCLE
  5
EB
  8
SIZE
  6
CONTINUOUS
 62
    30
 10
-218.9995899999999
 20
234.03305899999989
 30
0.0
 40
6.0
  0
CIRCLE
  5
EC
  8
SIZE
  6
CONTINUOUS
 62
    30
 10
-70.999589999999998
 20
234.03305899999989
 30
0.0
 40
6.0
  0
CIRCLE
  5
ED
  8
SIZE
  6
CONTINUOUS
 62
    30
 10
-144.999999
 20
349.17047700000001
 30
0.0
 40
6.0
  0
CIRCLE
  5
EE
  8
SIZE
  6
CONTINUOUS
 62
    30
 10
0.000001
 20
349.17047700000001
 30
0.0
 40
6.0
  0
CIRCLE
  5
EF
  8
SIZE
  6
CONTINUOUS
 62
    30
 10
451.40994999999992
 20
-200.0
 30
0.0
 40
6.0
  0
CIRCLE
  5
F0
  8
SIZE
  6
CONTINUOUS
 62
    30
 10
451.40994999999992
 20
-185.0
 30
0.0
 40
6.0
  0
CIRCLE
  5
F1
  8
SIZE
  6
CONTINUOUS
 62
    30
 10
-289.99999899999989
 20
-944.46111699999994
 30
0.0
 40
6.0
  0
CIRCLE
  5
F2
  8
SIZE
  6
CONTINUOUS
 62
    30
 10
0.000001
 20
-944.46111699999994
 30
0.0
 40
6.0
  0
CIRCLE
  5
F3
  8
SIZE
  6
CONTINUOUS
 62
    30
 10
-254.999999
 20
-826.7055009999998
 30
0.0
 40
6.0
  0
CIRCLE
  5
F4
  8
SIZE
  6
CONTINUOUS
 62
    30
 10
0.000001
 20
-826.7055009999998
 30
0.0
 40
6.0
  0
CIRCLE
  5
F7
  8
SIZE
  6
CONTINUOUS
 62
    30
 10
0.000001
 20
466.52960099999979
 30
0.0
 40
6.0
  0
CIRCLE
  5
F8
  8
SIZE
  6
CONTINUOUS
 62
    30
 10
-349.999999
 20
466.52960099999979
 30
0.0
 40
6.0
  0
CIRCLE
  5
F9
  8
SIZE
  6
CONTINUOUS
 62
    30
 10
-137.9999989999998
 20
102.6058759999999
 30
0.0
 40
6.0
  0
CIRCLE
  5
FA
  8
SIZE
  6
CONTINUOUS
 62
    30
 10
-151.999999
 20
102.6058759999999
 30
0.0
 40
6.0
  0
LINE
  5
FB
  8
NOTE
  6
CONTINUOUS
 62
     4
 10
-289.99999899999989
 20
-220.0
 30
0.0
 11
-289.99999899999989
 21
-180.0
 31
0.0
  0
LINE
  5
FC
  8
NOTE
  6
CONTINUOUS
 62
     4
 10
-309.999999
 20
-200.0
 30
0.0
 11
-269.999999
 21
-200.0
 31
0.0
  0
LINE
  5
FD
  8
NOTE
  6
CONTINUOUS
 62
     4
 10
-254.999999
 20
-220.0
 30
0.0
 11
-254.999999
 21
-180.0
 31
0.0
  0
LINE
  5
FE
  8
NOTE
  6
CONTINUOUS
 62
     4
 10
-274.999999
 20
-200.0
 30
0.0
 11
-234.999999
 21
-200.0
 31
0.0
  0
LINE
  5
100
  8
NOTE
  6
CONTINUOUS
 62
     4
 10
-234.33988267857779
 20
-200.0
 30
0.0
 11
-197.3617615294315
 21
-200.0
 31
0.0
  0
LINE
  5
101
  8
NOTE
  6
CONTINUOUS
 62
     4
 10
0.000001
 20
-515.0
 30
0.0
 11
0.000001
 21
-475.0
 31
0.0
  0
LINE
  5
102
  8
NOTE
  6
CONTINUOUS
 62
     4
 10
-19.999998999999988
 20
-495.0
 30
0.0
 11
20.000001000000001
 21
-495.0
 31
0.0
  0
LINE
  5
103
  8
NOTE
  6
CONTINUOUS
 62
     4
 10
0.000001
 20
-280.0
 30
0.0
 11
0.000001
 21
-240.0
 31
0.0
  0
LINE
  5
104
  8
NOTE
  6
CONTINUOUS
 62
     4
 10
-19.999998999999988
 20
-260.0
 30
0.0
 11
20.000001000000001
 21
-260.0
 31
0.0
  0
TEXT
  5
121
  8
ETC
  6
CONTINUOUS
 62
    61
 10
471.40880977193319
 20
525.33586113309525
 30
0.0
 40
64.0
  1
V-904KD7_4
 41
0.9
  0
TEXT
  5
122
  8
ETC
  6
CONTINUOUS
 62
    61
 10
610.95032248752705
 20
330.55254584779539
 30
0.0
 40
50.0
  1
V-904KD6
 41
0.9
  0
TEXT
  5
123
  8
ETC
  6
CONTINUOUS
 62
    61
 10
471.32612277193311
 20
415.7894111330952
 30
0.0
 40
64.0
  1
換気扇
 41
0.9
  0
LINE
  5
124
  8
NOTE
  6
CONTINUOUS
 62
     4
 10
-216.999999
 20
-220.0
 30
0.0
 11
-216.999999
 21
-180.0
 31
0.0
  0
CIRCLE
  5
130
  8
SIZE
  6
CONTINUOUS
 62
    30
 10
-216.999999
 20
-709.96411420105676
 30
0.0
 40
6.0
  0
CIRCLE
  5
131
  8
SIZE
  6
CONTINUOUS
 62
    30
 10
0.000001
 20
-709.96411420105676
 30
0.0
 40
6.0
  0
LINE
  5
132
  8
NOTE
  6
CONTINUOUS
 62
     4
 10
3.7037589999999989
 20
-220.171842
 30
0.0
 11
0.000001
 21
-260.0
 31
0.0
  0
LINE
  5
133
  8
NOTE
  6
CONTINUOUS
 62
     4
 10
0.000001
 20
-260.0
 30
0.0
 11
23.121628999999999
 21
-227.35968299999999
 31
0.0
  0
LINE
  5
134
  8
SIZE
  6
CONTINUOUS
 10
-216.999999
 20
-240.0
 30
0.0
 11
-216.999999
 21
-729.96411420105665
 31
0.0
  0
LINE
  5
135
  8
SIZE
  6
CONTINUOUS
 10
0.0000009999999988
 20
-620.0
 30
0.0
 11
0.000000999999992
 21
-729.96411420105665
 31
0.0
  0
LINE
  5
136
  8
SIZE
  6
CONTINUOUS
 10
-216.999999
 20
-709.96411420105676
 30
0.0
 11
0.0000009999999933
 21
-709.96411420105676
 31
0.0
  0
LINE
  5
138
  8
NOTE
  6
CONTINUOUS
 62
     4
 10
-188.55743009698179
 20
-234.9029808234736
 30
0.0
 11
-216.999999
 21
-200.0
 31
0.0
  0
LINE
  5
139
  8
NOTE
  6
CONTINUOUS
 62
     4
 10
-216.999999
 20
-200.0
 30
0.0
 11
-210.56822493184879
 21
-241.0635867131295
 31
0.0
  0
LINE
  5
13A
  8
NOTE
  6
CONTINUOUS
 62
     4
 10
-320.044152
 20
-173.59263499999989
 30
0.0
 11
-289.99999899999989
 21
-200.0
 31
0.0
  0
LINE
  5
13B
  8
NOTE
  6
CONTINUOUS
 62
     4
 10
-289.99999899999989
 20
-200.0
 30
0.0
 11
-302.81531699999988
 21
-162.108475
 31
0.0
  0
TEXT
  5
13C
  8
SIZE
  6
CONTINUOUS
 10
-177.0714275714285
 20
-684.96411420105665
 30
0.0
 40
64.0
  1
217
 41
0.9
  0
TEXT
  5
21A
  8
ETC
  6
CONTINUOUS
 62
    61
 10
610.95032248752705
 20
243.8191569465483
 30
0.0
 40
50.0
  1
V-904KD7
 41
0.9
  0
ENDSEC
  0
EOF
