  0
SECTION
  2
HEADER
  9
$ACADVER
  1
AC1009
  9
$INSBASE
 10
0.0
 20
0.0
 30
0.0
  9
$EXTMIN
 10
-1065.4403526050039
 20
-1112.869251767255
 30
-0.0015257624927045
  9
$EXTMAX
 10
1692.1966676160191
 20
1137.2222986971281
 30
50.001525995323327
  9
$LIMMIN
 10
-2970.0
 20
-2100.0
  9
$LIMMAX
 10
2970.0
 20
2100.0
  9
$ORTHOMODE
 70
     1
  9
$REGENMODE
 70
     0
  9
$FILLMODE
 70
     1
  9
$QTEXTMODE
 70
     0
  9
$MIRRTEXT
 70
     0
  9
$DRAGMODE
 70
     2
  9
$LTSCALE
 40
20.0
  9
$OSMODE
 70
    32
  9
$ATTMODE
 70
     1
  9
$TEXTSIZE
 40
64.0
  9
$TRACEWID
 40
0.05
  9
$TEXTSTYLE
  7
STANDARD
  9
$CLAYER
  8
ETC
  9
$CELTYPE
  6
DASHED
  9
$CECOLOR
 62
     3
  9
$DIMSCALE
 40
1.0
  9
$DIMASZ
 40
12.0
  9
$DIMEXO
 40
20.0
  9
$DIMDLI
 40
200.0
  9
$DIMRND
 40
0.0
  9
$DIMDLE
 40
0.0
  9
$DIMEXE
 40
20.0
  9
$DIMTP
 40
0.0
  9
$DIMTM
 40
0.0
  9
$DIMTXT
 40
64.0
  9
$DIMCEN
 40
0.09
  9
$DIMTSZ
 40
0.0
  9
$DIMTOL
 70
     0
  9
$DIMLIM
 70
     0
  9
$DIMTIH
 70
     0
  9
$DIMTOH
 70
     0
  9
$DIMSE1
 70
     0
  9
$DIMSE2
 70
     0
  9
$DIMTAD
 70
     1
  9
$DIMZIN
 70
     8
  9
$DIMBLK
  1
NONE
  9
$DIMASO
 70
     1
  9
$DIMSHO
 70
     0
  9
$DIMPOST
  1

  9
$DIMAPOST
  1

  9
$DIMALT
 70
     0
  9
$DIMALTD
 70
     2
  9
$DIMALTF
 40
25.399999999999999
  9
$DIMLFAC
 40
1.0
  9
$DIMTOFL
 70
     1
  9
$DIMTVP
 40
0.0
  9
$DIMTIX
 70
     1
  9
$DIMSOXD
 70
     0
  9
$DIMSAH
 70
     0
  9
$DIMBLK1
  1
NONE
  9
$DIMBLK2
  1
ORIGIN
  9
$DIMSTYLE
  2
STANDARD
  9
$DIMCLRD
 70
     0
  9
$DIMCLRE
 70
   256
  9
$DIMCLRT
 70
   256
  9
$DIMTFAC
 40
1.0
  9
$DIMGAP
 40
25.0
  9
$LUNITS
 70
     2
  9
$LUPREC
 70
     4
  9
$SKETCHINC
 40
0.1
  9
$FILLETRAD
 40
4.0
  9
$AUNITS
 70
     1
  9
$AUPREC
 70
     3
  9
$MENU
  1
ACAD
  9
$ELEVATION
 40
0.0
  9
$PELEVATION
 40
0.0
  9
$THICKNESS
 40
50.0
  9
$LIMCHECK
 70
     0
  9
$BLIPMODE
 70
     0
  9
$CHAMFERA
 40
0.0
  9
$CHAMFERB
 40
0.0
  9
$SKPOLY
 70
     0
  9
$TDCREATE
 40
2453095.5548665631
  9
$TDUPDATE
 40
2454743.7711813771
  9
$TDINDWG
 40
0.0931344792
  9
$TDUSRTIMER
 40
0.0931339352
  9
$USRTIMER
 70
     1
  9
$ANGBASE
 50
0.0
  9
$ANGDIR
 70
     0
  9
$PDMODE
 70
     3
  9
$PDSIZE
 40
-2.0
  9
$PLINEWID
 40
0.0
  9
$COORDS
 70
     1
  9
$SPLFRAME
 70
     0
  9
$SPLINETYPE
 70
     6
  9
$SPLINESEGS
 70
     8
  9
$ATTDIA
 70
     0
  9
$ATTREQ
 70
     1
  9
$HANDLING
 70
     1
  9
$HANDSEED
  5
98B
  9
$SURFTAB1
 70
     6
  9
$SURFTAB2
 70
     6
  9
$SURFTYPE
 70
     6
  9
$SURFU
 70
     6
  9
$SURFV
 70
     6
  9
$UCSNAME
  2

  9
$UCSORG
 10
0.0
 20
0.0
 30
0.0
  9
$UCSXDIR
 10
1.0
 20
0.0
 30
0.0
  9
$UCSYDIR
 10
0.0
 20
1.0
 30
0.0
  9
$PUCSNAME
  2

  9
$PUCSORG
 10
0.0
 20
0.0
 30
0.0
  9
$PUCSXDIR
 10
1.0
 20
0.0
 30
0.0
  9
$PUCSYDIR
 10
0.0
 20
1.0
 30
0.0
  9
$USERI1
 70
     0
  9
$USERI2
 70
     0
  9
$USERI3
 70
     0
  9
$USERI4
 70
     0
  9
$USERI5
 70
     0
  9
$USERR1
 40
20.0
  9
$USERR2
 40
0.0
  9
$USERR3
 40
0.0
  9
$USERR4
 40
0.0
  9
$USERR5
 40
0.0
  9
$WORLDVIEW
 70
     1
  9
$SHADEDGE
 70
     3
  9
$SHADEDIF
 70
    70
  9
$TILEMODE
 70
     1
  9
$MAXACTVP
 70
    48
  9
$PLIMCHECK
 70
     0
  9
$PEXTMIN
 10
-1.0000000000000000E+020
 20
-1.0000000000000000E+020
 30
-1.0000000000000000E+020
  9
$PEXTMAX
 10
1.0000000000000000E+020
 20
1.0000000000000000E+020
 30
1.0000000000000000E+020
  9
$PLIMMIN
 10
0.0
 20
0.0
  9
$PLIMMAX
 10
12.0
 20
9.0
  9
$UNITMODE
 70
     0
  9
$VISRETAIN
 70
     0
  9
$PLINEGEN
 70
     0
  9
$PSLTSCALE
 70
     0
  0
ENDSEC
  0
SECTION
  2
TABLES
  0
TABLE
  2
VPORT
 70
     1
  0
VPORT
  2
*ACTIVE
 70
     0
 10
0.0
 20
0.0
 11
1.0
 21
1.0
 12
356.3624761974138
 22
-28.876191136648679
 13
0.0
 23
0.0
 14
1.0
 24
1.0
 15
0.0
 25
0.0
 16
0.0
 26
0.0
 36
1.0
 17
0.0
 27
0.0
 37
0.0
 40
2547.0390008049062
 41
1.812051649928264
 42
50.0
 43
0.0
 44
0.0
 50
0.0
 51
0.0
 71
     0
 72
  1000
 73
     1
 74
     0
 75
     0
 76
     0
 77
     0
 78
     0
  0
ENDTAB
  0
TABLE
  2
LTYPE
 70
     6
  0
LTYPE
  2
CONTINUOUS
 70
     0
  3
実線
 72
    65
 73
     0
 40
0.0
  0
LTYPE
  2
DASHED
 70
     0
  3
-- -- -- -- -- -- -- -- -- -- -- -- -- -- --
 72
    65
 73
     2
 40
0.75
 49
0.5
 49
-0.25
  0
LTYPE
  2
DASHDOT
 70
     0
  3
____ _ ____ _ ____ _ ____ _ ____ _ ____ _ ____
 72
    65
 73
     4
 40
5.5
 49
4.0
 49
-0.6
 49
0.3
 49
-0.6
  0
LTYPE
  2
CONTINOUS
 70
     0
  3
Solid line
 72
    65
 73
     0
 40
0.0
  0
LTYPE
  2
PHANTOM
 70
     0
  3
Phantom ______  __  __  ______  __  __  ______
 72
    65
 73
     6
 40
2.5
 49
1.25
 49
-0.25
 49
0.25
 49
-0.25
 49
0.25
 49
-0.25
  0
ENDTAB
  0
TABLE
  2
LAYER
 70
    12
  0
LAYER
  2
0
 70
     0
 62
     7
  6
CONTINUOUS
  0
LAYER
  2
OUTLINE
 70
     0
 62
     3
  6
CONTINUOUS
  0
LAYER
  2
SIZE
 70
     0
 62
    30
  6
CONTINUOUS
  0
LAYER
  2
BASIS
 70
     0
 62
     6
  6
DASHDOT
  0
LAYER
  2
DETAIL
 70
     0
 62
     5
  6
CONTINUOUS
  0
LAYER
  2
ARRANGE
 70
     0
 62
     1
  6
CONTINUOUS
  0
LAYER
  2
DEFPOINTS
 70
     0
 62
     7
  6
CONTINUOUS
  0
LAYER
  2
ETC
 70
     0
 62
    61
  6
CONTINUOUS
  0
LAYER
  2
FIX
 70
     0
 62
    11
  6
CONTINUOUS
  0
LAYER
  2
NOTE
 70
     0
 62
     4
  6
CONTINUOUS
  0
LAYER
  2
SERVICESPACE
 70
     0
 62
     2
  6
DASHDOT
  0
LAYER
  2
SYMBOLLINE
 70
     0
 62
    15
  6
CONTINUOUS
  0
ENDTAB
  0
TABLE
  2
STYLE
 70
     3
  0
STYLE
  2
STANDARD
 70
     0
 40
64.0
 41
0.9
 50
0.0
 71
     0
 42
64.0
  3
SIMPLEX.shx
  4
BIGFONT.shx
  0
STYLE
  2
ANNOTATIVE
 70
     0
 40
0.0
 41
1.0
 50
0.0
 71
     0
 42
0.2
  3
txt
  4

  0
STYLE
  2

 70
     1
 40
0.0
 41
1.0
 50
0.0
 71
     0
 42
64.0
  3
ltypeshp.shx
  4

  0
ENDTAB
  0
TABLE
  2
VIEW
 70
     1
  0
VIEW
  2
ALL
 70
     0
 40
4282.6198079999967
 10
0.0
 20
41.309903999999989
 41
5940.0
 11
0.0
 21
0.0
 31
1.0
 12
0.0
 22
0.0
 32
0.0
 42
50.0
 43
0.0
 44
0.0
 50
0.0
 71
     0
  0
ENDTAB
  0
TABLE
  2
UCS
 70
     0
  0
ENDTAB
  0
TABLE
  2
APPID
 70
     5
  0
APPID
  2
ACAD
 70
     0
  0
APPID
  2
ACADANNOTATIVE
 70
     0
  0
APPID
  2
ACAD_MLEADERVER
 70
     0
  0
APPID
  2
AUTOCAD_POSTSCRIPT_FIGURE
 70
     0
  0
APPID
  2
ACAD_EXEMPT_FROM_CAD_STANDARDS
 70
     0
  0
ENDTAB
  0
TABLE
  2
DIMSTYLE
 70
     2
  0
DIMSTYLE
  2
STANDARD
 70
     0
  3

  4

  5

  6

  7

 40
1.0
 41
0.18
 42
0.0625
 43
0.38
 44
0.18
 45
0.0
 46
0.0
 47
0.0
 48
0.0
140
0.18
141
0.09
142
0.0
143
25.399999999999999
144
1.0
145
0.0
146
1.0
147
0.09
 71
     0
 72
     0
 73
     1
 74
     1
 75
     0
 76
     0
 77
     0
 78
     0
170
     0
171
     2
172
     0
173
     0
174
     0
175
     0
176
     7
177
     7
178
     7
  0
DIMSTYLE
  2
ANNOTATIVE
 70
     0
  3

  4

  5

  6

  7

 40
1.0
 41
0.18
 42
0.0625
 43
0.38
 44
0.18
 45
0.0
 46
0.0
 47
0.0
 48
0.0
140
0.18
141
0.09
142
0.0
143
25.399999999999999
144
1.0
145
0.0
146
1.0
147
0.09
 71
     0
 72
     0
 73
     1
 74
     1
 75
     0
 76
     0
 77
     0
 78
     0
170
     0
171
     2
172
     0
173
     0
174
     0
175
     0
176
     0
177
     0
178
     0
  0
ENDTAB
  0
ENDSEC
  0
SECTION
  2
BLOCKS
  0
BLOCK
  8
0
  2
$MODEL_SPACE
 70
     0
 10
0.0
 20
0.0
 30
0.0
  3
$MODEL_SPACE
  1

  0
ENDBLK
  5
929
  8
0
  0
BLOCK
 67
     1
  8
0
  2
$PAPER_SPACE
 70
     0
 10
0.0
 20
0.0
 30
0.0
  3
$PAPER_SPACE
  1

  0
ENDBLK
  5
925
 67
     1
  8
0
  0
BLOCK
  8
0
  2
DOT1
 70
     0
 10
0.0
 20
0.0
 30
0.0
  3
DOT1
  1

  0
CIRCLE
  5
6CF
  8
SIZE
  6
CONTINUOUS
 62
     7
 10
0.0
 20
0.0
 30
0.0
 40
3.0
  0
ENDBLK
  5
6D0
  8
0
  0
BLOCK
  8
0
  2
_ORIGIN
 70
     0
 10
0.0
 20
0.0
 30
0.0
  3
_ORIGIN
  1

  0
CIRCLE
  5
6D3
  8
0
  6
CONTINUOUS
 62
     7
 10
0.0
 20
0.0
 30
0.0
 40
0.5
  0
LINE
  5
6D4
  8
0
  6
CONTINUOUS
 62
     7
 10
0.0
 20
0.0
 30
0.0
 11
-1.0
 21
0.0
 31
0.0
  0
ENDBLK
  5
6D5
  8
0
  0
BLOCK
  8
0
 62
    30
  2
_NONE
 70
     0
 10
0.0
 20
0.0
 30
0.0
  3
_NONE
  1

  0
ENDBLK
  5
6D8
  8
0
 62
    30
  0
BLOCK
  8
0
 62
    30
  2
_OPEN30
 70
     0
 10
0.0
 20
0.0
 30
0.0
  3
_OPEN30
  1

  0
LINE
  5
6DB
  8
0
  6
BYBLOCK
 62
     0
 10
-1.0
 20
0.26794919
 30
0.0
 11
0.0
 21
0.0
 31
0.0
  0
LINE
  5
6DC
  8
0
  6
BYBLOCK
 62
     0
 10
0.0
 20
0.0
 30
0.0
 11
-1.0
 21
-0.26794919
 31
0.0
  0
LINE
  5
6DD
  8
0
  6
BYBLOCK
 62
     0
 10
0.0
 20
0.0
 30
0.0
 11
-1.0
 21
0.0
 31
0.0
  0
ENDBLK
  5
6DE
  8
0
 62
    30
  0
BLOCK
  8
0
 62
    30
  2
*D6
 70
     1
 10
0.0
 20
0.0
 30
0.0
  3
*D6
  1

  0
LINE
  5
6E1
  8
SIZE
  6
CONTINUOUS
 10
-192.0
 20
-240.0
 30
0.0
 11
-192.0
 21
-767.30637369233204
 31
0.0
  0
LINE
  5
6E2
  8
SIZE
  6
CONTINUOUS
 10
-450.0
 20
-640.0
 30
0.0
 11
-450.0
 21
-767.30637369233204
 31
0.0
  0
LINE
  5
6E3
  8
SIZE
  6
CONTINUOUS
 62
     0
 10
-192.0
 20
-747.30637369233216
 30
0.0
 11
-450.0
 21
-747.30637369233216
 31
0.0
  0
LINE
  5
6E4
  8
SIZE
  6
CONTINUOUS
 62
     0
 10
-450.0
 20
-747.30637369233216
 30
0.0
 11
-660.11428571428564
 21
-747.30637369233216
 31
0.0
  0
TEXT
  5
6E5
  8
SIZE
  6
CONTINUOUS
 10
-635.11428571428564
 20
-722.30637369233216
 30
0.0
 40
64.0
  1
258
 41
0.9
  0
POINT
  5
6E6
  8
DEFPOINTS
  6
CONTINUOUS
 62
     0
 10
-192.0
 20
-220.0
 30
0.0
  0
POINT
  5
6E7
  8
DEFPOINTS
  6
CONTINUOUS
 62
     0
 10
-450.0
 20
-620.0
 30
0.0
  0
POINT
  5
6E8
  8
DEFPOINTS
  6
CONTINUOUS
 62
     0
 10
-450.0
 20
-747.30637369233216
 30
0.0
  0
ENDBLK
  5
6E9
  8
0
 62
    30
  0
ENDSEC
  0
SECTION
  2
ENTITIES
  0
LINE
  5
6EA
  8
DETAIL
  6
CONTINUOUS
 62
     5
 10
450.0
 20
-200.0
 30
0.0
 11
450.0
 21
0.0
 31
0.0
  0
LINE
  5
6EB
  8
DETAIL
  6
CONTINUOUS
 62
     5
 10
-450.0
 20
0.0
 30
0.0
 11
-154.0
 21
0.0
 31
0.0
  0
LINE
  5
6EC
  8
BASIS
  6
DASHDOT
 62
     6
 10
0.0
 20
-671.94006799999966
 30
0.0
 11
0.0
 21
91.970927000000003
 31
0.0
  0
LINE
  5
6ED
  8
DETAIL
  6
CONTINOUS
 62
     5
 10
450.0
 20
-600.0
 30
0.0
 11
450.0
 21
-200.0
 31
0.0
  0
LINE
  5
6EE
  8
DETAIL
  6
CONTINOUS
 62
     5
 10
450.0
 20
-200.0
 30
0.0
 11
-450.0
 21
-200.0
 31
0.0
  0
LINE
  5
6EF
  8
DETAIL
  6
CONTINOUS
 62
     5
 10
-450.0
 20
-600.0
 30
0.0
 11
-450.0
 21
0.0
 31
0.0
  0
LINE
  5
6F0
  8
DETAIL
  6
CONTINOUS
 62
     5
 10
450.0
 20
-600.0
 30
0.0
 11
-450.0
 21
-600.0
 31
0.0
  0
LINE
  5
6F1
  8
DETAIL
  6
CONTINOUS
 62
     5
 10
430.0
 20
-600.0
 30
0.0
 11
430.0
 21
-200.0
 31
0.0
  0
LINE
  5
6F2
  8
DETAIL
  6
CONTINOUS
 62
     5
 10
-430.0
 20
-600.0
 30
0.0
 11
-430.0
 21
-200.0
 31
0.0
  0
TEXT
  5
6F3
  8
NOTE
  6
CONTINUOUS
 62
     4
 10
-252.19331700000001
 20
52.799550000000011
 30
0.0
 40
64.0
  1
OA
 41
0.9
  0
LINE
  5
6F4
  8
SIZE
  6
CONTINUOUS
 62
    30
 10
-450.0
 20
-620.0
 30
0.0
 11
-450.0
 21
-1112.7202309999991
 31
0.0
  0
LINE
  5
6F5
  8
SIZE
  6
CONTINUOUS
 62
    30
 10
450.0
 20
-620.0
 30
0.0
 11
450.0
 21
-1112.7202309999991
 31
0.0
  0
LINE
  5
6F6
  8
SIZE
  6
CONTINUOUS
 62
    30
 10
-438.0
 20
-1092.720231
 30
0.0
 11
438.0
 21
-1092.720231
 31
0.0
  0
TEXT
  5
6F7
  8
SIZE
  6
CONTINUOUS
 62
    30
 10
-74.057142857142864
 20
-1067.720231
 30
0.0
 40
64.0
  1
900
 41
0.9
 72
     1
 11
0.0
 21
-1067.720231
 31
0.0
  0
CIRCLE
  5
6F8
  8
SIZE
  6
CONTINUOUS
 62
    30
 10
-450.0
 20
-1092.720231
 30
0.0
 40
6.0
  0
LINE
  5
6F9
  8
SIZE
  6
CONTINUOUS
 62
    30
 10
-450.0
 20
-1092.720231
 30
0.0
 11
-438.0
 21
-1092.720231
 31
0.0
  0
CIRCLE
  5
6FA
  8
SIZE
  6
CONTINUOUS
 62
    30
 10
450.0
 20
-1092.720231
 30
0.0
 40
6.0
  0
LINE
  5
6FB
  8
SIZE
  6
CONTINUOUS
 62
    30
 10
450.0
 20
-1092.720231
 30
0.0
 11
438.0
 21
-1092.720231
 31
0.0
  0
POINT
  5
6FC
  8
DEFPOINTS
  6
CONTINUOUS
 62
    30
 10
450.0
 20
-1092.720231
 30
0.0
  0
POINT
  5
6FD
  8
ARRANGE
  6
CONTINUOUS
 62
     1
 10
0.0
 20
0.0
 30
0.0
  0
CIRCLE
  5
6FE
  8
ARRANGE
  6
CONTINUOUS
 62
     1
 10
0.0
 20
0.0
 30
0.0
 40
40.0
  0
LINE
  5
6FF
  8
SIZE
  6
CONTINUOUS
 62
    30
 10
-74.0
 20
57.0
 30
0.0
 11
-74.0
 21
372.21112299999987
 31
0.0
  0
LINE
  5
700
  8
SIZE
  6
CONTINUOUS
 62
    30
 10
74.0
 20
57.0
 30
0.0
 11
74.0
 21
372.21112299999987
 31
0.0
  0
LINE
  5
701
  8
SIZE
  6
CONTINUOUS
 62
    30
 10
-62.0
 20
352.21112299999999
 30
0.0
 11
62.0
 21
352.21112299999999
 31
0.0
  0
LINE
  5
702
  8
SIZE
  6
CONTINUOUS
 62
    30
 10
-530.89955799999996
 20
352.21112299999999
 30
0.0
 11
-74.0
 21
352.21112299999999
 31
0.0
  0
TEXT
  5
703
  8
SIZE
  6
CONTINUOUS
 62
    30
 10
-517.41955857142852
 20
377.21112299999999
 30
0.0
 40
64.0
  1
φ148
 41
0.9
 72
     1
 11
-408.52812999999998
 21
377.21112299999999
 31
0.0
  0
CIRCLE
  5
704
  8
SIZE
  6
CONTINUOUS
 62
    30
 10
-74.0
 20
352.21112299999999
 30
0.0
 40
6.0
  0
LINE
  5
705
  8
SIZE
  6
CONTINUOUS
 62
    30
 10
-74.0
 20
352.21112299999999
 30
0.0
 11
-62.0
 21
352.21112299999999
 31
0.0
  0
CIRCLE
  5
706
  8
SIZE
  6
CONTINUOUS
 62
    30
 10
74.0
 20
352.21112299999999
 30
0.0
 40
6.0
  0
LINE
  5
707
  8
SIZE
  6
CONTINUOUS
 62
    30
 10
74.0
 20
352.21112299999999
 30
0.0
 11
62.0
 21
352.21112299999999
 31
0.0
  0
LINE
  5
708
  8
OUTLINE
  6
CONTINOUS
 62
     3
 10
-450.0
 20
-600.0
 30
0.0
 11
-450.0
 21
0.0
 31
0.0
  0
LINE
  5
709
  8
OUTLINE
  6
CONTINOUS
 62
     3
 10
450.0
 20
-600.0
 30
0.0
 11
-450.0
 21
-600.0
 31
0.0
  0
LINE
  5
70A
  8
OUTLINE
  6
CONTINUOUS
 62
     3
 10
450.0
 20
-600.0
 30
0.0
 11
450.0
 21
0.0
 31
0.0
  0
LINE
  5
70B
  8
DETAIL
  6
CONTINUOUS
 62
     5
 10
90.976460000000003
 20
0.0
 30
0.0
 11
126.0
 21
0.0
 31
0.0
  0
TEXT
  5
70C
  8
NOTE
  6
CONTINUOUS
 62
     4
 10
-45.074955000000003
 20
63.140818000000003
 30
0.0
 40
64.0
  1
EA
 41
0.9
  0
LINE
  5
70D
  8
NOTE
  6
CONTINUOUS
 62
     4
 10
-240.0
 20
-220.0
 30
0.0
 11
-240.0
 21
-180.0
 31
0.0
  0
LINE
  5
70E
  8
NOTE
  6
CONTINUOUS
 62
     4
 10
-260.0
 20
-200.0
 30
0.0
 11
-220.0
 21
-200.0
 31
0.0
  0
CIRCLE
  5
70F
  8
FIX
  6
CONTINUOUS
 62
    11
 10
-240.0
 20
-200.0
 30
0.0
 40
12.5
  0
CIRCLE
  5
710
  8
FIX
  6
CONTINUOUS
 62
    11
 10
240.0
 20
-200.0
 30
0.0
 40
12.5
  0
LINE
  5
711
  8
NOTE
  6
CONTINUOUS
 62
     4
 10
240.0
 20
-220.0
 30
0.0
 11
240.0
 21
-180.0
 31
0.0
  0
LINE
  5
712
  8
NOTE
  6
CONTINUOUS
 62
     4
 10
260.0
 20
-200.0
 30
0.0
 11
220.0
 21
-200.0
 31
0.0
  0
LINE
  5
713
  8
NOTE
  6
CONTINUOUS
 62
     4
 10
-519.75497700000005
 20
-394.27096499999988
 30
0.0
 11
-644.32149600000002
 21
-394.27096499999988
 31
0.0
  0
TEXT
  5
714
  8
NOTE
  6
CONTINUOUS
 62
     4
 10
-621.70749999999998
 20
-369.36202200000002
 30
0.0
 40
64.0
  1
EL
 41
0.9
  0
CIRCLE
  5
715
  8
DETAIL
  6
CONTINUOUS
 62
     5
 10
-240.0
 20
-260.0
 30
0.0
 40
4.0
  0
LINE
  5
716
  8
NOTE
  6
CONTINUOUS
 62
     4
 10
-240.0
 20
-280.0
 30
0.0
 11
-240.0
 21
-240.0
 31
0.0
  0
LINE
  5
717
  8
NOTE
  6
CONTINUOUS
 62
     4
 10
-260.0
 20
-260.0
 30
0.0
 11
-220.0
 21
-260.0
 31
0.0
  0
CIRCLE
  5
718
  8
FIX
  6
CONTINUOUS
 62
    11
 10
-240.0
 20
-260.0
 30
0.0
 40
4.0
  0
CIRCLE
  5
719
  8
FIX
  6
CONTINUOUS
 62
    11
 10
-240.0
 20
-495.0
 30
0.0
 40
4.0
  0
LINE
  5
71A
  8
NOTE
  6
CONTINUOUS
 62
     4
 10
-240.0
 20
-515.0
 30
0.0
 11
-240.0
 21
-475.0
 31
0.0
  0
LINE
  5
71B
  8
NOTE
  6
CONTINUOUS
 62
     4
 10
-260.0
 20
-495.0
 30
0.0
 11
-220.0
 21
-495.0
 31
0.0
  0
CIRCLE
  5
71C
  8
DETAIL
  6
CONTINUOUS
 62
     5
 10
-240.0
 20
-495.0
 30
0.0
 40
4.0
  0
CIRCLE
  5
71D
  8
DETAIL
  6
CONTINUOUS
 62
     5
 10
240.0
 20
-495.0
 30
0.0
 40
4.0
  0
LINE
  5
71E
  8
NOTE
  6
CONTINUOUS
 62
     4
 10
240.0
 20
-515.0
 30
0.0
 11
240.0
 21
-475.0
 31
0.0
  0
LINE
  5
71F
  8
NOTE
  6
CONTINUOUS
 62
     4
 10
260.0
 20
-495.0
 30
0.0
 11
220.0
 21
-495.0
 31
0.0
  0
CIRCLE
  5
720
  8
FIX
  6
CONTINUOUS
 62
    11
 10
240.0
 20
-495.0
 30
0.0
 40
4.0
  0
CIRCLE
  5
721
  8
FIX
  6
CONTINUOUS
 62
    11
 10
240.0
 20
-260.0
 30
0.0
 40
4.0
  0
LINE
  5
722
  8
NOTE
  6
CONTINUOUS
 62
     4
 10
240.0
 20
-280.0
 30
0.0
 11
240.0
 21
-240.0
 31
0.0
  0
LINE
  5
723
  8
NOTE
  6
CONTINUOUS
 62
     4
 10
260.0
 20
-260.0
 30
0.0
 11
220.0
 21
-260.0
 31
0.0
  0
CIRCLE
  5
724
  8
DETAIL
  6
CONTINUOUS
 62
     5
 10
240.0
 20
-260.0
 30
0.0
 40
4.0
  0
LINE
  5
725
  8
SIZE
  6
CONTINUOUS
 62
    30
 10
470.0
 20
-600.0
 30
0.0
 11
839.31805099999985
 21
-600.0
 31
0.0
  0
LINE
  5
726
  8
SIZE
  6
CONTINUOUS
 62
    30
 10
470.0
 20
-200.0
 30
0.0
 11
839.31805099999985
 21
-200.0
 31
0.0
  0
LINE
  5
727
  8
SIZE
  6
CONTINUOUS
 62
    30
 10
819.31805099999985
 20
-588.0
 30
0.0
 11
819.31805099999985
 21
-212.0
 31
0.0
  0
TEXT
  5
728
  8
SIZE
  6
CONTINUOUS
 62
    30
 10
794.31805099999985
 20
-474.05714285714282
 30
0.0
 40
64.0
  1
400
 50
90.0
 41
0.9
 72
     1
 11
794.31805099999985
 21
-400.0
 31
0.0
  0
CIRCLE
  5
729
  8
SIZE
  6
CONTINUOUS
 62
    30
 10
819.31805099999985
 20
-600.0
 30
0.0
 40
6.0
  0
LINE
  5
72A
  8
SIZE
  6
CONTINUOUS
 62
    30
 10
819.31805099999985
 20
-600.0
 30
0.0
 11
819.31805099999985
 21
-588.0
 31
0.0
  0
CIRCLE
  5
72B
  8
SIZE
  6
CONTINUOUS
 62
    30
 10
819.31805099999985
 20
-200.0
 30
0.0
 40
6.0
  0
LINE
  5
72C
  8
SIZE
  6
CONTINUOUS
 62
    30
 10
819.31805099999985
 20
-200.0
 30
0.0
 11
819.31805099999985
 21
-212.0
 31
0.0
  0
LINE
  5
72D
  8
SIZE
  6
CONTINUOUS
 62
    30
 10
470.0
 20
-600.0
 30
0.0
 11
966.27609500000005
 21
-600.0
 31
0.0
  0
LINE
  5
72E
  8
SIZE
  6
CONTINUOUS
 62
    30
 10
470.0
 20
0.0
 30
0.0
 11
966.27609500000005
 21
0.0
 31
0.0
  0
LINE
  5
72F
  8
SIZE
  6
CONTINUOUS
 62
    30
 10
946.27609500000005
 20
-588.0
 30
0.0
 11
946.27609500000005
 21
-12.0
 31
0.0
  0
TEXT
  5
730
  8
SIZE
  6
CONTINUOUS
 62
    30
 10
924.33640500000024
 20
-379.92049985714289
 30
0.0
 40
64.0
  1
600
 50
90.0
 41
0.9
 72
     1
 11
924.33640500000024
 21
-305.86335700000001
 31
0.0
  0
CIRCLE
  5
731
  8
SIZE
  6
CONTINUOUS
 62
    30
 10
946.27609500000005
 20
-600.0
 30
0.0
 40
6.0
  0
LINE
  5
732
  8
SIZE
  6
CONTINUOUS
 62
    30
 10
946.27609500000005
 20
-600.0
 30
0.0
 11
946.27609500000005
 21
-588.0
 31
0.0
  0
CIRCLE
  5
733
  8
SIZE
  6
CONTINUOUS
 62
    30
 10
946.27609500000005
 20
0.0
 30
0.0
 40
6.0
  0
LINE
  5
734
  8
SIZE
  6
CONTINUOUS
 62
    30
 10
946.27609500000005
 20
0.0
 30
0.0
 11
946.27609500000005
 21
-12.0
 31
0.0
  0
LINE
  5
735
  8
SIZE
  6
CONTINUOUS
 62
    30
 10
240.0
 20
-535.0
 30
0.0
 11
240.0
 21
-993.80406900000014
 31
0.0
  0
LINE
  5
736
  8
SIZE
  6
CONTINUOUS
 62
    30
 10
-240.0
 20
-535.0
 30
0.0
 11
-240.0
 21
-993.80406900000014
 31
0.0
  0
LINE
  5
737
  8
SIZE
  6
CONTINUOUS
 62
    30
 10
228.0
 20
-973.80406900000003
 30
0.0
 11
-228.0
 21
-973.80406900000003
 31
0.0
  0
TEXT
  5
738
  8
SIZE
  6
CONTINUOUS
 62
    30
 10
-74.057142857142836
 20
-947.20112800000004
 30
0.0
 40
64.0
  1
480
 41
0.9
 72
     1
 11
0.0
 21
-947.20112800000004
 31
0.0
  0
CIRCLE
  5
739
  8
SIZE
  6
CONTINUOUS
 62
    30
 10
240.0
 20
-973.80406900000003
 30
0.0
 40
6.0
  0
LINE
  5
73A
  8
SIZE
  6
CONTINUOUS
 62
    30
 10
240.0
 20
-973.80406900000003
 30
0.0
 11
228.0
 21
-973.80406900000003
 31
0.0
  0
CIRCLE
  5
73B
  8
SIZE
  6
CONTINUOUS
 62
    30
 10
-240.0
 20
-973.80406900000003
 30
0.0
 40
6.0
  0
LINE
  5
73C
  8
SIZE
  6
CONTINUOUS
 62
    30
 10
-240.0
 20
-973.80406900000003
 30
0.0
 11
-228.0
 21
-973.80406900000003
 31
0.0
  0
LINE
  5
73D
  8
SIZE
  6
CONTINUOUS
 62
    30
 10
240.0
 20
-160.0
 30
0.0
 11
240.0
 21
1071.0472879999991
 31
0.0
  0
LINE
  5
73E
  8
SIZE
  6
CONTINUOUS
 62
    30
 10
-240.0
 20
-160.0
 30
0.0
 11
-240.0
 21
1071.0472879999991
 31
0.0
  0
LINE
  5
73F
  8
SIZE
  6
CONTINUOUS
 62
    30
 10
228.0
 20
1051.047288
 30
0.0
 11
-228.0
 21
1051.047288
 31
0.0
  0
TEXT
  5
740
  8
SIZE
  6
CONTINUOUS
 62
    30
 10
-74.057142857142836
 20
1072.9068339999999
 30
0.0
 40
64.0
  1
480
 41
0.9
 72
     1
 11
0.0
 21
1072.9068339999999
 31
0.0
  0
CIRCLE
  5
741
  8
SIZE
  6
CONTINUOUS
 62
    30
 10
240.0
 20
1051.047288
 30
0.0
 40
6.0
  0
LINE
  5
742
  8
SIZE
  6
CONTINUOUS
 62
    30
 10
240.0
 20
1051.047288
 30
0.0
 11
228.0
 21
1051.047288
 31
0.0
  0
CIRCLE
  5
743
  8
SIZE
  6
CONTINUOUS
 62
    30
 10
-240.0
 20
1051.047288
 30
0.0
 40
6.0
  0
LINE
  5
744
  8
SIZE
  6
CONTINUOUS
 62
    30
 10
-240.0
 20
1051.047288
 30
0.0
 11
-228.0
 21
1051.047288
 31
0.0
  0
LINE
  5
745
  8
SIZE
  6
CONTINUOUS
 62
    30
 10
-470.0
 20
-600.0
 30
0.0
 11
-701.889726
 21
-600.0
 31
0.0
  0
LINE
  5
746
  8
SIZE
  6
CONTINUOUS
 62
    30
 10
-280.0
 20
-495.0
 30
0.0
 11
-701.889726
 21
-495.0
 31
0.0
  0
LINE
  5
747
  8
SIZE
  6
CONTINUOUS
 62
    30
 10
-681.88972599999988
 20
-588.0
 30
0.0
 11
-681.88972599999988
 21
-507.0
 31
0.0
  0
LINE
  5
748
  8
SIZE
  6
CONTINUOUS
 62
    30
 10
-681.88972599999988
 20
-815.21607400000005
 30
0.0
 11
-681.88972599999988
 21
-600.0
 31
0.0
  0
TEXT
  5
749
  8
SIZE
  6
CONTINUOUS
 62
    30
 10
-706.88972599999988
 20
-790.21607357142841
 30
0.0
 40
64.0
  1
105
 50
90.0
 41
0.9
 72
     1
 11
-706.88972599999988
 21
-721.64464499999985
 31
0.0
  0
CIRCLE
  5
74A
  8
SIZE
  6
CONTINUOUS
 62
    30
 10
-681.88972599999988
 20
-600.0
 30
0.0
 40
6.0
  0
LINE
  5
74B
  8
SIZE
  6
CONTINUOUS
 62
    30
 10
-681.88972599999988
 20
-600.0
 30
0.0
 11
-681.88972599999988
 21
-588.0
 31
0.0
  0
CIRCLE
  5
74C
  8
SIZE
  6
CONTINUOUS
 62
    30
 10
-681.88972599999988
 20
-495.0
 30
0.0
 40
6.0
  0
LINE
  5
74D
  8
SIZE
  6
CONTINUOUS
 62
    30
 10
-681.88972599999988
 20
-495.0
 30
0.0
 11
-681.88972599999988
 21
-507.0
 31
0.0
  0
LINE
  5
74E
  8
SIZE
  6
CONTINUOUS
 62
    30
 10
-470.0
 20
-600.0
 30
0.0
 11
-812.39891900000009
 21
-600.0
 31
0.0
  0
LINE
  5
74F
  8
SIZE
  6
CONTINUOUS
 62
    30
 10
-280.0
 20
-260.0
 30
0.0
 11
-812.39891900000009
 21
-260.0
 31
0.0
  0
LINE
  5
750
  8
SIZE
  6
CONTINUOUS
 62
    30
 10
-792.39891900000021
 20
-588.0
 30
0.0
 11
-792.39891900000021
 21
-272.0
 31
0.0
  0
CIRCLE
  5
751
  8
SIZE
  6
CONTINUOUS
 62
    30
 10
-792.39891900000021
 20
-600.0
 30
0.0
 40
6.0
  0
LINE
  5
752
  8
SIZE
  6
CONTINUOUS
 62
    30
 10
-792.39891900000021
 20
-600.0
 30
0.0
 11
-792.39891900000021
 21
-588.0
 31
0.0
  0
CIRCLE
  5
753
  8
SIZE
  6
CONTINUOUS
 62
    30
 10
-792.39891900000021
 20
-260.0
 30
0.0
 40
6.0
  0
LINE
  5
754
  8
SIZE
  6
CONTINUOUS
 62
    30
 10
-792.39891900000021
 20
-260.0
 30
0.0
 11
-792.39891900000021
 21
-272.0
 31
0.0
  0
TEXT
  5
755
  8
SIZE
  6
CONTINUOUS
 62
    30
 10
-817.39891899999998
 20
-504.05714285714282
 30
0.0
 40
64.0
  1
340
 50
90.0
 41
0.9
 72
     1
 11
-817.39891899999998
 21
-430.0
 31
0.0
  0
LINE
  5
756
  8
DETAIL
  6
CONTINUOUS
 62
     5
 10
-120.0
 20
-70.0
 30
0.0
 11
-120.0
 21
-10.0
 31
0.0
  0
LINE
  5
757
  8
DETAIL
  6
PHANTOM
 62
     5
 10
-280.0
 20
-10.0
 30
0.0
 11
-109.0
 21
-10.0
 31
0.0
  0
LINE
  5
758
  8
BASIS
  6
DASHDOT
 62
     6
 10
200.0
 20
-228.84653499999999
 30
0.0
 11
200.0
 21
73.850234999999984
 31
0.0
  0
LINE
  5
759
  8
BASIS
  6
DASHDOT
 62
     6
 10
313.18186900000001
 20
-100.0
 30
0.0
 11
86.701954000000001
 21
-100.0
 31
0.0
  0
TEXT
  5
75A
  8
NOTE
  6
CONTINUOUS
 62
     4
 10
-346.88154300000002
 20
584.51269999999965
 30
0.0
 40
64.0
  1
上部給気接続口移動寸法
 41
0.9
  0
TEXT
  5
75B
  8
NOTE
  6
CONTINUOUS
 62
     4
 10
-788.86993600000005
 20
-921.7022659999999
 30
0.0
 40
64.0
  1
4-φ8
 41
0.9
  0
LINE
  5
75C
  8
NOTE
  6
CONTINUOUS
 62
     4
 10
-525.60713499999997
 20
-946.61120900000014
 30
0.0
 11
-806.03868699999998
 21
-946.61120900000014
 31
0.0
  0
LINE
  5
75D
  8
NOTE
  6
CONTINUOUS
 62
     4
 10
-240.0
 20
-495.0
 30
0.0
 11
-525.60713499999997
 21
-946.61120900000014
 31
0.0
  0
LINE
  5
75E
  8
NOTE
  6
CONTINUOUS
 62
     4
 10
-268.87545299999999
 20
-522.68046699999991
 30
0.0
 11
-240.0
 21
-495.0
 31
0.0
  0
LINE
  5
75F
  8
NOTE
  6
CONTINUOUS
 62
     4
 10
-240.0
 20
-495.0
 30
0.0
 11
-251.166642
 21
-533.40971399999989
 31
0.0
  0
LINE
  5
760
  8
NOTE
  6
CONTINUOUS
 62
     4
 10
-190.38174794328791
 20
-200.0
 30
0.0
 11
-519.75497700000005
 21
-394.27096499999988
 31
0.0
  0
LINE
  5
761
  8
NOTE
  6
CONTINUOUS
 62
     4
 10
-211.0003136668638
 20
-228.53877026644281
 30
0.0
 11
-190.38174794328791
 21
-200.0
 31
0.0
  0
LINE
  5
762
  8
NOTE
  6
CONTINUOUS
 62
     4
 10
-190.38174794328791
 20
-200.0
 30
0.0
 11
-227.14934983043409
 21
-207.99352024509881
 31
0.0
  0
TEXT
  5
763
  8
NOTE
  6
CONTINUOUS
 62
     4
 10
590.809575
 20
253.16843299999999
 30
0.0
 40
64.0
  1
後部左側給気接続口
 41
0.9
  0
LINE
  5
764
  8
SIZE
  6
CONTINUOUS
 62
    30
 10
200.0
 20
93.850234999999998
 30
0.0
 11
200.0
 21
832.361133
 31
0.0
  0
LINE
  5
765
  8
SIZE
  6
CONTINUOUS
 62
    30
 10
-200.0
 20
93.850234999999998
 30
0.0
 11
-200.0
 21
832.361133
 31
0.0
  0
LINE
  5
766
  8
SIZE
  6
CONTINUOUS
 62
    30
 10
188.0
 20
812.36113299999988
 30
0.0
 11
-188.0
 21
812.36113299999988
 31
0.0
  0
TEXT
  5
767
  8
SIZE
  6
CONTINUOUS
 62
    30
 10
-74.05714285714285
 20
841.54860099999985
 30
0.0
 40
64.0
  1
400
 41
0.9
 72
     1
 11
0.0
 21
841.54860099999985
 31
0.0
  0
CIRCLE
  5
768
  8
SIZE
  6
CONTINUOUS
 62
    30
 10
200.0
 20
812.36113299999988
 30
0.0
 40
6.0
  0
LINE
  5
769
  8
SIZE
  6
CONTINUOUS
 62
    30
 10
200.0
 20
812.36113299999988
 30
0.0
 11
188.0
 21
812.36113299999988
 31
0.0
  0
CIRCLE
  5
76A
  8
SIZE
  6
CONTINUOUS
 62
    30
 10
-200.0
 20
812.36113299999988
 30
0.0
 40
6.0
  0
LINE
  5
76B
  8
SIZE
  6
CONTINUOUS
 62
    30
 10
-200.0
 20
812.36113299999988
 30
0.0
 11
-188.0
 21
812.36113299999988
 31
0.0
  0
LINE
  5
76C
  8
NOTE
  6
CONTINUOUS
 62
     4
 10
243.16497799999991
 20
-39.893554999999999
 30
0.0
 11
578.0765839999998
 21
232.76886099999999
 31
0.0
  0
LINE
  5
76D
  8
NOTE
  6
CONTINUOUS
 62
     4
 10
280.08672899999982
 20
-24.505756999999988
 30
0.0
 11
243.16497799999991
 21
-39.893554999999999
 31
0.0
  0
LINE
  5
76E
  8
NOTE
  6
CONTINUOUS
 62
     4
 10
243.16497799999991
 20
-39.893554999999999
 30
0.0
 11
267.4462529999999
 21
-8.1064550000000004
 31
0.0
  0
LINE
  5
76F
  8
NOTE
  6
CONTINUOUS
 62
     4
 10
63.401764999999997
 20
45.0
 30
0.0
 11
441.537015
 21
453.409491
 31
0.0
  0
LINE
  5
770
  8
NOTE
  6
CONTINUOUS
 62
     4
 10
83.054767999999996
 20
79.839050999999998
 30
0.0
 11
63.401764999999997
 21
45.0
 31
0.0
  0
LINE
  5
771
  8
NOTE
  6
CONTINUOUS
 62
     4
 10
63.401764999999997
 20
45.0
 30
0.0
 11
97.841291000000012
 21
65.345000999999996
 31
0.0
  0
LINE
  5
772
  8
SIZE
  6
CONTINUOUS
 62
    30
 10
278.0
 20
934.62615399999981
 30
0.0
 11
508.14640999999989
 21
934.62615399999981
 31
0.0
  0
TEXT
  5
773
  8
NOTE
  6
CONTINUOUS
 62
     4
 10
320.78023300000001
 20
830.51852199999985
 30
0.0
 40
64.0
  1
チャンバー移動寸法
 41
0.9
  0
TEXT
  5
774
  8
NOTE
  6
CONTINUOUS
 62
     4
 10
-328.71620699999988
 20
-845.179485
 30
0.0
 40
64.0
  1
ダクト接続口可動寸法
 41
0.9
  0
LINE
  5
775
  8
DETAIL
  6
CONTINUOUS
 62
     5
 10
74.0
 20
-8.0
 30
0.0
 11
-74.0
 21
-8.0
 31
0.0
  0
LINE
  5
776
  8
DETAIL
  6
CONTINUOUS
 62
     5
 10
74.0
 20
37.0
 30
0.0
 11
-74.0
 21
37.0
 31
0.0
  0
LINE
  5
777
  8
DETAIL
  6
CONTINUOUS
 62
     5
 10
-74.0
 20
-8.0
 30
0.0
 11
-74.0
 21
37.0
 31
0.0
  0
LINE
  5
778
  8
DETAIL
  6
CONTINUOUS
 62
     5
 10
74.0
 20
-8.0
 30
0.0
 11
74.0
 21
37.0
 31
0.0
  0
LINE
  5
779
  8
DETAIL
  6
CONTINUOUS
 62
     5
 10
-84.0
 20
-18.0
 30
0.0
 11
-74.0
 21
-8.0
 31
0.0
  0
LINE
  5
77A
  8
DETAIL
  6
CONTINUOUS
 62
     5
 10
84.0
 20
-18.0
 30
0.0
 11
74.0
 21
-8.0
 31
0.0
  0
LINE
  5
77B
  8
BASIS
  6
DASHDOT
 62
     6
 10
6.0
 20
-219.31054700000001
 30
0.0
 11
6.0
 21
58.529285999999999
 31
0.0
  0
LINE
  5
77C
  8
SIZE
  6
CONTINUOUS
 62
    30
 10
6.0
 20
-239.31054700000001
 30
0.0
 11
6.0
 21
-770.96621900000002
 31
0.0
  0
LINE
  5
77D
  8
SIZE
  6
CONTINUOUS
 62
    30
 10
-6.0
 20
-239.31054700000001
 30
0.0
 11
-6.0
 21
-770.96621900000002
 31
0.0
  0
LINE
  5
77E
  8
SIZE
  6
CONTINUOUS
 62
    30
 10
18.0
 20
-750.96621900000002
 30
0.0
 11
30.0
 21
-750.96621900000002
 31
0.0
  0
LINE
  5
77F
  8
SIZE
  6
CONTINUOUS
 62
    30
 10
-18.0
 20
-750.96621900000002
 30
0.0
 11
-30.0
 21
-750.96621900000002
 31
0.0
  0
LINE
  5
780
  8
SIZE
  6
CONTINUOUS
 62
    30
 10
179.13888099999991
 20
-750.96621900000002
 30
0.0
 11
6.0
 21
-750.96621900000002
 31
0.0
  0
TEXT
  5
781
  8
SIZE
  6
CONTINUOUS
 62
    30
 10
71.853166857142867
 20
-725.96621900000002
 30
0.0
 40
64.0
  1
12
 41
0.9
 72
     1
 11
112.99602400000001
 21
-725.96621900000002
 31
0.0
  0
LINE
  5
782
  8
SIZE
  6
CONTINUOUS
 62
    30
 10
6.0
 20
-750.96621900000002
 30
0.0
 11
-6.0
 21
-750.96621900000002
 31
0.0
  0
LINE
  5
783
  8
SIZE
  6
CONTINUOUS
 62
    30
 10
6.0
 20
-750.96621900000002
 30
0.0
 11
-6.0
 21
-750.96621900000002
 31
0.0
  0
CIRCLE
  5
784
  8
SIZE
  6
CONTINUOUS
 62
    30
 10
6.0
 20
-750.96621900000002
 30
0.0
 40
6.0
  0
LINE
  5
785
  8
SIZE
  6
CONTINUOUS
 62
    30
 10
6.0
 20
-750.96621900000002
 30
0.0
 11
18.0
 21
-750.96621900000002
 31
0.0
  0
CIRCLE
  5
786
  8
SIZE
  6
CONTINUOUS
 62
    30
 10
-6.0
 20
-750.96621900000002
 30
0.0
 40
6.0
  0
LINE
  5
787
  8
SIZE
  6
CONTINUOUS
 62
    30
 10
-6.0
 20
-750.96621900000002
 30
0.0
 11
-18.0
 21
-750.96621900000002
 31
0.0
  0
LINE
  5
788
  8
DETAIL
  6
CONTINUOUS
 62
     5
 10
-91.0
 20
-200.0
 30
0.0
 11
-91.0
 21
-18.0
 31
0.0
  0
LINE
  5
789
  8
DETAIL
  6
CONTINUOUS
 62
     5
 10
91.0
 20
-200.0
 30
0.0
 11
91.0
 21
-18.0
 31
0.0
  0
LINE
  5
78A
  8
DETAIL
  6
CONTINUOUS
 62
     5
 10
91.0
 20
-18.0
 30
0.0
 11
-91.0
 21
-18.0
 31
0.0
  0
LINE
  5
78B
  8
BASIS
  6
DASHDOT
 62
     6
 10
105.163774
 20
-109.0
 30
0.0
 11
-104.938175
 21
-109.0
 31
0.0
  0
CIRCLE
  5
78C
  8
DETAIL
  6
PHANTOM
 62
     5
 10
0.0
 20
-109.0
 30
0.0
 40
74.0
  0
CIRCLE
  5
78D
  8
DETAIL
  6
PHANTOM
 62
     5
 10
0.0
 20
-109.0
 30
0.0
 40
87.0
  0
LINE
  5
78E
  8
BASIS
  6
DASHDOT
 62
     6
 10
-6.0
 20
-219.31054700000001
 30
0.0
 11
-6.0
 21
58.529285999999999
 31
0.0
  0
LINE
  5
790
  8
BASIS
  6
DASHDOT
 62
     6
 10
-40.0
 20
9.2055530000000001
 30
0.0
 11
-40.0
 21
73.850234999999984
 31
0.0
  0
LINE
  5
791
  8
BASIS
  6
DASHDOT
 62
     6
 10
40.0
 20
9.2055530000000001
 30
0.0
 11
40.0
 21
73.850234999999984
 31
0.0
  0
LINE
  5
792
  8
BASIS
  6
DASHDOT
 62
     6
 10
-200.0
 20
-228.84653499999999
 30
0.0
 11
-200.0
 21
73.850234999999984
 31
0.0
  0
LINE
  5
793
  8
DETAIL
  6
PHANTOM
 62
     5
 10
-126.0
 20
0.0
 30
0.0
 11
-274.0
 21
0.0
 31
0.0
  0
LINE
  5
794
  8
DETAIL
  6
PHANTOM
 62
     5
 10
-126.0
 20
45.0
 30
0.0
 11
-274.0
 21
45.0
 31
0.0
  0
LINE
  5
795
  8
DETAIL
  6
PHANTOM
 62
     5
 10
-274.0
 20
0.0
 30
0.0
 11
-274.0
 21
45.0
 31
0.0
  0
LINE
  5
796
  8
DETAIL
  6
PHANTOM
 62
     5
 10
-126.0
 20
0.0
 30
0.0
 11
-126.0
 21
45.0
 31
0.0
  0
LINE
  5
798
  8
DETAIL
  6
PHANTOM
 62
     5
 10
280.0
 20
-200.0
 30
0.0
 11
280.0
 21
-10.0
 31
0.0
  0
LINE
  5
799
  8
DETAIL
  6
PHANTOM
 62
     5
 10
274.0
 20
0.0
 30
0.0
 11
274.0
 21
45.0
 31
0.0
  0
LINE
  5
79A
  8
DETAIL
  6
PHANTOM
 62
     5
 10
126.0
 20
0.0
 30
0.0
 11
274.0
 21
0.0
 31
0.0
  0
LINE
  5
79B
  8
DETAIL
  6
PHANTOM
 62
     5
 10
126.0
 20
0.0
 30
0.0
 11
126.0
 21
45.0
 31
0.0
  0
LINE
  5
79C
  8
DETAIL
  6
PHANTOM
 62
     5
 10
120.0
 20
-200.0
 30
0.0
 11
120.0
 21
-10.0
 31
0.0
  0
LINE
  5
79D
  8
DETAIL
  6
PHANTOM
 62
     5
 10
280.0
 20
-10.0
 30
0.0
 11
120.0
 21
-10.0
 31
0.0
  0
LINE
  5
79E
  8
DETAIL
  6
PHANTOM
 62
     5
 10
126.0
 20
45.0
 30
0.0
 11
274.0
 21
45.0
 31
0.0
  0
LINE
  5
79F
  8
DETAIL
  6
PHANTOM
 62
     5
 10
-89.502789000000007
 20
0.0
 30
0.0
 11
-89.502789000000007
 21
45.0
 31
0.0
  0
LINE
  5
7A0
  8
DETAIL
  6
DASHED
 62
     5
 10
34.0
 20
37.0
 30
0.0
 11
34.0
 21
45.0
 31
0.0
  0
LINE
  5
7A1
  8
DETAIL
  6
PHANTOM
 62
     5
 10
-99.502789000000007
 20
-10.0
 30
0.0
 11
-89.502789000000007
 21
0.0
 31
0.0
  0
LINE
  5
7A2
  8
DETAIL
  6
PHANTOM
 62
     5
 10
-74.0
 20
0.0
 30
0.0
 11
-89.502789000000007
 21
0.0
 31
0.0
  0
LINE
  5
7A3
  8
DETAIL
  6
PHANTOM
 62
     5
 10
-120.0
 20
-10.0
 30
0.0
 11
-76.0
 21
-10.0
 31
0.0
  0
LINE
  5
7A4
  8
DETAIL
  6
PHANTOM
 62
     5
 10
100.97646
 20
-10.0
 30
0.0
 11
90.976460000000003
 21
0.0
 31
0.0
  0
LINE
  5
7A5
  8
DETAIL
  6
PHANTOM
 62
     5
 10
90.976460000000003
 20
0.0
 30
0.0
 11
90.976460000000003
 21
45.0
 31
0.0
  0
LINE
  5
7A6
  8
DETAIL
  6
PHANTOM
 62
     5
 10
74.0
 20
0.0
 30
0.0
 11
90.976460000000003
 21
0.0
 31
0.0
  0
LINE
  5
7A7
  8
DETAIL
  6
PHANTOM
 62
     5
 10
-89.502789000000007
 20
45.0
 30
0.0
 11
90.976460000000003
 21
45.0
 31
0.0
  0
LINE
  5
7A8
  8
DETAIL
  6
DASHED
 62
     5
 10
-34.0
 20
37.0
 30
0.0
 11
-34.0
 21
45.0
 31
0.0
  0
LINE
  5
7A9
  8
DETAIL
  6
PHANTOM
 62
     5
 10
120.0
 20
-10.0
 30
0.0
 11
76.0
 21
-10.0
 31
0.0
  0
LINE
  5
7AA
  8
DETAIL
  6
CONTINUOUS
 62
     5
 10
-126.0
 20
0.0
 30
0.0
 11
-89.502789000000007
 21
0.0
 31
0.0
  0
LINE
  5
7AB
  8
DETAIL
  6
CONTINUOUS
 62
     5
 10
450.0
 20
0.0
 30
0.0
 11
274.0
 21
0.0
 31
0.0
  0
LINE
  5
7AC
  8
SIZE
  6
CONTINUOUS
 62
    30
 10
-200.0
 20
93.850234999999998
 30
0.0
 11
-200.0
 21
690.14857500000005
 31
0.0
  0
LINE
  5
7AD
  8
SIZE
  6
CONTINUOUS
 62
    30
 10
-40.0
 20
92.004242999999988
 30
0.0
 11
-40.0
 21
690.14857500000005
 31
0.0
  0
LINE
  5
7AE
  8
SIZE
  6
CONTINUOUS
 62
    30
 10
-212.0
 20
670.14857500000005
 30
0.0
 11
-224.0
 21
670.14857500000005
 31
0.0
  0
LINE
  5
7AF
  8
SIZE
  6
CONTINUOUS
 62
    30
 10
-28.0
 20
670.14857500000005
 30
0.0
 11
-16.0
 21
670.14857500000005
 31
0.0
  0
LINE
  5
7B0
  8
SIZE
  6
CONTINUOUS
 62
    30
 10
-200.0
 20
670.14857500000005
 30
0.0
 11
-40.0
 21
670.14857500000005
 31
0.0
  0
CIRCLE
  5
7B1
  8
SIZE
  6
CONTINUOUS
 62
    30
 10
-200.0
 20
670.14857500000005
 30
0.0
 40
6.0
  0
LINE
  5
7B2
  8
SIZE
  6
CONTINUOUS
 62
    30
 10
-200.0
 20
670.14857500000005
 30
0.0
 11
-212.0
 21
670.14857500000005
 31
0.0
  0
CIRCLE
  5
7B3
  8
SIZE
  6
CONTINUOUS
 62
    30
 10
-40.0
 20
670.14857500000005
 30
0.0
 40
6.0
  0
LINE
  5
7B4
  8
SIZE
  6
CONTINUOUS
 62
    30
 10
-40.0
 20
670.14857500000005
 30
0.0
 11
-28.0
 21
670.14857500000005
 31
0.0
  0
TEXT
  5
7B5
  8
SIZE
  6
CONTINUOUS
 62
    30
 10
-188.5714285714285
 20
695.14857500000005
 30
0.0
 40
64.0
  1
160
 41
0.9
 72
     1
 11
-120.0
 21
695.14857500000005
 31
0.0
  0
LINE
  5
7B6
  8
SIZE
  6
CONTINUOUS
 62
    30
 10
40.0
 20
93.850234999999998
 30
0.0
 11
40.0
 21
690.14857500000005
 31
0.0
  0
LINE
  5
7B7
  8
SIZE
  6
CONTINUOUS
 62
    30
 10
200.0
 20
93.850234999999998
 30
0.0
 11
200.0
 21
690.14857500000005
 31
0.0
  0
LINE
  5
7B8
  8
SIZE
  6
CONTINUOUS
 62
    30
 10
28.0
 20
670.14857500000005
 30
0.0
 11
16.0
 21
670.14857500000005
 31
0.0
  0
LINE
  5
7B9
  8
SIZE
  6
CONTINUOUS
 62
    30
 10
212.0
 20
670.14857500000005
 30
0.0
 11
224.0
 21
670.14857500000005
 31
0.0
  0
LINE
  5
7BA
  8
SIZE
  6
CONTINUOUS
 62
    30
 10
40.0
 20
670.14857500000005
 30
0.0
 11
200.0
 21
670.14857500000005
 31
0.0
  0
CIRCLE
  5
7BB
  8
SIZE
  6
CONTINUOUS
 62
    30
 10
40.0
 20
670.14857500000005
 30
0.0
 40
6.0
  0
LINE
  5
7BC
  8
SIZE
  6
CONTINUOUS
 62
    30
 10
40.0
 20
670.14857500000005
 30
0.0
 11
28.0
 21
670.14857500000005
 31
0.0
  0
CIRCLE
  5
7BD
  8
SIZE
  6
CONTINUOUS
 62
    30
 10
200.0
 20
670.14857500000005
 30
0.0
 40
6.0
  0
LINE
  5
7BE
  8
SIZE
  6
CONTINUOUS
 62
    30
 10
200.0
 20
670.14857500000005
 30
0.0
 11
212.0
 21
670.14857500000005
 31
0.0
  0
TEXT
  5
7BF
  8
SIZE
  6
CONTINUOUS
 62
    30
 10
51.428571428571452
 20
695.14857500000005
 30
0.0
 40
64.0
  1
160
 41
0.9
 72
     1
 11
120.0
 21
695.14857500000005
 31
0.0
  0
LINE
  5
7C0
  8
SIZE
  6
CONTINUOUS
 62
    30
 10
470.0
 20
-600.0
 30
0.0
 11
707.88398600000016
 21
-600.0
 31
0.0
  0
LINE
  5
7C1
  8
SIZE
  6
CONTINUOUS
 62
    30
 10
333.18186899999989
 20
-100.0
 30
0.0
 11
707.88398600000016
 21
-100.0
 31
0.0
  0
LINE
  5
7C2
  8
SIZE
  6
CONTINUOUS
 62
    30
 10
687.88398600000016
 20
-588.0
 30
0.0
 11
687.88398600000016
 21
-112.0
 31
0.0
  0
CIRCLE
  5
7C3
  8
SIZE
  6
CONTINUOUS
 62
    30
 10
687.88398600000016
 20
-600.0
 30
0.0
 40
6.0
  0
LINE
  5
7C4
  8
SIZE
  6
CONTINUOUS
 62
    30
 10
687.88398600000016
 20
-600.0
 30
0.0
 11
687.88398600000016
 21
-588.0
 31
0.0
  0
CIRCLE
  5
7C5
  8
SIZE
  6
CONTINUOUS
 62
    30
 10
687.88398600000016
 20
-100.0
 30
0.0
 40
6.0
  0
LINE
  5
7C6
  8
SIZE
  6
CONTINUOUS
 62
    30
 10
687.88398600000016
 20
-100.0
 30
0.0
 11
687.88398600000016
 21
-112.0
 31
0.0
  0
TEXT
  5
7C7
  8
SIZE
  6
CONTINUOUS
 62
    30
 10
662.88398600000016
 20
-424.05714285714282
 30
0.0
 40
64.0
  1
500
 50
90.0
 41
0.9
 72
     1
 11
662.88398600000016
 21
-350.0
 31
0.0
  0
LINE
  5
7C8
  8
SIZE
  6
CONTINUOUS
 62
    30
 10
470.0
 20
-200.0
 30
0.0
 11
839.31805099999985
 21
-200.0
 31
0.0
  0
LINE
  5
7C9
  8
SIZE
  6
CONTINUOUS
 62
    30
 10
111.0
 20
-18.0
 30
0.0
 11
839.31805099999985
 21
-18.0
 31
0.0
  0
LINE
  5
7CA
  8
SIZE
  6
CONTINUOUS
 62
    30
 10
819.31805099999985
 20
-212.0
 30
0.0
 11
819.31805099999985
 21
-224.0
 31
0.0
  0
LINE
  5
7CB
  8
SIZE
  6
CONTINUOUS
 62
    30
 10
819.31805099999985
 20
-6.0
 30
0.0
 11
819.31805099999985
 21
6.0
 31
0.0
  0
LINE
  5
7CC
  8
SIZE
  6
CONTINUOUS
 62
    30
 10
819.31805099999985
 20
-200.0
 30
0.0
 11
819.31805099999985
 21
-18.0
 31
0.0
  0
CIRCLE
  5
7CD
  8
SIZE
  6
CONTINUOUS
 62
    30
 10
819.31805099999985
 20
-200.0
 30
0.0
 40
6.0
  0
LINE
  5
7CE
  8
SIZE
  6
CONTINUOUS
 62
    30
 10
819.31805099999985
 20
-200.0
 30
0.0
 11
819.31805099999985
 21
-212.0
 31
0.0
  0
CIRCLE
  5
7CF
  8
SIZE
  6
CONTINUOUS
 62
    30
 10
819.31805099999985
 20
-18.0
 30
0.0
 40
6.0
  0
LINE
  5
7D0
  8
SIZE
  6
CONTINUOUS
 62
    30
 10
819.31805099999985
 20
-18.0
 30
0.0
 11
819.31805099999985
 21
-6.0
 31
0.0
  0
TEXT
  5
7D1
  8
SIZE
  6
CONTINUOUS
 62
    30
 10
794.31805099999985
 20
-177.5714285714285
 30
0.0
 40
64.0
  1
182
 50
90.0
 41
0.9
 72
     1
 11
794.31805099999985
 21
-109.0
 31
0.0
  0
LINE
  5
7D2
  8
SIZE
  6
CONTINUOUS
 62
    30
 10
111.0
 20
-18.0
 30
0.0
 11
839.31805099999985
 21
-18.0
 31
0.0
  0
LINE
  5
7D3
  8
SIZE
  6
CONTINUOUS
 62
    30
 10
94.0
 20
37.0
 30
0.0
 11
839.31805099999985
 21
37.0
 31
0.0
  0
LINE
  5
7D4
  8
SIZE
  6
CONTINUOUS
 62
    30
 10
819.31805099999985
 20
-30.0
 30
0.0
 11
819.31805099999985
 21
-42.0
 31
0.0
  0
LINE
  5
7D5
  8
SIZE
  6
CONTINUOUS
 62
    30
 10
819.31805099999985
 20
49.0
 30
0.0
 11
819.31805099999985
 21
61.0
 31
0.0
  0
LINE
  5
7D6
  8
SIZE
  6
CONTINUOUS
 62
    30
 10
819.31805099999985
 20
214.49688999999981
 30
0.0
 11
819.31805099999985
 21
37.0
 31
0.0
  0
TEXT
  5
7D7
  8
SIZE
  6
CONTINUOUS
 62
    30
 10
794.31805099999985
 20
96.239746571428483
 30
0.0
 40
64.0
  1
55
 50
90.0
 41
0.9
 72
     1
 11
794.31805099999985
 21
142.8683179999999
 31
0.0
  0
LINE
  5
7D8
  8
SIZE
  6
CONTINUOUS
 62
    30
 10
819.31805099999985
 20
-18.0
 30
0.0
 11
819.31805099999985
 21
37.0
 31
0.0
  0
LINE
  5
7D9
  8
SIZE
  6
CONTINUOUS
 62
    30
 10
819.31805099999985
 20
-18.0
 30
0.0
 11
819.31805099999985
 21
37.0
 31
0.0
  0
CIRCLE
  5
7DA
  8
SIZE
  6
CONTINUOUS
 62
    30
 10
819.31805099999985
 20
-18.0
 30
0.0
 40
6.0
  0
LINE
  5
7DB
  8
SIZE
  6
CONTINUOUS
 62
    30
 10
819.31805099999985
 20
-18.0
 30
0.0
 11
819.31805099999985
 21
-30.0
 31
0.0
  0
CIRCLE
  5
7DC
  8
SIZE
  6
CONTINUOUS
 62
    30
 10
819.31805099999985
 20
37.0
 30
0.0
 40
6.0
  0
LINE
  5
7DD
  8
SIZE
  6
CONTINUOUS
 62
    30
 10
819.31805099999985
 20
37.0
 30
0.0
 11
819.31805099999985
 21
49.0
 31
0.0
  0
TEXT
  5
7DE
  8
NOTE
  6
CONTINUOUS
 62
     4
 10
586.1590719999997
 20
-745.14273300000002
 30
0.0
 40
64.0
  1
AH 2-φ25
 41
0.9
  0
LINE
  5
7DF
  8
NOTE
  6
CONTINUOUS
 62
     4
 10
240.0
 20
-200.0
 30
0.0
 11
578.99159699999996
 21
-783.45752600000003
 31
0.0
  0
LINE
  5
7E0
  8
NOTE
  6
CONTINUOUS
 62
     4
 10
1045.438484
 20
-783.45752600000003
 30
0.0
 11
578.99159699999996
 21
-783.45752600000003
 31
0.0
  0
LINE
  5
7E1
  8
NOTE
  6
CONTINUOUS
 62
     4
 10
248.88584
 20
-239.00053700000001
 30
0.0
 11
240.0
 21
-200.0
 31
0.0
  0
LINE
  5
7E2
  8
NOTE
  6
CONTINUOUS
 62
     4
 10
240.0
 20
-200.0
 30
0.0
 11
267.19563099999999
 21
-229.33253499999989
 31
0.0
  0
LINE
  5
7E3
  8
SIZE
  6
CONTINUOUS
 62
    30
 10
-470.0
 20
-200.0
 30
0.0
 11
-812.51648799999964
 21
-200.0
 31
0.0
  0
LINE
  5
7E4
  8
SIZE
  6
CONTINUOUS
 62
    30
 10
-461.0
 20
-10.0
 30
0.0
 11
-812.51648799999964
 21
-10.0
 31
0.0
  0
LINE
  5
7E5
  8
SIZE
  6
CONTINUOUS
 62
    30
 10
-792.51648799999964
 20
-188.0
 30
0.0
 11
-792.51648799999964
 21
-22.0
 31
0.0
  0
CIRCLE
  5
7E6
  8
SIZE
  6
CONTINUOUS
 62
    30
 10
-792.51648799999964
 20
-200.0
 30
0.0
 40
6.0
  0
LINE
  5
7E7
  8
SIZE
  6
CONTINUOUS
 62
    30
 10
-792.51648799999964
 20
-200.0
 30
0.0
 11
-792.51648799999964
 21
-188.0
 31
0.0
  0
CIRCLE
  5
7E8
  8
SIZE
  6
CONTINUOUS
 62
    30
 10
-792.51648799999964
 20
-10.0
 30
0.0
 40
6.0
  0
LINE
  5
7E9
  8
SIZE
  6
CONTINUOUS
 62
    30
 10
-792.51648799999964
 20
-10.0
 30
0.0
 11
-792.51648799999964
 21
-22.0
 31
0.0
  0
TEXT
  5
7EA
  8
SIZE
  6
CONTINUOUS
 62
    30
 10
-817.51648799999998
 20
-173.5714285714285
 30
0.0
 40
64.0
  1
190
 50
90.0
 41
0.9
 72
     1
 11
-817.51648799999998
 21
-105.0
 31
0.0
  0
LINE
  5
7EB
  8
SIZE
  6
CONTINUOUS
 62
    30
 10
-461.0
 20
-10.0
 30
0.0
 11
-812.51648799999964
 21
-10.0
 31
0.0
  0
LINE
  5
7EC
  8
SIZE
  6
CONTINUOUS
 62
    30
 10
-294.0
 20
45.0
 30
0.0
 11
-812.51648799999964
 21
45.0
 31
0.0
  0
LINE
  5
7ED
  8
SIZE
  6
CONTINUOUS
 62
    30
 10
-792.51648799999964
 20
-22.0
 30
0.0
 11
-792.51648799999964
 21
-34.0
 31
0.0
  0
LINE
  5
7EE
  8
SIZE
  6
CONTINUOUS
 62
    30
 10
-792.51648799999964
 20
57.0
 30
0.0
 11
-792.51648799999964
 21
69.0
 31
0.0
  0
LINE
  5
7EF
  8
SIZE
  6
CONTINUOUS
 62
    30
 10
-792.51648799999964
 20
225.3498839999998
 30
0.0
 11
-792.51648799999964
 21
45.0
 31
0.0
  0
TEXT
  5
7F0
  8
SIZE
  6
CONTINUOUS
 62
    30
 10
-817.51648799999998
 20
107.09274157142821
 30
0.0
 40
64.0
  1
55
 50
90.0
 41
0.9
 72
     1
 11
-817.51648799999998
 21
153.72131299999961
 31
0.0
  0
LINE
  5
7F1
  8
SIZE
  6
CONTINUOUS
 62
    30
 10
-792.51648799999964
 20
-10.0
 30
0.0
 11
-792.51648799999964
 21
45.0
 31
0.0
  0
LINE
  5
7F2
  8
SIZE
  6
CONTINUOUS
 62
    30
 10
-792.51648799999964
 20
-10.0
 30
0.0
 11
-792.51648799999964
 21
45.0
 31
0.0
  0
CIRCLE
  5
7F3
  8
SIZE
  6
CONTINUOUS
 62
    30
 10
-792.51648799999964
 20
-10.0
 30
0.0
 40
6.0
  0
LINE
  5
7F4
  8
SIZE
  6
CONTINUOUS
 62
    30
 10
-792.51648799999964
 20
-10.0
 30
0.0
 11
-792.51648799999964
 21
-22.0
 31
0.0
  0
CIRCLE
  5
7F5
  8
SIZE
  6
CONTINUOUS
 62
    30
 10
-792.51648799999964
 20
45.0
 30
0.0
 40
6.0
  0
LINE
  5
7F6
  8
SIZE
  6
CONTINUOUS
 62
    30
 10
-792.51648799999964
 20
45.0
 30
0.0
 11
-792.51648799999964
 21
57.0
 31
0.0
  0
LINE
  5
7F7
  8
DETAIL
  6
CONTINUOUS
 62
     5
 10
-137.0
 20
-200.0
 30
0.0
 11
-137.0
 21
-70.0
 31
0.0
  0
LINE
  5
7F8
  8
DETAIL
  6
CONTINOUS
 62
     5
 10
-137.0
 20
-70.0
 30
0.0
 11
-91.0
 21
-70.0
 31
0.0
  0
LINE
  5
7F9
  8
SIZE
  6
CONTINUOUS
 62
    30
 10
91.0
 20
2.0
 30
0.0
 11
91.0
 21
484.90682199999992
 31
0.0
  0
LINE
  5
7FA
  8
SIZE
  6
CONTINUOUS
 62
    30
 10
-91.0
 20
2.0
 30
0.0
 11
-91.0
 21
484.90682199999992
 31
0.0
  0
LINE
  5
7FB
  8
SIZE
  6
CONTINUOUS
 62
    30
 10
79.0
 20
464.90682199999998
 30
0.0
 11
-79.0
 21
464.90682199999998
 31
0.0
  0
LINE
  5
7FC
  8
SIZE
  6
CONTINUOUS
 62
    30
 10
-534.970643
 20
464.90682199999998
 30
0.0
 11
-91.0
 21
464.90682199999998
 31
0.0
  0
TEXT
  5
7FD
  8
SIZE
  6
CONTINUOUS
 62
    30
 10
-513.81064257142839
 20
489.90682199999998
 30
0.0
 40
64.0
  1
□182
 41
0.9
 72
     1
 11
-408.75921399999987
 21
489.90682199999998
 31
0.0
  0
CIRCLE
  5
7FE
  8
SIZE
  6
CONTINUOUS
 62
    30
 10
91.0
 20
464.90682199999998
 30
0.0
 40
6.0
  0
LINE
  5
7FF
  8
SIZE
  6
CONTINUOUS
 62
    30
 10
91.0
 20
464.90682199999998
 30
0.0
 11
79.0
 21
464.90682199999998
 31
0.0
  0
CIRCLE
  5
800
  8
SIZE
  6
CONTINUOUS
 62
    30
 10
-91.0
 20
464.90682199999998
 30
0.0
 40
6.0
  0
LINE
  5
801
  8
SIZE
  6
CONTINUOUS
 62
    30
 10
-91.0
 20
464.90682199999998
 30
0.0
 11
-79.0
 21
464.90682199999998
 31
0.0
  0
TEXT
  5
802
  8
NOTE
  6
CONTINUOUS
 62
     4
 10
468.42846700000001
 20
478.43691299999989
 30
0.0
 40
64.0
  1
上部左側給気接続口
 41
0.9
  0
TEXT
  5
803
  8
NOTE
  6
CONTINUOUS
 62
     4
 10
-1061.897336999999
 20
268.365883
 30
0.0
 40
64.0
  1
上部右側給気接続口
 41
0.9
  0
LINE
  5
804
  8
NOTE
  6
CONTINUOUS
 62
     4
 10
-341.09203300000001
 20
238.21112999999991
 30
0.0
 11
-1065.2967550000001
 21
238.21112999999991
 31
0.0
  0
LINE
  5
805
  8
NOTE
  6
CONTINUOUS
 62
     4
 10
-341.09203300000001
 20
238.21112999999991
 30
0.0
 11
-250.6237899999999
 21
45.0
 31
0.0
  0
LINE
  5
806
  8
NOTE
  6
CONTINUOUS
 62
     4
 10
-276.38373899999982
 20
75.601061999999985
 30
0.0
 11
-250.6237899999999
 21
45.0
 31
0.0
  0
LINE
  5
807
  8
NOTE
  6
CONTINUOUS
 62
     4
 10
-250.6237899999999
 20
45.0
 30
0.0
 11
-257.63202899999987
 21
84.381271999999981
 31
0.0
  0
LINE
  5
808
  8
NOTE
  6
CONTINUOUS
 62
     4
 10
-104.685399
 20
59.501118999999989
 30
0.0
 11
-67.406483999999992
 21
45.0
 31
0.0
  0
LINE
  5
809
  8
NOTE
  6
CONTINUOUS
 62
     4
 10
-67.406483999999992
 20
45.0
 30
0.0
 11
-92.440411999999995
 21
76.197795999999983
 31
0.0
  0
LINE
  5
80A
  8
NOTE
  6
CONTINUOUS
 62
     4
 10
578.0765839999998
 20
232.76886099999999
 30
0.0
 11
1214.9206119999999
 21
232.76886099999999
 31
0.0
  0
LINE
  5
80B
  8
NOTE
  6
CONTINUOUS
 62
     4
 10
441.537015
 20
453.409491
 30
0.0
 11
1080.481376
 21
453.409491
 31
0.0
  0
LINE
  5
80C
  8
NOTE
  6
CONTINUOUS
 62
     4
 10
586.69453599999963
 20
349.98124999999987
 30
0.0
 11
1086.888132999999
 21
349.98124999999987
 31
0.0
  0
TEXT
  5
80D
  8
NOTE
  6
CONTINUOUS
 62
     4
 10
598.32651899999996
 20
370.38082200000002
 30
0.0
 40
64.0
  1
後部排気接続口
 41
0.9
  0
LINE
  5
80E
  8
NOTE
  6
CONTINUOUS
 62
     4
 10
586.69453599999963
 20
349.98124999999987
 30
0.0
 11
79.972564000000006
 21
-74.745233999999982
 31
0.0
  0
LINE
  5
80F
  8
NOTE
  6
CONTINUOUS
 62
     4
 10
441.537015
 20
453.409491
 30
0.0
 11
178.49287799999991
 21
45.0
 31
0.0
  0
LINE
  5
810
  8
NOTE
  6
CONTINUOUS
 62
     4
 10
191.09621000000001
 20
82.962560999999994
 30
0.0
 11
178.49287799999991
 21
45.0
 31
0.0
  0
LINE
  5
811
  8
NOTE
  6
CONTINUOUS
 62
     4
 10
178.49287799999991
 20
45.0
 30
0.0
 11
208.3889639999999
 21
71.574876000000003
 31
0.0
  0
LINE
  5
812
  8
NOTE
  6
CONTINUOUS
 62
     4
 10
103.5425519999999
 20
-42.427194999999983
 30
0.0
 11
79.972564000000006
 21
-74.745233999999982
 31
0.0
  0
LINE
  5
813
  8
NOTE
  6
CONTINUOUS
 62
     4
 10
79.972564000000006
 20
-74.745233999999982
 30
0.0
 11
116.543792
 21
-58.541984999999983
 31
0.0
  0
LINE
  5
816
  8
SIZE
  6
CONTINUOUS
 62
    30
 39
50.0
 10
508.14640999999989
 20
934.62615399999981
 30
0.0
 11
940.110634
 21
934.62615399999981
 31
0.0
  0
LINE
  5
817
  8
BASIS
  6
DASHDOT
 62
     6
 10
-313.18186900000001
 20
-100.0
 30
0.0
 11
-86.701954000000001
 21
-100.0
 31
0.0
  0
ARC
  5
818
  8
DETAIL
  6
PHANTOM
 62
     5
 10
-200.0
 20
-100.0
 30
0.0
 40
74.0
 50
23.916533999999999
 51
328.35895499999992
  0
LINE
  5
819
  8
SIZE
  6
CONTINUOUS
 62
    30
 10
-450.0
 20
-620.0
 30
0.0
 11
-450.0
 21
-772.77198499999975
 31
0.0
  0
LINE
  5
81A
  8
SIZE
  6
CONTINUOUS
 62
    30
 10
-470.0
 20
-200.0
 30
0.0
 11
-616.38366399999995
 21
-200.0
 31
0.0
  0
LINE
  5
81B
  8
SIZE
  6
CONTINUOUS
 62
    30
 10
-124.9381749999999
 20
-109.0
 30
0.0
 11
-616.38366399999995
 21
-109.0
 31
0.0
  0
LINE
  5
81C
  8
SIZE
  6
CONTINUOUS
 62
    30
 10
-596.38366399999995
 20
-212.0
 30
0.0
 11
-596.38366399999995
 21
-224.0
 31
0.0
  0
LINE
  5
81D
  8
SIZE
  6
CONTINUOUS
 62
    30
 10
-596.38366399999995
 20
-97.0
 30
0.0
 11
-596.38366399999995
 21
-85.0
 31
0.0
  0
LINE
  5
81E
  8
SIZE
  6
CONTINUOUS
 62
    30
 10
-596.38366399999995
 20
-200.0
 30
0.0
 11
-596.38366399999995
 21
-109.0
 31
0.0
  0
CIRCLE
  5
81F
  8
SIZE
  6
CONTINUOUS
 62
    30
 10
-596.38366399999995
 20
-200.0
 30
0.0
 40
6.0
  0
LINE
  5
820
  8
SIZE
  6
CONTINUOUS
 62
    30
 10
-596.38366399999995
 20
-200.0
 30
0.0
 11
-596.38366399999995
 21
-212.0
 31
0.0
  0
CIRCLE
  5
821
  8
SIZE
  6
CONTINUOUS
 62
    30
 10
-596.38366399999995
 20
-109.0
 30
0.0
 40
6.0
  0
LINE
  5
822
  8
SIZE
  6
CONTINUOUS
 62
    30
 10
-596.38366399999995
 20
-109.0
 30
0.0
 11
-596.38366399999995
 21
-97.0
 31
0.0
  0
TEXT
  5
823
  8
SIZE
  6
CONTINUOUS
 62
    30
 10
-621.38366399999995
 20
-188.78571428571411
 30
0.0
 40
64.0
  1
91
 50
90.0
 41
0.9
 72
     1
 11
-621.38366399999995
 21
-154.4999999999998
 31
0.0
  0
CIRCLE
  5
824
  8
DETAIL
  6
PHANTOM
 62
     5
 10
200.0
 20
-100.0
 30
0.0
 40
74.0
  0
LINE
  5
825
  8
DETAIL
  6
PHANTOM
 62
     5
 10
-101.0
 20
-35.0
 30
0.0
 11
-146.0
 21
-35.0
 31
0.0
  0
LINE
  5
826
  8
DETAIL
  6
PHANTOM
 62
     5
 10
-101.0
 20
-183.0
 30
0.0
 11
-146.0
 21
-183.0
 31
0.0
  0
LINE
  5
827
  8
DETAIL
  6
PHANTOM
 62
     5
 10
-101.0
 20
-35.0
 30
0.0
 11
-101.0
 21
-183.0
 31
0.0
  0
LINE
  5
828
  8
DETAIL
  6
PHANTOM
 62
     5
 10
-91.0
 20
-25.0
 30
0.0
 11
-101.0
 21
-35.0
 31
0.0
  0
LINE
  5
829
  8
DETAIL
  6
PHANTOM
 62
     5
 10
-91.0
 20
-193.0
 30
0.0
 11
-101.0
 21
-183.0
 31
0.0
  0
LINE
  5
82A
  8
DETAIL
  6
PHANTOM
 62
     5
 10
-146.0
 20
-35.0
 30
0.0
 11
-146.0
 21
-183.0
 31
0.0
  0
LINE
  5
82B
  8
DETAIL
  6
PHANTOM
 62
     5
 10
146.0
 20
-35.0
 30
0.0
 11
146.0
 21
-183.0
 31
0.0
  0
LINE
  5
82C
  8
DETAIL
  6
PHANTOM
 62
     5
 10
101.0
 20
-35.0
 30
0.0
 11
101.0
 21
-183.0
 31
0.0
  0
LINE
  5
82D
  8
DETAIL
  6
PHANTOM
 62
     5
 10
101.0
 20
-183.0
 30
0.0
 11
146.0
 21
-183.0
 31
0.0
  0
LINE
  5
82E
  8
DETAIL
  6
PHANTOM
 62
     5
 10
91.0
 20
-193.0
 30
0.0
 11
101.0
 21
-183.0
 31
0.0
  0
LINE
  5
82F
  8
DETAIL
  6
PHANTOM
 62
     5
 10
101.0
 20
-35.0
 30
0.0
 11
146.0
 21
-35.0
 31
0.0
  0
LINE
  5
830
  8
DETAIL
  6
PHANTOM
 62
     5
 10
91.0
 20
-25.0
 30
0.0
 11
101.0
 21
-35.0
 31
0.0
  0
LINE
  5
831
  8
SIZE
  6
CONTINUOUS
 62
    30
 10
0.0
 20
-651.940068
 30
0.0
 11
0.0
 21
-336.07568300000008
 31
0.0
  0
LINE
  5
832
  8
SIZE
  6
CONTINUOUS
 62
    30
 10
-137.0
 20
-220.0
 30
0.0
 11
-137.0
 21
-376.07568300000003
 31
0.0
  0
LINE
  5
833
  8
SIZE
  6
CONTINUOUS
 62
    30
 10
-12.0
 20
-356.07568300000008
 30
0.0
 11
-125.0
 21
-356.07568300000008
 31
0.0
  0
LINE
  5
834
  8
SIZE
  6
CONTINUOUS
 62
    30
 10
203.38874899999999
 20
-356.07568300000008
 30
0.0
 11
0.0
 21
-356.07568300000008
 31
0.0
  0
TEXT
  5
835
  8
SIZE
  6
CONTINUOUS
 62
    30
 10
41.245892428571118
 20
-331.07568300000008
 30
0.0
 40
64.0
  1
137
 41
0.9
 72
     1
 11
109.81732099999969
 21
-331.07568300000008
 31
0.0
  0
CIRCLE
  5
836
  8
SIZE
  6
CONTINUOUS
 62
    30
 10
0.0
 20
-356.07568300000008
 30
0.0
 40
6.0
  0
LINE
  5
837
  8
SIZE
  6
CONTINUOUS
 62
    30
 10
0.0
 20
-356.07568300000008
 30
0.0
 11
-12.0
 21
-356.07568300000008
 31
0.0
  0
CIRCLE
  5
838
  8
SIZE
  6
CONTINUOUS
 62
    30
 10
-137.0
 20
-356.07568300000008
 30
0.0
 40
6.0
  0
LINE
  5
839
  8
SIZE
  6
CONTINUOUS
 62
    30
 10
-137.0
 20
-356.07568300000008
 30
0.0
 11
-125.0
 21
-356.07568300000008
 31
0.0
  0
LINE
  5
83A
  8
DETAIL
  6
CONTINUOUS
 62
     5
 10
-280.0
 20
-200.0
 30
0.0
 11
-280.0
 21
-10.0
 31
0.0
  0
LINE
  5
83B
  8
DETAIL
  6
CONTINUOUS
 62
     5
 10
-274.0
 20
0.0
 30
0.0
 11
-280.0
 21
-10.0
 31
0.0
  0
LINE
  5
83C
  8
DETAIL
  6
CONTINUOUS
 62
     5
 10
-126.0
 20
0.0
 30
0.0
 11
-120.0
 21
-10.0
 31
0.0
  0
LINE
  5
83D
  8
DETAIL
  6
PHANTOM
 62
     5
 10
274.0
 20
0.0
 30
0.0
 11
280.0
 21
-10.0
 31
0.0
  0
LINE
  5
83E
  8
DETAIL
  6
PHANTOM
 62
     5
 10
126.0
 20
0.0
 30
0.0
 11
120.0
 21
-10.0
 31
0.0
  0
LINE
  5
83F
  8
SIZE
  6
CONTINUOUS
 62
    30
 10
-280.0
 20
10.0
 30
0.0
 11
-280.0
 21
954.62615400000016
 31
0.0
  0
LINE
  5
840
  8
SIZE
  6
CONTINUOUS
 62
    30
 10
120.0
 20
10.0
 30
0.0
 11
120.0
 21
954.62615400000016
 31
0.0
  0
LINE
  5
841
  8
SIZE
  6
CONTINUOUS
 62
    30
 10
-268.0
 20
934.62615399999981
 30
0.0
 11
108.0
 21
934.62615399999981
 31
0.0
  0
CIRCLE
  5
842
  8
SIZE
  6
CONTINUOUS
 62
    30
 10
-280.0
 20
934.62615399999981
 30
0.0
 40
6.0
  0
LINE
  5
843
  8
SIZE
  6
CONTINUOUS
 62
    30
 10
-280.0
 20
934.62615399999981
 30
0.0
 11
-268.0
 21
934.62615399999981
 31
0.0
  0
CIRCLE
  5
844
  8
SIZE
  6
CONTINUOUS
 62
    30
 10
120.0
 20
934.62615399999981
 30
0.0
 40
6.0
  0
LINE
  5
845
  8
SIZE
  6
CONTINUOUS
 62
    30
 10
120.0
 20
934.62615399999981
 30
0.0
 11
108.0
 21
934.62615399999981
 31
0.0
  0
TEXT
  5
846
  8
SIZE
  6
CONTINUOUS
 62
    30
 10
-154.05714285714279
 20
959.62615399999981
 30
0.0
 40
64.0
  1
400
 41
0.9
 72
     1
 11
-80.0
 21
959.62615399999981
 31
0.0
  0
LINE
  5
847
  8
SIZE
  6
CONTINUOUS
 62
    30
 10
120.0
 20
10.0
 30
0.0
 11
120.0
 21
954.62615400000016
 31
0.0
  0
LINE
  5
848
  8
SIZE
  6
CONTINUOUS
 62
    30
 10
280.0
 20
10.0
 30
0.0
 11
280.0
 21
954.62615400000016
 31
0.0
  0
LINE
  5
849
  8
SIZE
  6
CONTINUOUS
 62
    30
 10
132.0
 20
934.62615399999981
 30
0.0
 11
268.0
 21
934.62615399999981
 31
0.0
  0
LINE
  5
84A
  8
SIZE
  6
CONTINUOUS
 62
    30
 10
677.124638
 20
934.62615399999981
 30
0.0
 11
280.0
 21
934.62615399999981
 31
0.0
  0
TEXT
  5
84B
  8
SIZE
  6
CONTINUOUS
 62
    30
 10
514.98178042857148
 20
959.62615399999981
 30
0.0
 40
64.0
  1
160
 41
0.9
 72
     1
 11
583.55320900000004
 21
959.62615399999981
 31
0.0
  0
CIRCLE
  5
84C
  8
SIZE
  6
CONTINUOUS
 62
    30
 10
120.0
 20
934.62615399999981
 30
0.0
 40
6.0
  0
LINE
  5
84D
  8
SIZE
  6
CONTINUOUS
 62
    30
 10
120.0
 20
934.62615399999981
 30
0.0
 11
132.0
 21
934.62615399999981
 31
0.0
  0
CIRCLE
  5
84E
  8
SIZE
  6
CONTINUOUS
 62
    30
 10
280.0
 20
934.62615399999981
 30
0.0
 40
6.0
  0
LINE
  5
84F
  8
SIZE
  6
CONTINUOUS
 62
    30
 10
280.0
 20
934.62615399999981
 30
0.0
 11
268.0
 21
934.62615399999981
 31
0.0
  0
LINE
  5
850
  8
NOTE
  6
CONTINUOUS
 62
     4
 10
-67.406483999999992
 20
45.0
 30
0.0
 11
-341.09203300000001
 21
238.21112999999991
 31
0.0
  0
TEXT
  5
851
  8
ETC
  6
CONTINUOUS
 62
    61
 10
1071.9965490880011
 20
1066.6726414444961
 30
0.0
 40
64.0
  1
V-904KQE7_3
 41
0.9
  0
TEXT
  5
852
  8
ETC
  6
CONTINUOUS
 62
    61
 10
1067.774582088
 20
970.18181444449783
 30
0.0
 40
64.0
  1
換気扇
 41
0.9
  0
TEXT
  5
853
  8
ETC
  6
CONTINUOUS
 62
    61
 10
1210.393189023044
 20
886.40047461650522
 30
0.0
 40
50.0
  1
V-904KQE6
 41
0.9
  0
LINE
  5
854
  8
NOTE
  6
CONTINUOUS
 62
     4
 10
-192.0
 20
-220.0
 30
0.0
 11
-192.0
 21
-180.0
 31
0.0
  0
LINE
  5
855
  8
NOTE
  6
CONTINUOUS
 62
     4
 39
50.0
 10
-211.66910706457639
 20
-200.0
 30
0.0
 11
-169.09438882199979
 21
-200.0
 31
0.0
  0
CIRCLE
  5
856
  8
SIZE
  6
CONTINUOUS
 62
    30
 39
50.0
 10
-450.0
 20
-747.30637369233216
 30
0.0
 40
6.0
  0
CIRCLE
  5
857
  8
SIZE
  6
CONTINUOUS
 62
    30
 39
50.0
 10
-192.0
 20
-747.30637369233216
 30
0.0
 40
6.0
  0
LINE
  5
858
  8
SIZE
  6
CONTINUOUS
 10
-192.0
 20
-240.0
 30
0.0
 11
-192.0
 21
-767.30637369233204
 31
0.0
  0
LINE
  5
859
  8
SIZE
  6
CONTINUOUS
 10
-450.0
 20
-640.0
 30
0.0
 11
-450.0
 21
-767.30637369233204
 31
0.0
  0
LINE
  5
85A
  8
SIZE
  6
CONTINUOUS
 62
    30
 10
-192.0
 20
-747.30637369233216
 30
0.0
 11
-450.0
 21
-747.30637369233216
 31
0.0
  0
LINE
  5
85B
  8
SIZE
  6
CONTINUOUS
 62
    30
 10
-450.0
 20
-747.30637369233216
 30
0.0
 11
-660.11428571428564
 21
-747.30637369233216
 31
0.0
  0
TEXT
  5
85C
  8
SIZE
  6
CONTINUOUS
 10
-635.11428571428564
 20
-722.30637369233216
 30
0.0
 40
64.0
  1
258
 41
0.9
  0
LINE
  5
86D
  8
DETAIL
  6
CONTINUOUS
 62
     5
 39
50.0
 10
-280.0
 20
-10.0
 30
0.0
 11
-76.0
 21
-10.0
 31
0.0
  0
LINE
  5
86E
  8
DETAIL
  6
CONTINUOUS
 62
     5
 39
50.0
 10
76.0
 20
-10.0
 30
0.0
 11
120.0
 21
-10.0
 31
0.0
  0
LINE
  5
86F
  8
DETAIL
  6
CONTINUOUS
 62
     5
 39
50.0
 10
120.0
 20
-10.0
 30
0.0
 11
120.0
 21
-200.0
 31
0.0
  0
LINE
  5
870
  8
DETAIL
  6
CONTINUOUS
 62
     5
 10
435.0
 20
-200.0
 30
0.0
 11
435.0
 21
0.0
 31
0.0
  0
LINE
  5
871
  8
DETAIL
  6
CONTINUOUS
 62
     5
 10
-435.0
 20
-200.0
 30
0.0
 11
-435.0
 21
0.0
 31
0.0
  0
LINE
  5
872
  8
OUTLINE
  6
CONTINUOUS
 62
     3
 39
50.0
 10
-450.0
 20
0.0
 30
0.0
 11
-74.0
 21
0.0
 31
0.0
  0
LINE
  5
873
  8
OUTLINE
  6
CONTINUOUS
 62
     3
 39
50.0
 10
74.0
 20
0.0
 30
0.0
 11
450.0
 21
0.0
 31
0.0
  0
LINE
  5
874
  8
OUTLINE
  6
DASHED
 62
     3
 39
50.0
 10
-74.0
 20
0.0
 30
0.0
 11
74.0
 21
0.0
 31
0.0
  0
TEXT
  5
950
  8
ETC
  6
CONTINUOUS
 62
    61
 10
1210.393189023044
 20
803.55830158762694
 30
0.0
 40
50.0
  1
V-904KQE7
 41
0.9
  0
ENDSEC
  0
EOF
