  0
SECTION
  2
HEADER
  9
$ACADVER
  1
AC1009
  9
$INSBASE
 10
0.0
 20
0.0
 30
0.0
  9
$EXTMIN
 10
-1376.7791591197949
 20
-1149.3987928254051
 30
-0.0015257624927045
  9
$EXTMAX
 10
1227.6809810400939
 20
908.75244979834122
 30
50.001525995323327
  9
$LIMMIN
 10
-2970.0
 20
-2100.0
  9
$LIMMAX
 10
2970.0
 20
2100.0
  9
$ORTHOMODE
 70
     1
  9
$REGENMODE
 70
     0
  9
$FILLMODE
 70
     1
  9
$QTEXTMODE
 70
     0
  9
$MIRRTEXT
 70
     0
  9
$DRAGMODE
 70
     2
  9
$LTSCALE
 40
20.0
  9
$OSMODE
 70
    32
  9
$ATTMODE
 70
     1
  9
$TEXTSIZE
 40
64.0
  9
$TRACEWID
 40
0.05
  9
$TEXTSTYLE
  7
STANDARD
  9
$CLAYER
  8
ETC
  9
$CELTYPE
  6
CONTINUOUS
  9
$CECOLOR
 62
    30
  9
$DIMSCALE
 40
1.0
  9
$DIMASZ
 40
12.0
  9
$DIMEXO
 40
20.0
  9
$DIMDLI
 40
200.0
  9
$DIMRND
 40
0.0
  9
$DIMDLE
 40
0.0
  9
$DIMEXE
 40
20.0
  9
$DIMTP
 40
0.0
  9
$DIMTM
 40
0.0
  9
$DIMTXT
 40
64.0
  9
$DIMCEN
 40
0.09
  9
$DIMTSZ
 40
0.0
  9
$DIMTOL
 70
     0
  9
$DIMLIM
 70
     0
  9
$DIMTIH
 70
     0
  9
$DIMTOH
 70
     0
  9
$DIMSE1
 70
     0
  9
$DIMSE2
 70
     0
  9
$DIMTAD
 70
     1
  9
$DIMZIN
 70
     8
  9
$DIMBLK
  1
NONE
  9
$DIMASO
 70
     1
  9
$DIMSHO
 70
     0
  9
$DIMPOST
  1

  9
$DIMAPOST
  1

  9
$DIMALT
 70
     0
  9
$DIMALTD
 70
     2
  9
$DIMALTF
 40
25.399999999999999
  9
$DIMLFAC
 40
1.0
  9
$DIMTOFL
 70
     1
  9
$DIMTVP
 40
0.0
  9
$DIMTIX
 70
     1
  9
$DIMSOXD
 70
     0
  9
$DIMSAH
 70
     0
  9
$DIMBLK1
  1
NONE
  9
$DIMBLK2
  1
ORIGIN
  9
$DIMSTYLE
  2
STANDARD
  9
$DIMCLRD
 70
   256
  9
$DIMCLRE
 70
   256
  9
$DIMCLRT
 70
   256
  9
$DIMTFAC
 40
1.0
  9
$DIMGAP
 40
25.0
  9
$LUNITS
 70
     2
  9
$LUPREC
 70
     4
  9
$SKETCHINC
 40
0.1
  9
$FILLETRAD
 40
4.0
  9
$AUNITS
 70
     1
  9
$AUPREC
 70
     3
  9
$MENU
  1
ACAD
  9
$ELEVATION
 40
0.0
  9
$PELEVATION
 40
0.0
  9
$THICKNESS
 40
50.0
  9
$LIMCHECK
 70
     0
  9
$BLIPMODE
 70
     0
  9
$CHAMFERA
 40
0.0
  9
$CHAMFERB
 40
0.0
  9
$SKPOLY
 70
     0
  9
$TDCREATE
 40
2453095.5609012851
  9
$TDUPDATE
 40
2454743.7723499769
  9
$TDINDWG
 40
0.0499423032
  9
$TDUSRTIMER
 40
0.0499421296
  9
$USRTIMER
 70
     1
  9
$ANGBASE
 50
0.0
  9
$ANGDIR
 70
     0
  9
$PDMODE
 70
     3
  9
$PDSIZE
 40
-2.0
  9
$PLINEWID
 40
0.0
  9
$COORDS
 70
     1
  9
$SPLFRAME
 70
     0
  9
$SPLINETYPE
 70
     6
  9
$SPLINESEGS
 70
     8
  9
$ATTDIA
 70
     0
  9
$ATTREQ
 70
     1
  9
$HANDLING
 70
     1
  9
$HANDSEED
  5
CEA
  9
$SURFTAB1
 70
     6
  9
$SURFTAB2
 70
     6
  9
$SURFTYPE
 70
     6
  9
$SURFU
 70
     6
  9
$SURFV
 70
     6
  9
$UCSNAME
  2

  9
$UCSORG
 10
0.0
 20
0.0
 30
0.0
  9
$UCSXDIR
 10
1.0
 20
0.0
 30
0.0
  9
$UCSYDIR
 10
0.0
 20
1.0
 30
0.0
  9
$PUCSNAME
  2

  9
$PUCSORG
 10
0.0
 20
0.0
 30
0.0
  9
$PUCSXDIR
 10
1.0
 20
0.0
 30
0.0
  9
$PUCSYDIR
 10
0.0
 20
1.0
 30
0.0
  9
$USERI1
 70
     0
  9
$USERI2
 70
     0
  9
$USERI3
 70
     0
  9
$USERI4
 70
     0
  9
$USERI5
 70
     0
  9
$USERR1
 40
20.0
  9
$USERR2
 40
0.0
  9
$USERR3
 40
0.0
  9
$USERR4
 40
0.0
  9
$USERR5
 40
0.0
  9
$WORLDVIEW
 70
     1
  9
$SHADEDGE
 70
     3
  9
$SHADEDIF
 70
    70
  9
$TILEMODE
 70
     1
  9
$MAXACTVP
 70
    48
  9
$PLIMCHECK
 70
     0
  9
$PEXTMIN
 10
-1.0000000000000000E+020
 20
-1.0000000000000000E+020
 30
-1.0000000000000000E+020
  9
$PEXTMAX
 10
1.0000000000000000E+020
 20
1.0000000000000000E+020
 30
1.0000000000000000E+020
  9
$PLIMMIN
 10
0.0
 20
0.0
  9
$PLIMMAX
 10
12.0
 20
9.0
  9
$UNITMODE
 70
     0
  9
$VISRETAIN
 70
     0
  9
$PLINEGEN
 70
     0
  9
$PSLTSCALE
 70
     0
  0
ENDSEC
  0
SECTION
  2
TABLES
  0
TABLE
  2
VPORT
 70
     1
  0
VPORT
  2
*ACTIVE
 70
     0
 10
0.0
 20
0.0
 11
1.0
 21
1.0
 12
-74.549089039850628
 22
-120.32317151353161
 13
0.0
 23
0.0
 14
1.0
 24
1.0
 15
0.0
 25
0.0
 16
0.0
 26
0.0
 36
1.0
 17
0.0
 27
0.0
 37
0.0
 40
2075.8430871162141
 41
1.812051649928264
 42
50.0
 43
0.0
 44
0.0
 50
0.0
 51
0.0
 71
     0
 72
  1000
 73
     1
 74
     0
 75
     0
 76
     0
 77
     0
 78
     0
  0
ENDTAB
  0
TABLE
  2
LTYPE
 70
     6
  0
LTYPE
  2
CONTINUOUS
 70
     0
  3
実線
 72
    65
 73
     0
 40
0.0
  0
LTYPE
  2
PHANTOM
 70
     0
  3
Phantom ______  __  __  ______  __  __  ______
 72
    65
 73
     6
 40
2.5
 49
1.25
 49
-0.25
 49
0.25
 49
-0.25
 49
0.25
 49
-0.25
  0
LTYPE
  2
DASHDOT
 70
     0
  3
____ _ ____ _ ____ _ ____ _ ____ _ ____ _ ____
 72
    65
 73
     4
 40
5.5
 49
4.0
 49
-0.6
 49
0.3
 49
-0.6
  0
LTYPE
  2
DASHED
 70
     0
  3
-- -- -- -- -- -- -- -- -- -- -- -- -- -- --
 72
    65
 73
     2
 40
0.75
 49
0.5
 49
-0.25
  0
LTYPE
  2
CONTINOUS
 70
     0
  3
Solid line
 72
    65
 73
     0
 40
0.0
  0
ENDTAB
  0
TABLE
  2
LAYER
 70
    12
  0
LAYER
  2
0
 70
     0
 62
     7
  6
CONTINUOUS
  0
LAYER
  2
SIZE
 70
     0
 62
    30
  6
CONTINUOUS
  0
LAYER
  2
DETAIL
 70
     0
 62
     5
  6
CONTINUOUS
  0
LAYER
  2
BASIS
 70
     0
 62
     6
  6
DASHDOT
  0
LAYER
  2
OUTLINE
 70
     0
 62
     3
  6
CONTINUOUS
  0
LAYER
  2
ARRANGE
 70
     0
 62
     1
  6
CONTINUOUS
  0
LAYER
  2
DEFPOINTS
 70
     0
 62
     7
  6
CONTINUOUS
  0
LAYER
  2
ETC
 70
     0
 62
    61
  6
CONTINUOUS
  0
LAYER
  2
FIX
 70
     0
 62
    11
  6
CONTINUOUS
  0
LAYER
  2
NOTE
 70
     0
 62
     4
  6
CONTINUOUS
  0
LAYER
  2
SERVICESPACE
 70
     0
 62
     2
  6
DASHDOT
  0
LAYER
  2
SYMBOLLINE
 70
     0
 62
    15
  6
CONTINUOUS
  0
ENDTAB
  0
TABLE
  2
STYLE
 70
     3
  0
STYLE
  2
STANDARD
 70
     0
 40
64.0
 41
0.9
 50
0.0
 71
     0
 42
64.0
  3
SIMPLEX.shx
  4
BIGFONT.shx
  0
STYLE
  2
ANNOTATIVE
 70
     0
 40
0.0
 41
1.0
 50
0.0
 71
     0
 42
0.2
  3
txt
  4

  0
STYLE
  2

 70
     1
 40
0.0
 41
1.0
 50
0.0
 71
     0
 42
64.0
  3
ltypeshp.shx
  4

  0
ENDTAB
  0
TABLE
  2
VIEW
 70
     1
  0
VIEW
  2
ALL
 70
     0
 40
4282.6198079999967
 10
0.0
 20
41.309903999999989
 41
5940.0
 11
0.0
 21
0.0
 31
1.0
 12
0.0
 22
0.0
 32
0.0
 42
50.0
 43
0.0
 44
0.0
 50
0.0
 71
     0
  0
ENDTAB
  0
TABLE
  2
UCS
 70
     0
  0
ENDTAB
  0
TABLE
  2
APPID
 70
     5
  0
APPID
  2
ACAD
 70
     0
  0
APPID
  2
ACADANNOTATIVE
 70
     0
  0
APPID
  2
ACAD_MLEADERVER
 70
     0
  0
APPID
  2
AUTOCAD_POSTSCRIPT_FIGURE
 70
     0
  0
APPID
  2
ACAD_EXEMPT_FROM_CAD_STANDARDS
 70
     0
  0
ENDTAB
  0
TABLE
  2
DIMSTYLE
 70
     2
  0
DIMSTYLE
  2
STANDARD
 70
     0
  3

  4

  5

  6

  7

 40
1.0
 41
0.18
 42
0.0625
 43
0.38
 44
0.18
 45
0.0
 46
0.0
 47
0.0
 48
0.0
140
0.18
141
0.09
142
0.0
143
25.399999999999999
144
1.0
145
0.0
146
1.0
147
0.09
 71
     0
 72
     0
 73
     1
 74
     1
 75
     0
 76
     0
 77
     0
 78
     0
170
     0
171
     2
172
     0
173
     0
174
     0
175
     0
176
     7
177
     7
178
     7
  0
DIMSTYLE
  2
ANNOTATIVE
 70
     0
  3

  4

  5

  6

  7

 40
1.0
 41
0.18
 42
0.0625
 43
0.38
 44
0.18
 45
0.0
 46
0.0
 47
0.0
 48
0.0
140
0.18
141
0.09
142
0.0
143
25.399999999999999
144
1.0
145
0.0
146
1.0
147
0.09
 71
     0
 72
     0
 73
     1
 74
     1
 75
     0
 76
     0
 77
     0
 78
     0
170
     0
171
     2
172
     0
173
     0
174
     0
175
     0
176
     0
177
     0
178
     0
  0
ENDTAB
  0
ENDSEC
  0
SECTION
  2
BLOCKS
  0
BLOCK
  8
0
  2
$MODEL_SPACE
 70
     0
 10
0.0
 20
0.0
 30
0.0
  3
$MODEL_SPACE
  1

  0
ENDBLK
  5
C88
  8
0
  0
BLOCK
 67
     1
  8
0
  2
$PAPER_SPACE
 70
     0
 10
0.0
 20
0.0
 30
0.0
  3
$PAPER_SPACE
  1

  0
ENDBLK
  5
C84
 67
     1
  8
0
  0
BLOCK
  8
0
  2
DOT1
 70
     0
 10
0.0
 20
0.0
 30
0.0
  3
DOT1
  1

  0
CIRCLE
  5
A5F
  8
SIZE
  6
CONTINUOUS
 62
     7
 10
0.0
 20
0.0
 30
0.0
 40
3.0
  0
ENDBLK
  5
A60
  8
0
  0
BLOCK
  8
0
  2
_ORIGIN
 70
     0
 10
0.0
 20
0.0
 30
0.0
  3
_ORIGIN
  1

  0
CIRCLE
  5
A63
  8
0
  6
CONTINUOUS
 62
     7
 10
0.0
 20
0.0
 30
0.0
 40
0.5
  0
LINE
  5
A64
  8
0
  6
CONTINUOUS
 62
     7
 10
0.0
 20
0.0
 30
0.0
 11
-1.0
 21
0.0
 31
0.0
  0
ENDBLK
  5
A65
  8
0
  0
BLOCK
  8
0
 62
    30
  2
_NONE
 70
     0
 10
0.0
 20
0.0
 30
0.0
  3
_NONE
  1

  0
ENDBLK
  5
A68
  8
0
 62
    30
  0
BLOCK
  8
0
 62
    30
  2
_OPEN30
 70
     0
 10
0.0
 20
0.0
 30
0.0
  3
_OPEN30
  1

  0
LINE
  5
A6B
  8
0
  6
BYBLOCK
 62
     0
 10
-1.0
 20
0.26794919
 30
0.0
 11
0.0
 21
0.0
 31
0.0
  0
LINE
  5
A6C
  8
0
  6
BYBLOCK
 62
     0
 10
0.0
 20
0.0
 30
0.0
 11
-1.0
 21
-0.26794919
 31
0.0
  0
LINE
  5
A6D
  8
0
  6
BYBLOCK
 62
     0
 10
0.0
 20
0.0
 30
0.0
 11
-1.0
 21
0.0
 31
0.0
  0
ENDBLK
  5
A6E
  8
0
 62
    30
  0
BLOCK
  8
0
 62
    30
  2
*D6
 70
     1
 10
0.0
 20
0.0
 30
0.0
  3
*D6
  1

  0
LINE
  5
A71
  8
SIZE
  6
CONTINUOUS
 10
-208.0
 20
-240.0
 30
0.0
 11
-208.0
 21
-749.1102815948924
 31
0.0
  0
LINE
  5
A72
  8
SIZE
  6
CONTINUOUS
 10
-0.0000000000000012
 20
-620.0
 30
0.0
 11
-0.0000000000000091
 21
-749.1102815948924
 31
0.0
  0
LINE
  5
A73
  8
SIZE
  6
CONTINUOUS
 10
-208.0
 20
-729.11028159489229
 30
0.0
 11
-0.0000000000000079
 21
-729.11028159489229
 31
0.0
  0
TEXT
  5
A74
  8
SIZE
  6
CONTINUOUS
 10
-178.05714285714279
 20
-704.11028159489229
 30
0.0
 40
64.0
  1
208
 41
0.9
  0
POINT
  5
A75
  8
DEFPOINTS
  6
CONTINUOUS
 62
     0
 10
-208.0
 20
-220.0
 30
0.0
  0
POINT
  5
A76
  8
DEFPOINTS
  6
CONTINUOUS
 62
     0
 10
0.0
 20
-600.0
 30
0.0
  0
POINT
  5
A77
  8
DEFPOINTS
  6
CONTINUOUS
 62
     0
 10
-0.0000000000000079
 20
-729.11028159489229
 30
0.0
  0
ENDBLK
  5
A78
  8
0
 62
    30
  0
ENDSEC
  0
SECTION
  2
ENTITIES
  0
LINE
  5
A79
  8
NOTE
  6
CONTINUOUS
 62
     4
 10
-409.05012299999999
 20
-473.25241699999992
 30
0.0
 11
-208.0
 21
-200.0
 31
0.0
  0
LINE
  5
A7A
  8
SIZE
  6
CONTINUOUS
 62
    30
 10
20.0
 20
-600.0
 30
0.0
 11
752.35662699999989
 21
-600.0
 31
0.0
  0
LINE
  5
A7B
  8
SIZE
  6
CONTINUOUS
 62
    30
 10
20.0
 20
-200.0
 30
0.0
 11
752.35662699999989
 21
-200.0
 31
0.0
  0
LINE
  5
A7C
  8
SIZE
  6
CONTINUOUS
 62
    30
 10
732.356627
 20
-588.0
 30
0.0
 11
732.356627
 21
-212.0
 31
0.0
  0
TEXT
  5
A7D
  8
SIZE
  6
CONTINUOUS
 62
    30
 10
709.65642000000003
 20
-470.05714285714282
 30
0.0
 40
64.0
  1
400
 50
90.0
 41
0.9
 72
     1
 11
709.65642000000003
 21
-396.0
 31
0.0
  0
CIRCLE
  5
A7E
  8
SIZE
  6
CONTINUOUS
 62
    30
 10
732.356627
 20
-600.0
 30
0.0
 40
6.0
  0
LINE
  5
A7F
  8
SIZE
  6
CONTINUOUS
 62
    30
 10
732.356627
 20
-600.0
 30
0.0
 11
732.356627
 21
-588.0
 31
0.0
  0
CIRCLE
  5
A80
  8
SIZE
  6
CONTINUOUS
 62
    30
 10
732.356627
 20
-200.0
 30
0.0
 40
6.0
  0
LINE
  5
A81
  8
SIZE
  6
CONTINUOUS
 62
    30
 10
732.356627
 20
-200.0
 30
0.0
 11
732.356627
 21
-212.0
 31
0.0
  0
LINE
  5
A82
  8
NOTE
  6
CONTINUOUS
 62
     4
 10
-221.71871703585199
 20
-241.17194597901181
 30
0.0
 11
-208.0
 21
-200.0
 31
0.0
  0
LINE
  5
A83
  8
NOTE
  6
CONTINUOUS
 62
     4
 10
-208.0
 20
-200.0
 30
0.0
 11
-243.20448316350479
 21
-223.7216065425018
 31
0.0
  0
LINE
  5
A84
  8
NOTE
  6
CONTINUOUS
 62
     4
 10
-520.61217799999997
 20
-473.25241699999992
 30
0.0
 11
-409.05012299999999
 21
-473.25241699999992
 31
0.0
  0
TEXT
  5
A85
  8
NOTE
  6
CONTINUOUS
 62
     4
 10
-512.00994800000001
 20
-448.9473509999998
 30
0.0
 40
64.0
  1
EL
 41
0.9
  0
LINE
  5
A86
  8
BASIS
  6
DASHDOT
 62
     6
 10
-145.0
 20
80.98484999999998
 30
0.0
 11
-145.0
 21
-238.10988499999991
 31
0.0
  0
LINE
  5
A87
  8
DETAIL
  6
CONTINOUS
 62
     5
 10
-375.0
 20
0.0
 30
0.0
 11
-320.0
 21
0.0
 31
0.0
  0
LINE
  5
A88
  8
DETAIL
  6
CONTINOUS
 62
     5
 10
-464.35512499999987
 20
-200.0
 30
0.0
 11
0.0
 21
-200.0
 31
0.0
  0
LINE
  5
A89
  8
DETAIL
  6
CONTINOUS
 62
     5
 10
0.0
 20
-600.0
 30
0.0
 11
-372.95429100000001
 21
-600.0
 31
0.0
  0
LINE
  5
A8A
  8
DETAIL
  6
CONTINOUS
 62
     5
 10
0.0
 20
-600.0
 30
0.0
 11
0.0
 21
-200.0
 31
0.0
  0
ARC
  5
A8B
  8
DETAIL
  6
CONTINOUS
 62
     5
 10
-381.70782400000002
 20
50.948417999999997
 30
0.0
 40
651.00727099999995
 50
248.12243599999999
 51
270.77042999999992
  0
LINE
  5
A8C
  8
DETAIL
  6
CONTINOUS
 62
     5
 10
-646.21892800000001
 20
-459.31670100000002
 30
0.0
 11
-480.203778
 21
-211.41966899999991
 31
0.0
  0
LINE
  5
A8D
  8
DETAIL
  6
CONTINOUS
 62
     5
 10
-633.84268799999995
 20
-542.44387500000005
 30
0.0
 11
-650.0
 21
-482.14396499999998
 31
0.0
  0
ARC
  5
A8E
  8
DETAIL
  6
CONTINOUS
 62
     5
 10
-456.93892699999998
 20
-227.0
 30
0.0
 40
28.0
 50
105.358886
 51
146.19001799999981
  0
ARC
  5
A8F
  8
DETAIL
  6
CONTINOUS
 62
     5
 10
-622.95407699999976
 20
-474.89703200000002
 30
0.0
 40
28.0
 50
146.19001799999981
 51
195.0
  0
ARC
  5
A90
  8
DETAIL
  6
CONTINOUS
 62
     5
 10
-618.3878739999999
 20
-538.30277000000001
 30
0.0
 40
16.0
 50
195.0
 51
248.35695200000001
  0
LINE
  5
A91
  8
SIZE
  6
CONTINUOUS
 62
    30
 10
-300.0
 20
0.0
 30
0.0
 11
878.16542300000003
 21
0.0
 31
0.0
  0
LINE
  5
A92
  8
SIZE
  6
CONTINUOUS
 62
    30
 10
20.0
 20
-600.0
 30
0.0
 11
878.16542300000003
 21
-600.0
 31
0.0
  0
LINE
  5
A93
  8
SIZE
  6
CONTINUOUS
 62
    30
 10
858.16542299999981
 20
-12.0
 30
0.0
 11
858.16542299999981
 21
-588.0
 31
0.0
  0
TEXT
  5
A94
  8
SIZE
  6
CONTINUOUS
 62
    30
 10
833.02937399999985
 20
-374.05714285714282
 30
0.0
 40
64.0
  1
600
 50
90.0
 41
0.9
 72
     1
 11
833.02937399999985
 21
-300.0
 31
0.0
  0
CIRCLE
  5
A95
  8
SIZE
  6
CONTINUOUS
 62
    30
 10
858.16542299999981
 20
0.0
 30
0.0
 40
6.0
  0
LINE
  5
A96
  8
SIZE
  6
CONTINUOUS
 62
    30
 10
858.16542299999981
 20
0.0
 30
0.0
 11
858.16542299999981
 21
-12.0
 31
0.0
  0
CIRCLE
  5
A97
  8
SIZE
  6
CONTINUOUS
 62
    30
 10
858.16542299999981
 20
-600.0
 30
0.0
 40
6.0
  0
LINE
  5
A98
  8
SIZE
  6
CONTINUOUS
 62
    30
 10
858.16542299999981
 20
-600.0
 30
0.0
 11
858.16542299999981
 21
-588.0
 31
0.0
  0
LINE
  5
A99
  8
DETAIL
  6
CONTINOUS
 62
     5
 10
-370.0
 20
-600.0
 30
0.0
 11
-370.0
 21
-200.0
 31
0.0
  0
LINE
  5
A9A
  8
NOTE
  6
CONTINUOUS
 62
     4
 10
-227.09015856776551
 20
-200.0
 30
0.0
 11
-188.14720567923879
 21
-200.0
 31
0.0
  0
LINE
  5
A9B
  8
SIZE
  6
CONTINUOUS
 62
    30
 10
-650.0
 20
-511.91519
 30
0.0
 11
-650.0
 21
-1149.220738
 31
0.0
  0
LINE
  5
A9C
  8
SIZE
  6
CONTINUOUS
 62
    30
 10
0.0
 20
-620.0
 30
0.0
 11
0.0
 21
-1149.220738
 31
0.0
  0
LINE
  5
A9D
  8
SIZE
  6
CONTINUOUS
 62
    30
 10
-638.0
 20
-1129.220738
 30
0.0
 11
-12.0
 21
-1129.220738
 31
0.0
  0
TEXT
  5
A9E
  8
SIZE
  6
CONTINUOUS
 62
    30
 10
-399.05714285714282
 20
-1104.220738
 30
0.0
 40
64.0
  1
650
 41
0.9
 72
     1
 11
-325.0
 21
-1104.220738
 31
0.0
  0
CIRCLE
  5
A9F
  8
SIZE
  6
CONTINUOUS
 62
    30
 10
-650.0
 20
-1129.220738
 30
0.0
 40
6.0
  0
LINE
  5
AA0
  8
SIZE
  6
CONTINUOUS
 62
    30
 10
-650.0
 20
-1129.220738
 30
0.0
 11
-638.0
 21
-1129.220738
 31
0.0
  0
CIRCLE
  5
AA1
  8
SIZE
  6
CONTINUOUS
 62
    30
 10
0.0
 20
-1129.220738
 30
0.0
 40
6.0
  0
LINE
  5
AA2
  8
SIZE
  6
CONTINUOUS
 62
    30
 10
0.0
 20
-1129.220738
 30
0.0
 11
-12.0
 21
-1129.220738
 31
0.0
  0
LINE
  5
AA3
  8
NOTE
  6
CONTINUOUS
 62
     4
 10
0.0
 20
-515.0
 30
0.0
 11
0.0
 21
-475.0
 31
0.0
  0
LINE
  5
AA4
  8
NOTE
  6
CONTINUOUS
 62
     4
 10
-20.0
 20
-495.0
 30
0.0
 11
20.0
 21
-495.0
 31
0.0
  0
ARC
  5
AA5
  8
OUTLINE
  6
CONTINOUS
 62
     3
 10
-618.3878739999999
 20
-538.30277000000001
 30
0.0
 40
16.0
 50
195.0
 51
248.35695200000001
  0
ARC
  5
AA6
  8
OUTLINE
  6
CONTINOUS
 62
     3
 10
-622.95407699999976
 20
-474.89703200000002
 30
0.0
 40
28.0
 50
146.19001799999981
 51
195.0
  0
ARC
  5
AA7
  8
OUTLINE
  6
CONTINOUS
 62
     3
 10
-456.93892699999998
 20
-227.0
 30
0.0
 40
28.0
 50
105.358886
 51
146.19001799999981
  0
LINE
  5
AA8
  8
OUTLINE
  6
CONTINOUS
 62
     3
 10
-633.84268799999995
 20
-542.44387500000005
 30
0.0
 11
-650.0
 21
-482.14396499999998
 31
0.0
  0
LINE
  5
AA9
  8
OUTLINE
  6
CONTINOUS
 62
     3
 10
-646.21892800000001
 20
-459.31670100000002
 30
0.0
 11
-480.203778
 21
-211.41966899999991
 31
0.0
  0
ARC
  5
AAA
  8
OUTLINE
  6
CONTINOUS
 62
     3
 10
-381.70782400000002
 20
50.948417999999997
 30
0.0
 40
651.00727099999995
 50
248.12243599999999
 51
270.77042999999992
  0
LINE
  5
AAB
  8
OUTLINE
  6
CONTINOUS
 62
     3
 10
0.0
 20
-600.0
 30
0.0
 11
0.0
 21
-200.0
 31
0.0
  0
LINE
  5
AAC
  8
OUTLINE
  6
CONTINOUS
 62
     3
 10
0.0
 20
-600.0
 30
0.0
 11
-372.95429100000001
 21
-600.0
 31
0.0
  0
LINE
  5
AAD
  8
OUTLINE
  6
CONTINOUS
 62
     3
 10
-464.35512499999987
 20
-200.0
 30
0.0
 11
0.0
 21
-200.0
 31
0.0
  0
LINE
  5
AAE
  8
NOTE
  6
CONTINUOUS
 62
     4
 10
0.0
 20
-280.0
 30
0.0
 11
0.0
 21
-240.0
 31
0.0
  0
LINE
  5
AAF
  8
NOTE
  6
CONTINUOUS
 62
     4
 10
-20.0
 20
-260.0
 30
0.0
 11
20.0
 21
-260.0
 31
0.0
  0
CIRCLE
  5
AB0
  8
FIX
  6
CONTINUOUS
 62
    11
 10
0.0
 20
-260.0
 30
0.0
 40
4.0
  0
CIRCLE
  5
AB1
  8
FIX
  6
CONTINUOUS
 62
    11
 10
0.0
 20
-495.0
 30
0.0
 40
4.0
  0
TEXT
  5
AB2
  8
NOTE
  6
CONTINUOUS
 62
     4
 10
67.211730000000003
 20
-697.59203200000002
 30
0.0
 40
64.0
  1
4-φ8
 41
0.9
  0
LINE
  5
AB3
  8
NOTE
  6
CONTINUOUS
 62
     4
 10
310.32718199999982
 20
-729.25006599999983
 30
0.0
 11
56.525725000000001
 21
-729.25006599999983
 31
0.0
  0
LINE
  5
AB4
  8
DETAIL
  6
CONTINOUS
 62
     5
 10
-480.0
 20
-185.0
 30
0.0
 11
-440.0
 21
-185.0
 31
0.0
  0
LINE
  5
AB5
  8
DETAIL
  6
CONTINOUS
 62
     5
 10
-480.0
 20
0.0
 30
0.0
 11
-320.0
 21
0.0
 31
0.0
  0
LINE
  5
AB6
  8
DETAIL
  6
CONTINOUS
 62
     5
 10
-270.0
 20
-185.0
 30
0.0
 11
-270.0
 21
-10.0
 31
0.0
  0
LINE
  5
AB7
  8
BASIS
  6
DASHDOT
 62
     6
 10
-365.0
 20
-213.74200499999981
 30
0.0
 11
-365.0
 21
60.984850000000002
 31
0.0
  0
LINE
  5
AB8
  8
DETAIL
  6
CONTINOUS
 62
     5
 10
-480.0
 20
-185.0
 30
0.0
 11
-480.0
 21
0.0
 31
0.0
  0
LINE
  5
AB9
  8
DETAIL
  6
PHANTOM
 62
     5
 10
-439.0
 20
0.0
 30
0.0
 11
-439.0
 21
45.0
 31
0.0
  0
LINE
  5
ABA
  8
DETAIL
  6
PHANTOM
 62
     5
 10
-291.0
 20
45.0
 30
0.0
 11
-439.0
 21
45.0
 31
0.0
  0
LINE
  5
ABB
  8
DETAIL
  6
PHANTOM
 62
     5
 10
-291.0
 20
0.0
 30
0.0
 11
-291.0
 21
45.0
 31
0.0
  0
LINE
  5
ABC
  8
DETAIL
  6
CONTINOUS
 62
     5
 10
-320.0
 20
-10.0
 30
0.0
 11
-270.0
 21
-10.0
 31
0.0
  0
LINE
  5
ABD
  8
DETAIL
  6
CONTINOUS
 62
     5
 10
-450.0
 20
-185.0
 30
0.0
 11
-450.0
 21
0.0
 31
0.0
  0
LINE
  5
ABE
  8
DETAIL
  6
CONTINUOUS
 62
     5
 10
-440.0
 20
-185.0
 30
0.0
 11
-440.0
 21
-200.0
 31
0.0
  0
LINE
  5
ABF
  8
DETAIL
  6
CONTINOUS
 62
     5
 10
-320.0
 20
-200.0
 30
0.0
 11
-320.0
 21
0.0
 31
0.0
  0
LINE
  5
AC0
  8
NOTE
  6
CONTINUOUS
 62
     4
 10
-255.0
 20
-220.0
 30
0.0
 11
-255.0
 21
-180.0
 31
0.0
  0
LINE
  5
AC1
  8
NOTE
  6
CONTINUOUS
 62
     4
 10
-235.0
 20
-200.0
 30
0.0
 11
-275.0
 21
-200.0
 31
0.0
  0
CIRCLE
  5
AC2
  8
FIX
  6
CONTINUOUS
 62
    11
 10
-255.0
 20
-200.0
 30
0.0
 40
12.5
  0
LINE
  5
AC3
  8
OUTLINE
  6
CONTINOUS
 62
     3
 10
-480.0
 20
0.0
 30
0.0
 11
-320.0
 21
0.0
 31
0.0
  0
LINE
  5
AC4
  8
OUTLINE
  6
CONTINOUS
 62
     3
 10
-450.0
 20
-185.0
 30
0.0
 11
-450.0
 21
0.0
 31
0.0
  0
LINE
  5
AC5
  8
OUTLINE
  6
CONTINOUS
 62
     3
 10
-480.0
 20
-185.0
 30
0.0
 11
-480.0
 21
0.0
 31
0.0
  0
LINE
  5
AC6
  8
OUTLINE
  6
CONTINOUS
 62
     3
 10
-480.0
 20
-185.0
 30
0.0
 11
-440.0
 21
-185.0
 31
0.0
  0
LINE
  5
AC7
  8
OUTLINE
  6
CONTINUOUS
 62
     3
 10
-440.0
 20
-185.0
 30
0.0
 11
-440.0
 21
-200.0
 31
0.0
  0
LINE
  5
AC8
  8
OUTLINE
  6
CONTINOUS
 62
     3
 10
-320.0
 20
-200.0
 30
0.0
 11
-320.0
 21
0.0
 31
0.0
  0
LINE
  5
AC9
  8
SIZE
  6
CONTINUOUS
 62
    30
 10
20.0
 20
-600.0
 30
0.0
 11
629.97719400000017
 21
-600.0
 31
0.0
  0
LINE
  5
ACA
  8
SIZE
  6
CONTINUOUS
 62
    30
 10
40.0
 20
-260.0
 30
0.0
 11
629.97719400000017
 21
-260.0
 31
0.0
  0
LINE
  5
ACB
  8
SIZE
  6
CONTINUOUS
 62
    30
 10
609.97719400000005
 20
-588.0
 30
0.0
 11
609.97719400000005
 21
-272.0
 31
0.0
  0
TEXT
  5
ACC
  8
SIZE
  6
CONTINUOUS
 62
    30
 10
584.97719400000005
 20
-504.05714285714282
 30
0.0
 40
64.0
  1
340
 50
90.0
 41
0.9
 72
     1
 11
584.97719400000005
 21
-430.0
 31
0.0
  0
CIRCLE
  5
ACD
  8
SIZE
  6
CONTINUOUS
 62
    30
 10
609.97719400000005
 20
-600.0
 30
0.0
 40
6.0
  0
LINE
  5
ACE
  8
SIZE
  6
CONTINUOUS
 62
    30
 10
609.97719400000005
 20
-600.0
 30
0.0
 11
609.97719400000005
 21
-588.0
 31
0.0
  0
CIRCLE
  5
ACF
  8
SIZE
  6
CONTINUOUS
 62
    30
 10
609.97719400000005
 20
-260.0
 30
0.0
 40
6.0
  0
LINE
  5
AD0
  8
SIZE
  6
CONTINUOUS
 62
    30
 10
609.97719400000005
 20
-260.0
 30
0.0
 11
609.97719400000005
 21
-272.0
 31
0.0
  0
LINE
  5
AD1
  8
SIZE
  6
CONTINUOUS
 62
    30
 10
20.0
 20
-600.0
 30
0.0
 11
503.371128
 21
-600.0
 31
0.0
  0
LINE
  5
AD2
  8
SIZE
  6
CONTINUOUS
 62
    30
 10
40.0
 20
-495.0
 30
0.0
 11
503.371128
 21
-495.0
 31
0.0
  0
LINE
  5
AD3
  8
SIZE
  6
CONTINUOUS
 62
    30
 10
483.371128
 20
-588.0
 30
0.0
 11
483.371128
 21
-507.0
 31
0.0
  0
LINE
  5
AD4
  8
SIZE
  6
CONTINUOUS
 62
    30
 10
483.371128
 20
-814.62909100000013
 30
0.0
 11
483.371128
 21
-600.0
 31
0.0
  0
TEXT
  5
AD5
  8
SIZE
  6
CONTINUOUS
 62
    30
 10
458.371128
 20
-789.62909057142861
 30
0.0
 40
64.0
  1
105
 50
90.0
 41
0.9
 72
     1
 11
458.371128
 21
-721.05766200000005
 31
0.0
  0
CIRCLE
  5
AD6
  8
SIZE
  6
CONTINUOUS
 62
    30
 10
483.371128
 20
-600.0
 30
0.0
 40
6.0
  0
LINE
  5
AD7
  8
SIZE
  6
CONTINUOUS
 62
    30
 10
483.371128
 20
-600.0
 30
0.0
 11
483.371128
 21
-588.0
 31
0.0
  0
CIRCLE
  5
AD8
  8
SIZE
  6
CONTINUOUS
 62
    30
 10
483.371128
 20
-495.0
 30
0.0
 40
6.0
  0
LINE
  5
AD9
  8
SIZE
  6
CONTINUOUS
 62
    30
 10
483.371128
 20
-495.0
 30
0.0
 11
483.371128
 21
-507.0
 31
0.0
  0
LINE
  5
ADA
  8
SIZE
  6
CONTINUOUS
 62
    30
 10
-145.0
 20
100.9848499999997
 30
0.0
 11
-145.0
 21
623.63629899999989
 31
0.0
  0
LINE
  5
ADB
  8
SIZE
  6
CONTINUOUS
 62
    30
 10
-365.0
 20
80.98484999999998
 30
0.0
 11
-365.0
 21
623.63629899999989
 31
0.0
  0
LINE
  5
ADC
  8
SIZE
  6
CONTINUOUS
 62
    30
 10
-157.0
 20
603.63629900000001
 30
0.0
 11
-353.0
 21
603.63629900000001
 31
0.0
  0
LINE
  5
ADD
  8
SIZE
  6
CONTINUOUS
 62
    30
 10
-670.84904500000005
 20
603.63629900000001
 30
0.0
 11
-365.0
 21
603.63629900000001
 31
0.0
  0
TEXT
  5
ADE
  8
SIZE
  6
CONTINUOUS
 62
    30
 10
-645.84904485714299
 20
628.63629900000001
 30
0.0
 40
64.0
  1
220
 41
0.9
 72
     1
 11
-571.79190200000005
 21
628.63629900000001
 31
0.0
  0
CIRCLE
  5
ADF
  8
SIZE
  6
CONTINUOUS
 62
    30
 10
-145.0
 20
603.63629900000001
 30
0.0
 40
6.0
  0
LINE
  5
AE0
  8
SIZE
  6
CONTINUOUS
 62
    30
 10
-145.0
 20
603.63629900000001
 30
0.0
 11
-157.0
 21
603.63629900000001
 31
0.0
  0
CIRCLE
  5
AE1
  8
SIZE
  6
CONTINUOUS
 62
    30
 10
-365.0
 20
603.63629900000001
 30
0.0
 40
6.0
  0
LINE
  5
AE2
  8
SIZE
  6
CONTINUOUS
 62
    30
 10
-365.0
 20
603.63629900000001
 30
0.0
 11
-353.0
 21
603.63629900000001
 31
0.0
  0
LINE
  5
AE3
  8
SIZE
  6
CONTINUOUS
 62
    30
 10
-270.0
 20
10.0
 30
0.0
 11
-270.0
 21
715.76379799999995
 31
0.0
  0
LINE
  5
AE4
  8
SIZE
  6
CONTINUOUS
 62
    30
 10
-12.0
 20
695.76379800000018
 30
0.0
 11
-258.0
 21
695.76379800000018
 31
0.0
  0
TEXT
  5
AE5
  8
SIZE
  6
CONTINUOUS
 62
    30
 10
-209.05714285714291
 20
722.85356300000001
 30
0.0
 40
64.0
  1
270
 41
0.9
 72
     1
 11
-135.0
 21
722.85356300000001
 31
0.0
  0
CIRCLE
  5
AE6
  8
SIZE
  6
CONTINUOUS
 62
    30
 10
0.0
 20
695.76379800000018
 30
0.0
 40
6.0
  0
LINE
  5
AE7
  8
SIZE
  6
CONTINUOUS
 62
    30
 10
0.0
 20
695.76379800000018
 30
0.0
 11
-12.0
 21
695.76379800000018
 31
0.0
  0
CIRCLE
  5
AE8
  8
SIZE
  6
CONTINUOUS
 62
    30
 10
-270.0
 20
695.76379800000018
 30
0.0
 40
6.0
  0
LINE
  5
AE9
  8
SIZE
  6
CONTINUOUS
 62
    30
 10
-270.0
 20
695.76379800000018
 30
0.0
 11
-258.0
 21
695.76379800000018
 31
0.0
  0
LINE
  5
AEA
  8
SIZE
  6
CONTINUOUS
 62
    30
 10
-480.0
 20
20.0
 30
0.0
 11
-480.0
 21
715.76379799999995
 31
0.0
  0
LINE
  5
AEB
  8
SIZE
  6
CONTINUOUS
 62
    30
 10
-320.0
 20
20.0
 30
0.0
 11
-320.0
 21
715.76379799999995
 31
0.0
  0
LINE
  5
AEC
  8
SIZE
  6
CONTINUOUS
 62
    30
 10
-468.0
 20
695.76379800000018
 30
0.0
 11
-332.0
 21
695.76379800000018
 31
0.0
  0
TEXT
  5
AED
  8
SIZE
  6
CONTINUOUS
 62
    30
 10
-468.5714285714285
 20
722.85356300000001
 30
0.0
 40
64.0
  1
160
 41
0.9
 72
     1
 11
-400.0
 21
722.85356300000001
 31
0.0
  0
CIRCLE
  5
AEE
  8
SIZE
  6
CONTINUOUS
 62
    30
 10
-480.0
 20
695.76379800000018
 30
0.0
 40
6.0
  0
LINE
  5
AEF
  8
SIZE
  6
CONTINUOUS
 62
    30
 10
-480.0
 20
695.76379800000018
 30
0.0
 11
-468.0
 21
695.76379800000018
 31
0.0
  0
CIRCLE
  5
AF0
  8
SIZE
  6
CONTINUOUS
 62
    30
 10
-320.0
 20
695.76379800000018
 30
0.0
 40
6.0
  0
LINE
  5
AF1
  8
SIZE
  6
CONTINUOUS
 62
    30
 10
-320.0
 20
695.76379800000018
 30
0.0
 11
-332.0
 21
695.76379800000018
 31
0.0
  0
LINE
  5
AF2
  8
SIZE
  6
CONTINUOUS
 62
    30
 10
-480.0
 20
20.0
 30
0.0
 11
-480.0
 21
837.71275400000002
 31
0.0
  0
LINE
  5
AF3
  8
SIZE
  6
CONTINUOUS
 62
    30
 10
-12.0
 20
817.71275400000002
 30
0.0
 11
-468.0
 21
817.71275400000002
 31
0.0
  0
TEXT
  5
AF4
  8
SIZE
  6
CONTINUOUS
 62
    30
 10
-314.05714285714282
 20
844.465733
 30
0.0
 40
64.0
  1
480
 41
0.9
 72
     1
 11
-240.0
 21
844.465733
 31
0.0
  0
CIRCLE
  5
AF5
  8
SIZE
  6
CONTINUOUS
 62
    30
 10
0.0
 20
817.71275400000002
 30
0.0
 40
6.0
  0
LINE
  5
AF6
  8
SIZE
  6
CONTINUOUS
 62
    30
 10
0.0
 20
817.71275400000002
 30
0.0
 11
-12.0
 21
817.71275400000002
 31
0.0
  0
CIRCLE
  5
AF7
  8
SIZE
  6
CONTINUOUS
 62
    30
 10
-480.0
 20
817.71275400000002
 30
0.0
 40
6.0
  0
LINE
  5
AF8
  8
SIZE
  6
CONTINUOUS
 62
    30
 10
-480.0
 20
817.71275400000002
 30
0.0
 11
-468.0
 21
817.71275400000002
 31
0.0
  0
LINE
  5
AF9
  8
SIZE
  6
CONTINUOUS
 62
    30
 10
-2.0
 20
603.63629900000001
 30
0.0
 11
208.555767
 21
603.63629900000001
 31
0.0
  0
LINE
  5
AFA
  8
NOTE
  6
CONTINUOUS
 62
     4
 10
0.0
 20
-495.0
 30
0.0
 11
56.525725000000001
 21
-729.25006599999983
 31
0.0
  0
LINE
  5
AFB
  8
NOTE
  6
CONTINUOUS
 62
     4
 10
20.324082000000001
 20
-529.45187499999986
 30
0.0
 11
0.0
 21
-495.0
 31
0.0
  0
LINE
  5
AFC
  8
NOTE
  6
CONTINUOUS
 62
     4
 10
0.0
 20
-495.0
 30
0.0
 11
0.375234
 21
-534.99824000000001
 31
0.0
  0
LINE
  5
AFD
  8
NOTE
  6
CONTINUOUS
 62
     4
 10
-255.0
 20
-200.0
 30
0.0
 11
-611.65360999999984
 21
-358.656093
 31
0.0
  0
LINE
  5
AFE
  8
NOTE
  6
CONTINUOUS
 62
     4
 10
-286.5005779999999
 20
-224.651848
 30
0.0
 11
-255.0
 21
-200.0
 31
0.0
  0
LINE
  5
AFF
  8
NOTE
  6
CONTINUOUS
 62
     4
 10
-255.0
 20
-200.0
 30
0.0
 11
-294.60622499999999
 21
-205.598837
 31
0.0
  0
TEXT
  5
B00
  8
NOTE
  6
CONTINUOUS
 62
     4
 10
-1049.9870339999991
 20
-330.71655099999992
 30
0.0
 40
64.0
  1
AH 2-φ25
 41
0.9
  0
LINE
  5
B01
  8
NOTE
  6
CONTINUOUS
 62
     4
 10
-611.65360999999984
 20
-358.656093
 30
0.0
 11
-1061.9276199999999
 21
-358.656093
 31
0.0
  0
LINE
  5
B02
  8
SIZE
  6
CONTINUOUS
 62
    30
 10
-484.35512499999987
 20
-200.0
 30
0.0
 11
-1307.555284
 21
-200.0
 31
0.0
  0
LINE
  5
B03
  8
SIZE
  6
CONTINUOUS
 62
    30
 10
-500.0
 20
-185.0
 30
0.0
 11
-1307.555284
 21
-185.0
 31
0.0
  0
LINE
  5
B04
  8
SIZE
  6
CONTINUOUS
 62
    30
 10
-1287.555284
 20
-212.0
 30
0.0
 11
-1287.555284
 21
-224.0
 31
0.0
  0
LINE
  5
B05
  8
SIZE
  6
CONTINUOUS
 62
    30
 10
-1287.555284
 20
-173.0
 30
0.0
 11
-1287.555284
 21
-161.0
 31
0.0
  0
LINE
  5
B06
  8
SIZE
  6
CONTINUOUS
 62
    30
 10
-1287.555284
 20
-378.68744800000002
 30
0.0
 11
-1287.555284
 21
-200.0
 31
0.0
  0
TEXT
  5
B07
  8
SIZE
  6
CONTINUOUS
 62
    30
 10
-1312.555284
 20
-353.68744714285691
 30
0.0
 40
64.0
  1
15
 50
90.0
 41
0.9
 72
     1
 11
-1312.555284
 21
-312.5445899999998
 31
0.0
  0
LINE
  5
B08
  8
SIZE
  6
CONTINUOUS
 62
    30
 10
-1287.555284
 20
-200.0
 30
0.0
 11
-1287.555284
 21
-185.0
 31
0.0
  0
LINE
  5
B09
  8
SIZE
  6
CONTINUOUS
 62
    30
 10
-1287.555284
 20
-200.0
 30
0.0
 11
-1287.555284
 21
-185.0
 31
0.0
  0
CIRCLE
  5
B0A
  8
SIZE
  6
CONTINUOUS
 62
    30
 10
-1287.555284
 20
-200.0
 30
0.0
 40
6.0
  0
LINE
  5
B0B
  8
SIZE
  6
CONTINUOUS
 62
    30
 10
-1287.555284
 20
-200.0
 30
0.0
 11
-1287.555284
 21
-212.0
 31
0.0
  0
CIRCLE
  5
B0C
  8
SIZE
  6
CONTINUOUS
 62
    30
 10
-1287.555284
 20
-185.0
 30
0.0
 40
6.0
  0
LINE
  5
B0D
  8
SIZE
  6
CONTINUOUS
 62
    30
 10
-1287.555284
 20
-185.0
 30
0.0
 11
-1287.555284
 21
-173.0
 31
0.0
  0
LINE
  5
B0E
  8
SIZE
  6
CONTINUOUS
 62
    30
 10
-500.0
 20
-185.0
 30
0.0
 11
-1307.555284
 21
-185.0
 31
0.0
  0
LINE
  5
B0F
  8
SIZE
  6
CONTINUOUS
 62
    30
 10
-500.0
 20
0.0
 30
0.0
 11
-1307.555284
 21
0.0
 31
0.0
  0
LINE
  5
B10
  8
SIZE
  6
CONTINUOUS
 62
    30
 10
-1287.555284
 20
-173.0
 30
0.0
 11
-1287.555284
 21
-12.0
 31
0.0
  0
TEXT
  5
B11
  8
SIZE
  6
CONTINUOUS
 62
    30
 10
-1312.239601
 20
-161.0714285714285
 30
0.0
 40
64.0
  1
185
 50
90.0
 41
0.9
 72
     1
 11
-1312.239601
 21
-92.5
 31
0.0
  0
CIRCLE
  5
B12
  8
SIZE
  6
CONTINUOUS
 62
    30
 10
-1287.555284
 20
-185.0
 30
0.0
 40
6.0
  0
LINE
  5
B13
  8
SIZE
  6
CONTINUOUS
 62
    30
 10
-1287.555284
 20
-185.0
 30
0.0
 11
-1287.555284
 21
-173.0
 31
0.0
  0
CIRCLE
  5
B14
  8
SIZE
  6
CONTINUOUS
 62
    30
 10
-1287.555284
 20
0.0
 30
0.0
 40
6.0
  0
LINE
  5
B15
  8
SIZE
  6
CONTINUOUS
 62
    30
 10
-1287.555284
 20
0.0
 30
0.0
 11
-1287.555284
 21
-12.0
 31
0.0
  0
LINE
  5
B16
  8
SIZE
  6
CONTINUOUS
 62
    30
 10
-484.35512499999987
 20
-200.0
 30
0.0
 11
-1168.6687910000001
 21
-200.0
 31
0.0
  0
LINE
  5
B17
  8
SIZE
  6
CONTINUOUS
 62
    30
 10
-1148.6687910000001
 20
-188.0
 30
0.0
 11
-1148.6687910000001
 21
-22.0
 31
0.0
  0
TEXT
  5
B18
  8
SIZE
  6
CONTINUOUS
 62
    30
 10
-1175.4450340000001
 20
-173.5714285714285
 30
0.0
 40
64.0
  1
190
 50
90.0
 41
0.9
 72
     1
 11
-1175.4450340000001
 21
-105.0
 31
0.0
  0
CIRCLE
  5
B19
  8
SIZE
  6
CONTINUOUS
 62
    30
 10
-1148.6687910000001
 20
-200.0
 30
0.0
 40
6.0
  0
LINE
  5
B1A
  8
SIZE
  6
CONTINUOUS
 62
    30
 10
-1148.6687910000001
 20
-200.0
 30
0.0
 11
-1148.6687910000001
 21
-188.0
 31
0.0
  0
CIRCLE
  5
B1B
  8
SIZE
  6
CONTINUOUS
 62
    30
 10
-1148.6687910000001
 20
-10.0
 30
0.0
 40
6.0
  0
LINE
  5
B1C
  8
SIZE
  6
CONTINUOUS
 62
    30
 10
-1148.6687910000001
 20
-10.0
 30
0.0
 11
-1148.6687910000001
 21
-22.0
 31
0.0
  0
LINE
  5
B1D
  8
SIZE
  6
CONTINUOUS
 62
    30
 10
-459.0
 20
45.0
 30
0.0
 11
-1168.6687910000001
 21
45.0
 31
0.0
  0
LINE
  5
B1E
  8
SIZE
  6
CONTINUOUS
 62
    30
 10
-1148.6687910000001
 20
-22.0
 30
0.0
 11
-1148.6687910000001
 21
-34.0
 31
0.0
  0
LINE
  5
B1F
  8
SIZE
  6
CONTINUOUS
 62
    30
 10
-1148.6687910000001
 20
57.0
 30
0.0
 11
-1148.6687910000001
 21
69.0
 31
0.0
  0
LINE
  5
B20
  8
SIZE
  6
CONTINUOUS
 62
    30
 10
-1148.6687910000001
 20
220.41145800000001
 30
0.0
 11
-1148.6687910000001
 21
45.0
 31
0.0
  0
TEXT
  5
B21
  8
SIZE
  6
CONTINUOUS
 62
    30
 10
-1173.6687910000001
 20
102.1543145714286
 30
0.0
 40
64.0
  1
55
 50
90.0
 41
0.9
 72
     1
 11
-1173.6687910000001
 21
148.78288599999999
 31
0.0
  0
LINE
  5
B22
  8
SIZE
  6
CONTINUOUS
 62
    30
 10
-1148.6687910000001
 20
-10.0
 30
0.0
 11
-1148.6687910000001
 21
45.0
 31
0.0
  0
LINE
  5
B23
  8
SIZE
  6
CONTINUOUS
 62
    30
 10
-1148.6687910000001
 20
-10.0
 30
0.0
 11
-1148.6687910000001
 21
45.0
 31
0.0
  0
CIRCLE
  5
B24
  8
SIZE
  6
CONTINUOUS
 62
    30
 10
-1148.6687910000001
 20
-10.0
 30
0.0
 40
6.0
  0
LINE
  5
B25
  8
SIZE
  6
CONTINUOUS
 62
    30
 10
-1148.6687910000001
 20
-10.0
 30
0.0
 11
-1148.6687910000001
 21
-22.0
 31
0.0
  0
CIRCLE
  5
B26
  8
SIZE
  6
CONTINUOUS
 62
    30
 10
-1148.6687910000001
 20
45.0
 30
0.0
 40
6.0
  0
LINE
  5
B27
  8
SIZE
  6
CONTINUOUS
 62
    30
 10
-1148.6687910000001
 20
45.0
 30
0.0
 11
-1148.6687910000001
 21
57.0
 31
0.0
  0
TEXT
  5
B28
  8
NOTE
  6
CONTINUOUS
 62
     4
 10
-131.526399
 20
392.04280599999993
 30
0.0
 40
64.0
  1
ダクト接続口可動寸法
 41
0.9
  0
POINT
  5
B29
  8
ARRANGE
  6
CONTINUOUS
 62
     1
 10
0.0
 20
0.0
 30
0.0
  0
CIRCLE
  5
B2A
  8
ARRANGE
  6
CONTINUOUS
 62
     1
 10
0.0
 20
0.0
 30
0.0
 40
40.0
  0
LINE
  5
B2B
  8
DETAIL
  6
CONTINUOUS
 62
     5
 10
-270.0
 20
-185.0
 30
0.0
 11
-291.0
 21
-200.0
 31
0.0
  0
TEXT
  5
B2C
  8
NOTE
  6
CONTINUOUS
 62
     4
 10
-416.04554000000002
 20
69.260340999999997
 30
0.0
 40
64.0
  1
OA
 41
0.9
  0
TEXT
  5
B2D
  8
NOTE
  6
CONTINUOUS
 62
     4
 10
-188.982314
 20
57.407893000000008
 30
0.0
 40
64.0
  1
EA
 41
0.9
  0
LINE
  5
B2E
  8
BASIS
  6
DASHDOT
 62
     6
 10
-246.44969499999999
 20
-100.0
 30
0.0
 11
-506.09789499999988
 21
-100.0
 31
0.0
  0
CIRCLE
  5
B2F
  8
DETAIL
  6
PHANTOM
 62
     5
 10
-365.0
 20
-100.0
 30
0.0
 40
80.0
  0
LINE
  5
B30
  8
SIZE
  6
CONTINUOUS
 62
    30
 10
-392.95429100000001
 20
-600.0
 30
0.0
 11
-1102.426981999999
 21
-600.0
 31
0.0
  0
LINE
  5
B31
  8
SIZE
  6
CONTINUOUS
 62
    30
 10
-526.09789499999999
 20
-100.0
 30
0.0
 11
-1102.426981999999
 21
-100.0
 31
0.0
  0
LINE
  5
B32
  8
SIZE
  6
CONTINUOUS
 62
    30
 10
-1082.426982
 20
-588.0
 30
0.0
 11
-1082.426982
 21
-112.0
 31
0.0
  0
TEXT
  5
B33
  8
SIZE
  6
CONTINUOUS
 62
    30
 10
-1108.182992
 20
-422.05474485714268
 30
0.0
 40
64.0
  1
500
 50
90.0
 41
0.9
 72
     1
 11
-1108.182992
 21
-347.99760199999992
 31
0.0
  0
CIRCLE
  5
B34
  8
SIZE
  6
CONTINUOUS
 62
    30
 10
-1082.426982
 20
-600.0
 30
0.0
 40
6.0
  0
LINE
  5
B35
  8
SIZE
  6
CONTINUOUS
 62
    30
 10
-1082.426982
 20
-600.0
 30
0.0
 11
-1082.426982
 21
-588.0
 31
0.0
  0
CIRCLE
  5
B36
  8
SIZE
  6
CONTINUOUS
 62
    30
 10
-1082.426982
 20
-100.0
 30
0.0
 40
6.0
  0
LINE
  5
B37
  8
SIZE
  6
CONTINUOUS
 62
    30
 10
-1082.426982
 20
-100.0
 30
0.0
 11
-1082.426982
 21
-112.0
 31
0.0
  0
TEXT
  5
B38
  8
NOTE
  6
CONTINUOUS
 62
     4
 10
-1195.5903370000001
 20
458.34375699999998
 30
0.0
 40
64.0
  1
上部右側給気接続口
 41
0.9
  0
LINE
  5
B39
  8
NOTE
  6
CONTINUOUS
 62
     4
 10
-583.05680800000005
 20
430.46659799999998
 30
0.0
 11
-1201.0559559999999
 21
430.46659799999998
 31
0.0
  0
LINE
  5
B3A
  8
SIZE
  6
CONTINUOUS
 62
    30
 10
-139.0
 20
78.529285999999999
 30
0.0
 11
-139.0
 21
494.03518899999989
 31
0.0
  0
LINE
  5
B3B
  8
SIZE
  6
CONTINUOUS
 62
    30
 10
-151.0
 20
78.529285999999999
 30
0.0
 11
-151.0
 21
494.03518899999989
 31
0.0
  0
LINE
  5
B3C
  8
SIZE
  6
CONTINUOUS
 62
    30
 10
-127.0
 20
474.03518899999989
 30
0.0
 11
-115.0
 21
474.03518899999989
 31
0.0
  0
LINE
  5
B3D
  8
SIZE
  6
CONTINUOUS
 62
    30
 10
-163.0
 20
474.03518899999989
 30
0.0
 11
-175.0
 21
474.03518899999989
 31
0.0
  0
LINE
  5
B3E
  8
SIZE
  6
CONTINUOUS
 62
    30
 10
291.30750699999999
 20
474.03518899999989
 30
0.0
 11
-139.0
 21
474.03518899999989
 31
0.0
  0
TEXT
  5
B3F
  8
SIZE
  6
CONTINUOUS
 62
    30
 10
184.0217928571428
 20
499.03518899999989
 30
0.0
 40
64.0
  1
12
 41
0.9
 72
     1
 11
225.16464999999999
 21
499.03518899999989
 31
0.0
  0
LINE
  5
B40
  8
SIZE
  6
CONTINUOUS
 62
    30
 10
-139.0
 20
474.03518899999989
 30
0.0
 11
-151.0
 21
474.03518899999989
 31
0.0
  0
LINE
  5
B41
  8
SIZE
  6
CONTINUOUS
 62
    30
 10
-139.0
 20
474.03518899999989
 30
0.0
 11
-151.0
 21
474.03518899999989
 31
0.0
  0
CIRCLE
  5
B42
  8
SIZE
  6
CONTINUOUS
 62
    30
 10
-139.0
 20
474.03518899999989
 30
0.0
 40
6.0
  0
LINE
  5
B43
  8
SIZE
  6
CONTINUOUS
 62
    30
 10
-139.0
 20
474.03518899999989
 30
0.0
 11
-127.0
 21
474.03518899999989
 31
0.0
  0
CIRCLE
  5
B44
  8
SIZE
  6
CONTINUOUS
 62
    30
 10
-151.0
 20
474.03518899999989
 30
0.0
 40
6.0
  0
LINE
  5
B45
  8
SIZE
  6
CONTINUOUS
 62
    30
 10
-151.0
 20
474.03518899999989
 30
0.0
 11
-163.0
 21
474.03518899999989
 31
0.0
  0
LINE
  5
B46
  8
SIZE
  6
CONTINUOUS
 62
    30
 10
-145.0
 20
100.9848499999997
 30
0.0
 11
-145.0
 21
623.63629899999989
 31
0.0
  0
LINE
  5
B47
  8
SIZE
  6
CONTINUOUS
 62
    30
 10
-12.0
 20
603.63629900000001
 30
0.0
 11
-133.0
 21
603.63629900000001
 31
0.0
  0
LINE
  5
B48
  8
SIZE
  6
CONTINUOUS
 62
    30
 10
208.95542499999991
 20
603.63629900000001
 30
0.0
 11
0.0
 21
603.63629900000001
 31
0.0
  0
TEXT
  5
B49
  8
SIZE
  6
CONTINUOUS
 62
    30
 10
46.812567428571342
 20
628.63629900000001
 30
0.0
 40
64.0
  1
145
 41
0.9
 72
     1
 11
115.3839959999999
 21
628.63629900000001
 31
0.0
  0
CIRCLE
  5
B4A
  8
SIZE
  6
CONTINUOUS
 62
    30
 10
0.0
 20
603.63629900000001
 30
0.0
 40
6.0
  0
LINE
  5
B4B
  8
SIZE
  6
CONTINUOUS
 62
    30
 10
0.0
 20
603.63629900000001
 30
0.0
 11
-12.0
 21
603.63629900000001
 31
0.0
  0
CIRCLE
  5
B4C
  8
SIZE
  6
CONTINUOUS
 62
    30
 10
-145.0
 20
603.63629900000001
 30
0.0
 40
6.0
  0
LINE
  5
B4D
  8
SIZE
  6
CONTINUOUS
 62
    30
 10
-145.0
 20
603.63629900000001
 30
0.0
 11
-133.0
 21
603.63629900000001
 31
0.0
  0
LINE
  5
B4E
  8
NOTE
  6
CONTINUOUS
 62
     4
 10
-416.85737799999998
 20
45.0
 30
0.0
 11
-583.05680800000005
 21
430.46659799999998
 31
0.0
  0
LINE
  5
B4F
  8
NOTE
  6
CONTINUOUS
 62
     4
 10
-442.47647699999987
 20
75.719077999999982
 30
0.0
 11
-416.85737799999998
 21
45.0
 31
0.0
  0
LINE
  5
B50
  8
NOTE
  6
CONTINUOUS
 62
     4
 10
-416.85737799999998
 20
45.0
 30
0.0
 11
-423.68462899999992
 21
84.413051999999979
 31
0.0
  0
LINE
  5
B51
  8
DETAIL
  6
CONTINUOUS
 62
     5
 10
-236.0
 20
-200.0
 30
0.0
 11
-236.0
 21
-18.0
 31
0.0
  0
LINE
  5
B52
  8
DETAIL
  6
CONTINUOUS
 62
     5
 10
-54.0
 20
-18.0
 30
0.0
 11
-236.0
 21
-18.0
 31
0.0
  0
LINE
  5
B53
  8
DETAIL
  6
CONTINUOUS
 62
     5
 10
-54.0
 20
-200.0
 30
0.0
 11
-54.0
 21
-18.0
 31
0.0
  0
LINE
  5
B54
  8
DETAIL
  6
CONTINUOUS
 62
     5
 10
-61.0
 20
-18.0
 30
0.0
 11
-71.0
 21
-8.0
 31
0.0
  0
LINE
  5
B55
  8
DETAIL
  6
CONTINUOUS
 62
     5
 10
-71.0
 20
37.0
 30
0.0
 11
-219.0
 21
37.0
 31
0.0
  0
LINE
  5
B56
  8
DETAIL
  6
CONTINUOUS
 62
     5
 10
-71.0
 20
-8.0
 30
0.0
 11
-219.0
 21
-8.0
 31
0.0
  0
LINE
  5
B57
  8
DETAIL
  6
CONTINUOUS
 62
     5
 10
-219.0
 20
-8.0
 30
0.0
 11
-219.0
 21
37.0
 31
0.0
  0
LINE
  5
B58
  8
DETAIL
  6
CONTINUOUS
 62
     5
 10
-71.0
 20
-8.0
 30
0.0
 11
-71.0
 21
37.0
 31
0.0
  0
LINE
  5
B59
  8
BASIS
  6
DASHDOT
 62
     6
 10
-139.0
 20
-219.31054700000001
 30
0.0
 11
-139.0
 21
58.529285999999999
 31
0.0
  0
LINE
  5
B5A
  8
BASIS
  6
DASHDOT
 62
     6
 10
-151.0
 20
-219.31054700000001
 30
0.0
 11
-151.0
 21
58.529285999999999
 31
0.0
  0
LINE
  5
B5B
  8
SIZE
  6
CONTINUOUS
 62
    30
 10
20.0
 20
-200.0
 30
0.0
 11
752.35662699999989
 21
-200.0
 31
0.0
  0
LINE
  5
B5C
  8
SIZE
  6
CONTINUOUS
 62
    30
 10
-34.0
 20
-18.0
 30
0.0
 11
752.35662699999989
 21
-18.0
 31
0.0
  0
LINE
  5
B5D
  8
SIZE
  6
CONTINUOUS
 62
    30
 10
732.356627
 20
-212.0
 30
0.0
 11
732.356627
 21
-224.0
 31
0.0
  0
LINE
  5
B5E
  8
SIZE
  6
CONTINUOUS
 62
    30
 10
732.356627
 20
-6.0
 30
0.0
 11
732.356627
 21
6.0
 31
0.0
  0
LINE
  5
B5F
  8
SIZE
  6
CONTINUOUS
 62
    30
 10
732.356627
 20
-200.0
 30
0.0
 11
732.356627
 21
-18.0
 31
0.0
  0
CIRCLE
  5
B60
  8
SIZE
  6
CONTINUOUS
 62
    30
 10
732.356627
 20
-200.0
 30
0.0
 40
6.0
  0
LINE
  5
B61
  8
SIZE
  6
CONTINUOUS
 62
    30
 10
732.356627
 20
-200.0
 30
0.0
 11
732.356627
 21
-212.0
 31
0.0
  0
CIRCLE
  5
B62
  8
SIZE
  6
CONTINUOUS
 62
    30
 10
732.356627
 20
-18.0
 30
0.0
 40
6.0
  0
LINE
  5
B63
  8
SIZE
  6
CONTINUOUS
 62
    30
 10
732.356627
 20
-18.0
 30
0.0
 11
732.356627
 21
-6.0
 31
0.0
  0
TEXT
  5
B64
  8
SIZE
  6
CONTINUOUS
 62
    30
 10
707.356627
 20
-177.5714285714285
 30
0.0
 40
64.0
  1
182
 50
90.0
 41
0.9
 72
     1
 11
707.356627
 21
-109.0
 31
0.0
  0
LINE
  5
B65
  8
SIZE
  6
CONTINUOUS
 62
    30
 10
-34.0
 20
-18.0
 30
0.0
 11
752.35662699999989
 21
-18.0
 31
0.0
  0
LINE
  5
B66
  8
SIZE
  6
CONTINUOUS
 62
    30
 10
-51.0
 20
37.0
 30
0.0
 11
752.35662699999989
 21
37.0
 31
0.0
  0
LINE
  5
B67
  8
SIZE
  6
CONTINUOUS
 62
    30
 10
732.356627
 20
-30.0
 30
0.0
 11
732.356627
 21
-42.0
 31
0.0
  0
LINE
  5
B68
  8
SIZE
  6
CONTINUOUS
 62
    30
 10
732.356627
 20
49.0
 30
0.0
 11
732.356627
 21
61.0
 31
0.0
  0
LINE
  5
B69
  8
SIZE
  6
CONTINUOUS
 62
    30
 10
732.356627
 20
204.9007399999999
 30
0.0
 11
732.356627
 21
37.0
 31
0.0
  0
TEXT
  5
B6A
  8
SIZE
  6
CONTINUOUS
 62
    30
 10
707.356627
 20
86.643597571428515
 30
0.0
 40
64.0
  1
55
 50
90.0
 41
0.9
 72
     1
 11
707.356627
 21
133.27216899999991
 31
0.0
  0
LINE
  5
B6B
  8
SIZE
  6
CONTINUOUS
 62
    30
 10
732.356627
 20
-18.0
 30
0.0
 11
732.356627
 21
37.0
 31
0.0
  0
LINE
  5
B6C
  8
SIZE
  6
CONTINUOUS
 62
    30
 10
732.356627
 20
-18.0
 30
0.0
 11
732.356627
 21
37.0
 31
0.0
  0
CIRCLE
  5
B6D
  8
SIZE
  6
CONTINUOUS
 62
    30
 10
732.356627
 20
-18.0
 30
0.0
 40
6.0
  0
LINE
  5
B6E
  8
SIZE
  6
CONTINUOUS
 62
    30
 10
732.356627
 20
-18.0
 30
0.0
 11
732.356627
 21
-30.0
 31
0.0
  0
CIRCLE
  5
B6F
  8
SIZE
  6
CONTINUOUS
 62
    30
 10
732.356627
 20
37.0
 30
0.0
 40
6.0
  0
LINE
  5
B70
  8
SIZE
  6
CONTINUOUS
 62
    30
 10
732.356627
 20
37.0
 30
0.0
 11
732.356627
 21
49.0
 31
0.0
  0
LINE
  5
B71
  8
DETAIL
  6
PHANTOM
 62
     5
 10
-281.0
 20
-10.0
 30
0.0
 11
-291.0
 21
0.0
 31
0.0
  0
LINE
  5
B72
  8
DETAIL
  6
CONTINUOUS
 62
     5
 10
-229.0
 20
-18.0
 30
0.0
 11
-219.0
 21
-8.0
 31
0.0
  0
LINE
  5
B73
  8
BASIS
  6
DASHDOT
 62
     6
 10
-82.407601000000014
 20
-109.0
 30
0.0
 11
20.077959
 21
-109.0
 31
0.0
  0
LINE
  5
B74
  8
DETAIL
  6
PHANTOM
 62
     5
 10
-44.0
 20
-183.0
 30
0.0
 11
1.0
 21
-183.0
 31
0.0
  0
LINE
  5
B75
  8
DETAIL
  6
PHANTOM
 62
     5
 10
-44.0
 20
-35.0
 30
0.0
 11
1.0
 21
-35.0
 31
0.0
  0
LINE
  5
B76
  8
DETAIL
  6
PHANTOM
 62
     5
 10
-44.0
 20
-183.0
 30
0.0
 11
-44.0
 21
-35.0
 31
0.0
  0
LINE
  5
B77
  8
DETAIL
  6
PHANTOM
 62
     5
 10
-54.0
 20
-25.0
 30
0.0
 11
-44.0
 21
-35.0
 31
0.0
  0
LINE
  5
B78
  8
DETAIL
  6
PHANTOM
 62
     5
 10
1.0
 20
-183.0
 30
0.0
 11
1.0
 21
-35.0
 31
0.0
  0
LINE
  5
B79
  8
SIZE
  6
CONTINUOUS
 62
    30
 10
20.0
 20
-200.0
 30
0.0
 11
626.83329100000003
 21
-200.0
 31
0.0
  0
LINE
  5
B7A
  8
SIZE
  6
CONTINUOUS
 62
    30
 10
40.077959
 20
-109.0
 30
0.0
 11
626.83329100000003
 21
-109.0
 31
0.0
  0
LINE
  5
B7B
  8
SIZE
  6
CONTINUOUS
 62
    30
 10
606.83329100000003
 20
-188.0
 30
0.0
 11
606.83329100000003
 21
-121.0
 31
0.0
  0
LINE
  5
B7C
  8
SIZE
  6
CONTINUOUS
 62
    30
 10
606.83329100000003
 20
151.012179
 30
0.0
 11
606.83329100000003
 21
-109.0
 31
0.0
  0
TEXT
  5
B7D
  8
SIZE
  6
CONTINUOUS
 62
    30
 10
581.83329100000003
 20
57.440750714285713
 30
0.0
 40
64.0
  1
91
 50
90.0
 41
0.9
 72
     1
 11
581.83329100000003
 21
91.726465000000005
 31
0.0
  0
CIRCLE
  5
B7E
  8
SIZE
  6
CONTINUOUS
 62
    30
 10
606.83329100000003
 20
-200.0
 30
0.0
 40
6.0
  0
LINE
  5
B7F
  8
SIZE
  6
CONTINUOUS
 62
    30
 10
606.83329100000003
 20
-200.0
 30
0.0
 11
606.83329100000003
 21
-188.0
 31
0.0
  0
CIRCLE
  5
B80
  8
SIZE
  6
CONTINUOUS
 62
    30
 10
606.83329100000003
 20
-109.0
 30
0.0
 40
6.0
  0
LINE
  5
B81
  8
SIZE
  6
CONTINUOUS
 62
    30
 10
606.83329100000003
 20
-109.0
 30
0.0
 11
606.83329100000003
 21
-121.0
 31
0.0
  0
LINE
  5
B82
  8
DETAIL
  6
CONTINUOUS
 62
     5
 10
-224.0
 20
-200.0
 30
0.0
 11
-224.0
 21
-70.0
 31
0.0
  0
LINE
  5
B83
  8
DETAIL
  6
CONTINOUS
 62
     5
 10
-224.0
 20
-70.0
 30
0.0
 11
-54.0
 21
-70.0
 31
0.0
  0
LINE
  5
B84
  8
SIZE
  6
CONTINUOUS
 62
    30
 10
0.0
 20
-620.0
 30
0.0
 11
0.0
 21
-873.72750099999985
 31
0.0
  0
LINE
  5
B85
  8
SIZE
  6
CONTINUOUS
 62
    30
 10
-255.0
 20
-240.0
 30
0.0
 11
-255.0
 21
-873.72750099999985
 31
0.0
  0
LINE
  5
B86
  8
SIZE
  6
CONTINUOUS
 62
    30
 10
-12.0
 20
-853.72750099999985
 30
0.0
 11
-243.0
 21
-853.72750099999985
 31
0.0
  0
CIRCLE
  5
B87
  8
SIZE
  6
CONTINUOUS
 62
    30
 10
0.0
 20
-853.72750099999985
 30
0.0
 40
6.0
  0
LINE
  5
B88
  8
SIZE
  6
CONTINUOUS
 62
    30
 10
0.0
 20
-853.72750099999985
 30
0.0
 11
-12.0
 21
-853.72750099999985
 31
0.0
  0
CIRCLE
  5
B89
  8
SIZE
  6
CONTINUOUS
 62
    30
 10
-255.0
 20
-853.72750099999985
 30
0.0
 40
6.0
  0
LINE
  5
B8A
  8
SIZE
  6
CONTINUOUS
 62
    30
 10
-255.0
 20
-853.72750099999985
 30
0.0
 11
-243.0
 21
-853.72750099999985
 31
0.0
  0
TEXT
  5
B8B
  8
SIZE
  6
CONTINUOUS
 62
    30
 10
-201.55714285714291
 20
-828.72750099999985
 30
0.0
 40
64.0
  1
255
 41
0.9
 72
     1
 11
-127.5
 21
-828.72750099999985
 31
0.0
  0
TEXT
  5
B8C
  8
NOTE
  6
CONTINUOUS
 62
     4
 10
372.23488700000001
 20
253.16011099999989
 30
0.0
 40
64.0
  1
後部排気接続口
 41
0.9
  0
LINE
  5
B8D
  8
NOTE
  6
CONTINUOUS
 62
     4
 10
359.50189599999987
 20
232.76053899999991
 30
0.0
 11
869.598298
 21
232.76053899999991
 31
0.0
  0
LINE
  5
B8E
  8
SIZE
  6
CONTINUOUS
 62
    30
 10
-54.0
 20
2.0
 30
0.0
 11
-54.0
 21
297.4261259999999
 31
0.0
  0
LINE
  5
B8F
  8
SIZE
  6
CONTINUOUS
 62
    30
 10
-236.0
 20
2.0
 30
0.0
 11
-236.0
 21
297.4261259999999
 31
0.0
  0
LINE
  5
B90
  8
SIZE
  6
CONTINUOUS
 62
    30
 10
-66.0
 20
277.42612599999973
 30
0.0
 11
-224.0
 21
277.42612599999973
 31
0.0
  0
LINE
  5
B91
  8
SIZE
  6
CONTINUOUS
 62
    30
 10
236.972747
 20
277.42612599999973
 30
0.0
 11
-54.0
 21
277.42612599999973
 31
0.0
  0
TEXT
  5
B92
  8
SIZE
  6
CONTINUOUS
 62
    30
 10
5.7098904285714687
 20
302.42612599999973
 30
0.0
 40
64.0
  1
□182
 41
0.9
 72
     1
 11
110.761319
 21
302.42612599999973
 31
0.0
  0
CIRCLE
  5
B93
  8
SIZE
  6
CONTINUOUS
 62
    30
 10
-54.0
 20
277.42612599999973
 30
0.0
 40
6.0
  0
LINE
  5
B94
  8
SIZE
  6
CONTINUOUS
 62
    30
 10
-54.0
 20
277.42612599999973
 30
0.0
 11
-66.0
 21
277.42612599999973
 31
0.0
  0
CIRCLE
  5
B95
  8
SIZE
  6
CONTINUOUS
 62
    30
 10
-236.0
 20
277.42612599999973
 30
0.0
 40
6.0
  0
LINE
  5
B96
  8
SIZE
  6
CONTINUOUS
 62
    30
 10
-236.0
 20
277.42612599999973
 30
0.0
 11
-224.0
 21
277.42612599999973
 31
0.0
  0
LINE
  5
B97
  8
SIZE
  6
CONTINUOUS
 62
    30
 10
-71.0
 20
57.0
 30
0.0
 11
-71.0
 21
190.03580600000001
 31
0.0
  0
LINE
  5
B98
  8
SIZE
  6
CONTINUOUS
 62
    30
 10
-219.0
 20
57.0
 30
0.0
 11
-219.0
 21
190.03580600000001
 31
0.0
  0
LINE
  5
B99
  8
SIZE
  6
CONTINUOUS
 62
    30
 10
-83.0
 20
170.03580600000001
 30
0.0
 11
-207.0
 21
170.03580600000001
 31
0.0
  0
LINE
  5
B9A
  8
SIZE
  6
CONTINUOUS
 62
    30
 10
238.206087
 20
170.03580600000001
 30
0.0
 11
-71.0
 21
170.03580600000001
 31
0.0
  0
TEXT
  5
B9B
  8
SIZE
  6
CONTINUOUS
 62
    30
 10
9.6860864285714428
 20
195.03580600000001
 30
0.0
 40
64.0
  1
φ148
 41
0.9
 72
     1
 11
118.57751500000001
 21
195.03580600000001
 31
0.0
  0
CIRCLE
  5
B9C
  8
SIZE
  6
CONTINUOUS
 62
    30
 10
-71.0
 20
170.03580600000001
 30
0.0
 40
6.0
  0
LINE
  5
B9D
  8
SIZE
  6
CONTINUOUS
 62
    30
 10
-71.0
 20
170.03580600000001
 30
0.0
 11
-83.0
 21
170.03580600000001
 31
0.0
  0
CIRCLE
  5
B9E
  8
SIZE
  6
CONTINUOUS
 62
    30
 10
-219.0
 20
170.03580600000001
 30
0.0
 40
6.0
  0
LINE
  5
B9F
  8
SIZE
  6
CONTINUOUS
 62
    30
 10
-219.0
 20
170.03580600000001
 30
0.0
 11
-207.0
 21
170.03580600000001
 31
0.0
  0
LINE
  5
BA0
  8
NOTE
  6
CONTINUOUS
 62
     4
 10
359.50189599999987
 20
232.76053899999991
 30
0.0
 11
1.0
 21
-50.672184999999999
 31
0.0
  0
LINE
  5
BA1
  8
NOTE
  6
CONTINUOUS
 62
     4
 10
24.888206
 20
-18.588643999999992
 30
0.0
 11
1.0
 21
-50.672184999999999
 31
0.0
  0
LINE
  5
BA2
  8
NOTE
  6
CONTINUOUS
 62
     4
 10
1.0
 20
-50.672184999999999
 30
0.0
 11
37.729564000000003
 21
-34.831127000000002
 31
0.0
  0
LINE
  5
BA3
  8
SIZE
  6
CONTINUOUS
 62
    30
 39
50.0
 10
291.30750699999999
 20
474.03518899999989
 30
0.0
 11
553.20098399999995
 21
474.03518899999989
 31
0.0
  0
LINE
  5
BA4
  8
DETAIL
  6
CONTINUOUS
 62
     5
 10
-640.87511600000005
 20
-531.65280700000005
 30
0.0
 11
-650.03357000000005
 21
-497.47334699999999
 31
0.0
  0
ARC
  5
BA5
  8
DETAIL
  6
CONTINUOUS
 62
     5
 10
-630.31375600000001
 20
-516.97660800000006
 30
0.0
 40
20.0
 50
173.96292700000001
 51
216.03737000000001
  0
LINE
  5
BA6
  8
DETAIL
  6
CONTINUOUS
 62
     5
 10
-641.89554699999997
 20
-527.84454800000003
 30
0.0
 11
-645.95269800000005
 21
-528.93166900000006
 31
0.0
  0
LINE
  5
BA7
  8
DETAIL
  6
CONTINUOUS
 62
     5
 10
-635.31421999999975
 20
-536.95147599999984
 30
0.0
 11
-636.18676600000003
 21
-537.18527599999993
 31
0.0
  0
ARC
  5
BA8
  8
DETAIL
  6
CONTINUOUS
 62
     5
 10
-640.39215399999978
 20
-531.52339600000005
 30
0.0
 40
0.5
 50
195.000148
 51
208.1641299999996
  0
ARC
  5
BA9
  8
DETAIL
  6
CONTINUOUS
 62
     5
 10
-636.44558700000005
 20
-536.21935099999985
 30
0.0
 40
1.0
 50
222.64836099999991
 51
285.00014800000002
  0
ARC
  5
BAA
  8
DETAIL
  6
CONTINUOUS
 62
     5
 10
-618.79297499999996
 20
-519.95942200000002
 30
0.0
 40
25.0
 50
208.1641299999996
 51
222.64836099999991
  0
ARC
  5
BAB
  8
DETAIL
  6
CONTINUOUS
 62
     5
 10
-646.08210799999995
 20
-528.4487069999999
 30
0.0
 40
0.5
 50
216.03737000000001
 51
285.00014800000002
  0
ARC
  5
BAC
  8
DETAIL
  6
CONTINUOUS
 62
     5
 10
-625.06318699999963
 20
-496.55891600000001
 30
0.0
 40
25.0
 50
167.351935
 51
181.83616599999991
  0
ARC
  5
BAD
  8
DETAIL
  6
CONTINUOUS
 62
     5
 10
-648.48078899999985
 20
-491.30383099999989
 30
0.0
 40
1.0
 50
105.0001479999999
 51
167.351935
  0
LINE
  5
BAE
  8
DETAIL
  6
CONTINUOUS
 62
     5
 10
-648.73960999999963
 20
-490.3379059999998
 30
0.0
 11
-647.86706500000003
 21
-490.10410599999989
 31
0.0
  0
LINE
  5
BAF
  8
DETAIL
  6
CONTINUOUS
 62
     5
 10
-645.77787000000001
 20
-513.35567000000003
 30
0.0
 11
-649.83502099999987
 21
-514.44279200000005
 31
0.0
  0
ARC
  5
BB0
  8
DETAIL
  6
CONTINUOUS
 62
     5
 10
-649.70560999999998
 20
-514.92575499999975
 30
0.0
 40
0.5
 50
105.0001479999999
 51
173.96292700000001
  0
ARC
  5
BB1
  8
DETAIL
  6
CONTINUOUS
 62
     5
 10
-649.55060700000001
 20
-497.34393599999993
 30
0.0
 40
0.5
 50
181.83616599999991
 51
195.000148
  0
LINE
  5
BB2
  8
DETAIL
  6
PHANTOM
 62
     5
 10
-54.0
 20
-193.0
 30
0.0
 11
-44.0
 21
-183.0
 31
0.0
  0
LINE
  5
BB3
  8
SIZE
  6
CONTINUOUS
 62
    30
 10
0.0
 20
-620.0
 30
0.0
 11
0.0
 21
-748.02300500000001
 31
0.0
  0
TEXT
  5
BB4
  8
NOTE
  6
CONTINUOUS
 62
     4
 10
-1179.264607999999
 20
304.52190599999989
 30
0.0
 40
64.0
  1
右側面給気接続口
 41
0.9
  0
LINE
  5
BB5
  8
NOTE
  6
CONTINUOUS
 62
     4
 10
-621.30785000000003
 20
276.644746
 30
0.0
 11
-1184.7302269999991
 21
276.644746
 31
0.0
  0
LINE
  5
BB6
  8
NOTE
  6
CONTINUOUS
 62
     4
 10
-422.459115
 20
-44.336277000000003
 30
0.0
 11
-621.30785000000003
 21
276.644746
 31
0.0
  0
LINE
  5
BB7
  8
NOTE
  6
CONTINUOUS
 62
     4
 10
-451.607508
 20
-16.943373000000001
 30
0.0
 11
-422.459115
 21
-44.336277000000003
 31
0.0
  0
LINE
  5
BB8
  8
NOTE
  6
CONTINUOUS
 62
     4
 10
-422.459115
 20
-44.336277000000003
 30
0.0
 11
-434.00591200000002
 21
-6.0391300000000001
 31
0.0
  0
LINE
  5
BB9
  8
SIZE
  6
CONTINUOUS
 62
    30
 10
0.0
 20
-620.0
 30
0.0
 11
0.0
 21
-1008.902508
 31
0.0
  0
LINE
  5
BBA
  8
SIZE
  6
CONTINUOUS
 62
    30
 10
-370.0
 20
-620.0
 30
0.0
 11
-370.0
 21
-1008.902508
 31
0.0
  0
LINE
  5
BBB
  8
SIZE
  6
CONTINUOUS
 62
    30
 10
-12.0
 20
-988.9025079999999
 30
0.0
 11
-358.0
 21
-988.9025079999999
 31
0.0
  0
CIRCLE
  5
BBC
  8
SIZE
  6
CONTINUOUS
 62
    30
 10
0.0
 20
-988.9025079999999
 30
0.0
 40
6.0
  0
LINE
  5
BBD
  8
SIZE
  6
CONTINUOUS
 62
    30
 10
0.0
 20
-988.9025079999999
 30
0.0
 11
-12.0
 21
-988.9025079999999
 31
0.0
  0
CIRCLE
  5
BBE
  8
SIZE
  6
CONTINUOUS
 62
    30
 10
-370.0
 20
-988.9025079999999
 30
0.0
 40
6.0
  0
LINE
  5
BBF
  8
SIZE
  6
CONTINUOUS
 62
    30
 10
-370.0
 20
-988.9025079999999
 30
0.0
 11
-358.0
 21
-988.9025079999999
 31
0.0
  0
TEXT
  5
BC0
  8
SIZE
  6
CONTINUOUS
 62
    30
 10
-259.05714285714282
 20
-963.9025079999999
 30
0.0
 40
64.0
  1
370
 41
0.9
 72
     1
 11
-185.0
 21
-963.9025079999999
 31
0.0
  0
LINE
  5
BC1
  8
DETAIL
  6
PHANTOM
 62
     5
 10
-320.0
 20
0.0
 30
0.0
 11
-291.0
 21
0.0
 31
0.0
  0
TEXT
  5
BC2
  8
ETC
  6
CONTINUOUS
 62
    61
 10
605.00527665595303
 20
830.47359118289785
 30
0.0
 40
64.0
  1
V-904KQE7_4
 41
0.9
  0
TEXT
  5
BC3
  8
ETC
  6
CONTINUOUS
 62
    61
 10
600.78330965595285
 20
733.98276418289811
 30
0.0
 40
64.0
  1
換気扇
 41
0.9
  0
TEXT
  5
BC4
  8
ETC
  6
CONTINUOUS
 62
    61
 10
743.40191659099594
 20
650.20142435490516
 30
0.0
 40
50.0
  1
V-904KQE6
 41
0.9
  0
LINE
  5
BC5
  8
NOTE
  6
CONTINUOUS
 62
     4
 10
-208.0
 20
-220.0
 30
0.0
 11
-208.0
 21
-180.0
 31
0.0
  0
CIRCLE
  5
BC6
  8
SIZE
  6
CONTINUOUS
 62
    30
 39
50.0
 10
-208.0
 20
-729.11028159489229
 30
0.0
 40
6.0
  0
CIRCLE
  5
BC7
  8
SIZE
  6
CONTINUOUS
 62
    30
 39
50.0
 10
0.0
 20
-729.11028159489229
 30
0.0
 40
6.0
  0
LINE
  5
BC8
  8
SIZE
  6
CONTINUOUS
 10
-208.0
 20
-240.0
 30
0.0
 11
-208.0
 21
-749.1102815948924
 31
0.0
  0
LINE
  5
BC9
  8
SIZE
  6
CONTINUOUS
 10
-0.0000000000000012
 20
-620.0
 30
0.0
 11
-0.0000000000000091
 21
-749.1102815948924
 31
0.0
  0
LINE
  5
BCA
  8
SIZE
  6
CONTINUOUS
 10
-208.0
 20
-729.11028159489229
 30
0.0
 11
-0.0000000000000079
 21
-729.11028159489229
 31
0.0
  0
TEXT
  5
BCB
  8
SIZE
  6
CONTINUOUS
 10
-178.05714285714279
 20
-704.11028159489229
 30
0.0
 40
64.0
  1
208
 41
0.9
  0
LINE
  5
BCC
  8
DETAIL
  6
DASHED
 62
     5
 39
50.0
 10
-320.0
 20
-10.0
 30
0.0
 11
-450.0
 21
-10.0
 31
0.0
  0
LINE
  5
BCD
  8
DETAIL
  6
PHANTOM
 62
     5
 39
50.0
 10
-450.0
 20
-10.0
 30
0.0
 11
-439.0
 21
0.0
 31
0.0
  0
LINE
  5
BCF
  8
SIZE
  6
CONTINUOUS
 62
    30
 39
50.0
 10
0.0
 20
-185.6365653606299
 30
0.0
 11
0.0
 21
839.80439190666846
 31
0.0
  0
LINE
  5
BD1
  8
SIZE
  6
CONTINUOUS
 62
    30
 39
50.0
 10
-334.13329650268679
 20
-10.0
 30
0.0
 11
-1172.114860414491
 21
-10.0
 31
0.0
  0
TEXT
  5
CAF
  8
ETC
  6
CONTINUOUS
 62
    61
 10
743.40191659099594
 20
565.11457059201041
 30
0.0
 40
50.0
  1
V-904KQE7
 41
0.9
  0
ENDSEC
  0
EOF
