  0
SECTION
  2
HEADER
  9
$ACADVER
  1
AC1009
  9
$INSBASE
 10
0.0
 20
0.0
 30
0.0
  9
$EXTMIN
 10
-947.15879729152584
 20
-1023.46800654599
 30
-0.0015257624927045
  9
$EXTMAX
 10
1603.825390657672
 20
913.23853378793865
 30
50.001525995323327
  9
$LIMMIN
 10
-2970.0
 20
-2100.0
  9
$LIMMAX
 10
2970.0
 20
2100.0
  9
$ORTHOMODE
 70
     1
  9
$REGENMODE
 70
     0
  9
$FILLMODE
 70
     1
  9
$QTEXTMODE
 70
     0
  9
$MIRRTEXT
 70
     0
  9
$DRAGMODE
 70
     2
  9
$LTSCALE
 40
20.0
  9
$OSMODE
 70
    32
  9
$ATTMODE
 70
     1
  9
$TEXTSIZE
 40
64.0
  9
$TRACEWID
 40
0.05
  9
$TEXTSTYLE
  7
STANDARD
  9
$CLAYER
  8
ETC
  9
$CELTYPE
  6
CONTINUOUS
  9
$CECOLOR
 62
    30
  9
$DIMSCALE
 40
1.0
  9
$DIMASZ
 40
12.0
  9
$DIMEXO
 40
20.0
  9
$DIMDLI
 40
200.0
  9
$DIMRND
 40
0.0
  9
$DIMDLE
 40
0.0
  9
$DIMEXE
 40
20.0
  9
$DIMTP
 40
0.0
  9
$DIMTM
 40
0.0
  9
$DIMTXT
 40
64.0
  9
$DIMCEN
 40
0.09
  9
$DIMTSZ
 40
0.0
  9
$DIMTOL
 70
     0
  9
$DIMLIM
 70
     0
  9
$DIMTIH
 70
     0
  9
$DIMTOH
 70
     0
  9
$DIMSE1
 70
     0
  9
$DIMSE2
 70
     0
  9
$DIMTAD
 70
     1
  9
$DIMZIN
 70
     8
  9
$DIMBLK
  1
DOT1
  9
$DIMASO
 70
     1
  9
$DIMSHO
 70
     0
  9
$DIMPOST
  1

  9
$DIMAPOST
  1

  9
$DIMALT
 70
     0
  9
$DIMALTD
 70
     2
  9
$DIMALTF
 40
25.399999999999999
  9
$DIMLFAC
 40
1.0
  9
$DIMTOFL
 70
     1
  9
$DIMTVP
 40
0.0
  9
$DIMTIX
 70
     1
  9
$DIMSOXD
 70
     0
  9
$DIMSAH
 70
     1
  9
$DIMBLK1
  1
ORIGIN
  9
$DIMBLK2
  1
ORIGIN
  9
$DIMSTYLE
  2
STANDARD
  9
$DIMCLRD
 70
     7
  9
$DIMCLRE
 70
     7
  9
$DIMCLRT
 70
     7
  9
$DIMTFAC
 40
1.0
  9
$DIMGAP
 40
25.0
  9
$LUNITS
 70
     2
  9
$LUPREC
 70
     4
  9
$SKETCHINC
 40
0.1
  9
$FILLETRAD
 40
4.0
  9
$AUNITS
 70
     1
  9
$AUPREC
 70
     3
  9
$MENU
  1
ACAD
  9
$ELEVATION
 40
0.0
  9
$PELEVATION
 40
0.0
  9
$THICKNESS
 40
50.0
  9
$LIMCHECK
 70
     0
  9
$BLIPMODE
 70
     0
  9
$CHAMFERA
 40
0.0
  9
$CHAMFERB
 40
0.0
  9
$SKPOLY
 70
     0
  9
$TDCREATE
 40
2453095.5609012851
  9
$TDUPDATE
 40
2454743.773386748
  9
$TDINDWG
 40
0.0590578704
  9
$TDUSRTIMER
 40
0.0590575
  9
$USRTIMER
 70
     1
  9
$ANGBASE
 50
0.0
  9
$ANGDIR
 70
     0
  9
$PDMODE
 70
     3
  9
$PDSIZE
 40
-2.0
  9
$PLINEWID
 40
0.0
  9
$COORDS
 70
     1
  9
$SPLFRAME
 70
     0
  9
$SPLINETYPE
 70
     6
  9
$SPLINESEGS
 70
     8
  9
$ATTDIA
 70
     0
  9
$ATTREQ
 70
     1
  9
$HANDLING
 70
     1
  9
$HANDSEED
  5
E69
  9
$SURFTAB1
 70
     6
  9
$SURFTAB2
 70
     6
  9
$SURFTYPE
 70
     6
  9
$SURFU
 70
     6
  9
$SURFV
 70
     6
  9
$UCSNAME
  2

  9
$UCSORG
 10
0.0
 20
0.0
 30
0.0
  9
$UCSXDIR
 10
1.0
 20
0.0
 30
0.0
  9
$UCSYDIR
 10
0.0
 20
1.0
 30
0.0
  9
$PUCSNAME
  2

  9
$PUCSORG
 10
0.0
 20
0.0
 30
0.0
  9
$PUCSXDIR
 10
1.0
 20
0.0
 30
0.0
  9
$PUCSYDIR
 10
0.0
 20
1.0
 30
0.0
  9
$USERI1
 70
     0
  9
$USERI2
 70
     0
  9
$USERI3
 70
     0
  9
$USERI4
 70
     0
  9
$USERI5
 70
     0
  9
$USERR1
 40
20.0
  9
$USERR2
 40
0.0
  9
$USERR3
 40
0.0
  9
$USERR4
 40
0.0
  9
$USERR5
 40
0.0
  9
$WORLDVIEW
 70
     1
  9
$SHADEDGE
 70
     3
  9
$SHADEDIF
 70
    70
  9
$TILEMODE
 70
     1
  9
$MAXACTVP
 70
    48
  9
$PLIMCHECK
 70
     0
  9
$PEXTMIN
 10
-1.0000000000000000E+020
 20
-1.0000000000000000E+020
 30
-1.0000000000000000E+020
  9
$PEXTMAX
 10
1.0000000000000000E+020
 20
1.0000000000000000E+020
 30
1.0000000000000000E+020
  9
$PLIMMIN
 10
0.0
 20
0.0
  9
$PLIMMAX
 10
12.0
 20
9.0
  9
$UNITMODE
 70
     0
  9
$VISRETAIN
 70
     0
  9
$PLINEGEN
 70
     0
  9
$PSLTSCALE
 70
     0
  0
ENDSEC
  0
SECTION
  2
TABLES
  0
TABLE
  2
VPORT
 70
     1
  0
VPORT
  2
*ACTIVE
 70
     0
 10
0.0
 20
0.0
 11
1.0
 21
1.0
 12
301.95058546485137
 22
-139.2505633134929
 13
0.0
 23
0.0
 14
1.0
 24
1.0
 15
0.0
 25
0.0
 16
0.0
 26
0.0
 36
1.0
 17
0.0
 27
0.0
 37
0.0
 40
2192.2961690791849
 41
1.812051649928264
 42
50.0
 43
0.0
 44
0.0
 50
0.0
 51
0.0
 71
     0
 72
  1000
 73
     1
 74
     0
 75
     0
 76
     0
 77
     0
 78
     0
  0
ENDTAB
  0
TABLE
  2
LTYPE
 70
     6
  0
LTYPE
  2
CONTINUOUS
 70
     0
  3
実線
 72
    65
 73
     0
 40
0.0
  0
LTYPE
  2
PHANTOM
 70
     0
  3
Phantom ______  __  __  ______  __  __  ______
 72
    65
 73
     6
 40
2.5
 49
1.25
 49
-0.25
 49
0.25
 49
-0.25
 49
0.25
 49
-0.25
  0
LTYPE
  2
DASHDOT
 70
     0
  3
____ _ ____ _ ____ _ ____ _ ____ _ ____ _ ____
 72
    65
 73
     4
 40
5.5
 49
4.0
 49
-0.6
 49
0.3
 49
-0.6
  0
LTYPE
  2
DASHED
 70
     0
  3
-- -- -- -- -- -- -- -- -- -- -- -- -- -- --
 72
    65
 73
     2
 40
0.75
 49
0.5
 49
-0.25
  0
LTYPE
  2
CONTINOUS
 70
     0
  3
Solid line
 72
    65
 73
     0
 40
0.0
  0
ENDTAB
  0
TABLE
  2
LAYER
 70
    12
  0
LAYER
  2
0
 70
     0
 62
     7
  6
CONTINUOUS
  0
LAYER
  2
SIZE
 70
     0
 62
    30
  6
CONTINUOUS
  0
LAYER
  2
DETAIL
 70
     0
 62
     5
  6
CONTINUOUS
  0
LAYER
  2
BASIS
 70
     0
 62
     6
  6
DASHDOT
  0
LAYER
  2
OUTLINE
 70
     0
 62
     3
  6
CONTINUOUS
  0
LAYER
  2
ARRANGE
 70
     0
 62
     1
  6
CONTINUOUS
  0
LAYER
  2
DEFPOINTS
 70
     0
 62
     7
  6
CONTINUOUS
  0
LAYER
  2
ETC
 70
     0
 62
    61
  6
CONTINUOUS
  0
LAYER
  2
FIX
 70
     0
 62
    11
  6
CONTINUOUS
  0
LAYER
  2
NOTE
 70
     0
 62
     4
  6
CONTINUOUS
  0
LAYER
  2
SERVICESPACE
 70
     0
 62
     2
  6
DASHDOT
  0
LAYER
  2
SYMBOLLINE
 70
     0
 62
    15
  6
CONTINUOUS
  0
ENDTAB
  0
TABLE
  2
STYLE
 70
     3
  0
STYLE
  2
STANDARD
 70
     0
 40
64.0
 41
0.9
 50
0.0
 71
     0
 42
64.0
  3
SIMPLEX.shx
  4
BIGFONT.shx
  0
STYLE
  2
ANNOTATIVE
 70
     0
 40
0.0
 41
1.0
 50
0.0
 71
     0
 42
0.2
  3
txt
  4

  0
STYLE
  2

 70
     1
 40
0.0
 41
1.0
 50
0.0
 71
     0
 42
64.0
  3
ltypeshp.shx
  4

  0
ENDTAB
  0
TABLE
  2
VIEW
 70
     1
  0
VIEW
  2
ALL
 70
     0
 40
4282.6198079999967
 10
0.0
 20
41.309903999999989
 41
5940.0
 11
0.0
 21
0.0
 31
1.0
 12
0.0
 22
0.0
 32
0.0
 42
50.0
 43
0.0
 44
0.0
 50
0.0
 71
     0
  0
ENDTAB
  0
TABLE
  2
UCS
 70
     0
  0
ENDTAB
  0
TABLE
  2
APPID
 70
     5
  0
APPID
  2
ACAD
 70
     0
  0
APPID
  2
ACADANNOTATIVE
 70
     0
  0
APPID
  2
ACAD_MLEADERVER
 70
     0
  0
APPID
  2
AUTOCAD_POSTSCRIPT_FIGURE
 70
     0
  0
APPID
  2
ACAD_EXEMPT_FROM_CAD_STANDARDS
 70
     0
  0
ENDTAB
  0
TABLE
  2
DIMSTYLE
 70
     2
  0
DIMSTYLE
  2
STANDARD
 70
     0
  3

  4

  5

  6

  7

 40
1.0
 41
0.18
 42
0.0625
 43
0.38
 44
0.18
 45
0.0
 46
0.0
 47
0.0
 48
0.0
140
0.18
141
0.09
142
0.0
143
25.399999999999999
144
1.0
145
0.0
146
1.0
147
0.09
 71
     0
 72
     0
 73
     1
 74
     1
 75
     0
 76
     0
 77
     0
 78
     0
170
     0
171
     2
172
     0
173
     0
174
     0
175
     0
176
     7
177
     7
178
     7
  0
DIMSTYLE
  2
ANNOTATIVE
 70
     0
  3

  4

  5

  6

  7

 40
1.0
 41
0.18
 42
0.0625
 43
0.38
 44
0.18
 45
0.0
 46
0.0
 47
0.0
 48
0.0
140
0.18
141
0.09
142
0.0
143
25.399999999999999
144
1.0
145
0.0
146
1.0
147
0.09
 71
     0
 72
     0
 73
     1
 74
     1
 75
     0
 76
     0
 77
     0
 78
     0
170
     0
171
     2
172
     0
173
     0
174
     0
175
     0
176
     0
177
     0
178
     0
  0
ENDTAB
  0
ENDSEC
  0
SECTION
  2
BLOCKS
  0
BLOCK
  8
0
  2
$MODEL_SPACE
 70
     0
 10
0.0
 20
0.0
 30
0.0
  3
$MODEL_SPACE
  1

  0
ENDBLK
  5
E09
  8
0
  0
BLOCK
 67
     1
  8
0
  2
$PAPER_SPACE
 70
     0
 10
0.0
 20
0.0
 30
0.0
  3
$PAPER_SPACE
  1

  0
ENDBLK
  5
E05
 67
     1
  8
0
  0
BLOCK
  8
0
  2
DOT1
 70
     0
 10
0.0
 20
0.0
 30
0.0
  3
DOT1
  1

  0
CIRCLE
  5
BF8
  8
SIZE
  6
CONTINUOUS
 62
     7
 10
0.0
 20
0.0
 30
0.0
 40
3.0
  0
ENDBLK
  5
BF9
  8
0
  0
BLOCK
  8
0
  2
_ORIGIN
 70
     0
 10
0.0
 20
0.0
 30
0.0
  3
_ORIGIN
  1

  0
CIRCLE
  5
BFC
  8
0
  6
CONTINUOUS
 62
     7
 10
0.0
 20
0.0
 30
0.0
 40
0.5
  0
LINE
  5
BFD
  8
0
  6
CONTINUOUS
 62
     7
 10
0.0
 20
0.0
 30
0.0
 11
-1.0
 21
0.0
 31
0.0
  0
ENDBLK
  5
BFE
  8
0
  0
BLOCK
  8
0
 62
    30
  2
_NONE
 70
     0
 10
0.0
 20
0.0
 30
0.0
  3
_NONE
  1

  0
ENDBLK
  5
C01
  8
0
 62
    30
  0
BLOCK
  8
0
 62
    30
  2
_OPEN30
 70
     0
 10
0.0
 20
0.0
 30
0.0
  3
_OPEN30
  1

  0
LINE
  5
C04
  8
0
  6
BYBLOCK
 62
     0
 10
-1.0
 20
0.26794919
 30
0.0
 11
0.0
 21
0.0
 31
0.0
  0
LINE
  5
C05
  8
0
  6
BYBLOCK
 62
     0
 10
0.0
 20
0.0
 30
0.0
 11
-1.0
 21
-0.26794919
 31
0.0
  0
LINE
  5
C06
  8
0
  6
BYBLOCK
 62
     0
 10
0.0
 20
0.0
 30
0.0
 11
-1.0
 21
0.0
 31
0.0
  0
ENDBLK
  5
C07
  8
0
 62
    30
  0
ENDSEC
  0
SECTION
  2
ENTITIES
  0
LINE
  5
C08
  8
SIZE
  6
CONTINUOUS
 62
    30
 10
-20.0
 20
-600.0
 30
0.0
 11
-752.35662699999989
 21
-600.0
 31
0.0
  0
LINE
  5
C09
  8
SIZE
  6
CONTINUOUS
 62
    30
 10
-20.0
 20
-200.0
 30
0.0
 11
-752.35662699999989
 21
-200.0
 31
0.0
  0
LINE
  5
C0A
  8
SIZE
  6
CONTINUOUS
 62
    30
 10
-732.356627
 20
-588.0
 30
0.0
 11
-732.356627
 21
-212.0
 31
0.0
  0
TEXT
  5
C0B
  8
SIZE
  6
CONTINUOUS
 62
    30
 10
-759.65642000000003
 20
-470.05714285714282
 30
0.0
 40
64.0
  1
400
 50
90.0
 41
0.9
 72
     1
 11
-759.65642000000003
 21
-396.0
 31
0.0
  0
CIRCLE
  5
C0C
  8
SIZE
  6
CONTINUOUS
 62
    30
 10
-732.356627
 20
-600.0
 30
0.0
 40
6.0
  0
LINE
  5
C0D
  8
SIZE
  6
CONTINUOUS
 62
    30
 10
-732.356627
 20
-600.0
 30
0.0
 11
-732.356627
 21
-588.0
 31
0.0
  0
CIRCLE
  5
C0E
  8
SIZE
  6
CONTINUOUS
 62
    30
 10
-732.356627
 20
-200.0
 30
0.0
 40
6.0
  0
LINE
  5
C0F
  8
SIZE
  6
CONTINUOUS
 62
    30
 10
-732.356627
 20
-200.0
 30
0.0
 11
-732.356627
 21
-212.0
 31
0.0
  0
LINE
  5
C10
  8
BASIS
  6
DASHDOT
 62
     6
 10
145.0
 20
80.98484999999998
 30
0.0
 11
145.0
 21
-238.10988499999991
 31
0.0
  0
LINE
  5
C11
  8
DETAIL
  6
CONTINOUS
 62
     5
 10
375.0
 20
0.0
 30
0.0
 11
320.0
 21
0.0
 31
0.0
  0
LINE
  5
C12
  8
DETAIL
  6
CONTINOUS
 62
     5
 10
464.35512499999987
 20
-200.0
 30
0.0
 11
0.0
 21
-200.0
 31
0.0
  0
LINE
  5
C13
  8
DETAIL
  6
CONTINOUS
 62
     5
 10
0.0
 20
-600.0
 30
0.0
 11
372.95429100000001
 21
-600.0
 31
0.0
  0
LINE
  5
C14
  8
DETAIL
  6
CONTINOUS
 62
     5
 10
0.0
 20
-600.0
 30
0.0
 11
0.0
 21
-200.0
 31
0.0
  0
ARC
  5
C15
  8
DETAIL
  6
CONTINOUS
 62
     5
 10
381.70782400000002
 20
50.948417999999997
 30
0.0
 40
651.00727099999995
 50
269.22957000000002
 51
291.87756400000001
  0
LINE
  5
C16
  8
DETAIL
  6
CONTINOUS
 62
     5
 10
646.21892800000001
 20
-459.31670100000002
 30
0.0
 11
480.203778
 21
-211.41966899999991
 31
0.0
  0
LINE
  5
C17
  8
DETAIL
  6
CONTINOUS
 62
     5
 10
633.84268799999995
 20
-542.44387500000005
 30
0.0
 11
650.0
 21
-482.14396499999998
 31
0.0
  0
ARC
  5
C18
  8
DETAIL
  6
CONTINOUS
 62
     5
 10
456.93892699999998
 20
-227.0
 30
0.0
 40
28.0
 50
33.809981999999998
 51
74.641114000000002
  0
ARC
  5
C19
  8
DETAIL
  6
CONTINOUS
 62
     5
 10
622.95407699999976
 20
-474.89703200000002
 30
0.0
 40
28.0
 50
345.0
 51
33.809981999999998
  0
ARC
  5
C1A
  8
DETAIL
  6
CONTINOUS
 62
     5
 10
618.3878739999999
 20
-538.30277000000001
 30
0.0
 40
16.0
 50
291.64304800000002
 51
345.0
  0
LINE
  5
C1B
  8
SIZE
  6
CONTINUOUS
 62
    30
 10
300.0
 20
0.0
 30
0.0
 11
-878.16542300000003
 21
0.0
 31
0.0
  0
LINE
  5
C1C
  8
SIZE
  6
CONTINUOUS
 62
    30
 10
-20.0
 20
-600.0
 30
0.0
 11
-878.16542300000003
 21
-600.0
 31
0.0
  0
LINE
  5
C1D
  8
SIZE
  6
CONTINUOUS
 62
    30
 10
-858.16542299999981
 20
-12.0
 30
0.0
 11
-858.16542299999981
 21
-588.0
 31
0.0
  0
TEXT
  5
C1E
  8
SIZE
  6
CONTINUOUS
 62
    30
 10
-883.02937399999985
 20
-374.05714285714282
 30
0.0
 40
64.0
  1
600
 50
90.0
 41
0.9
 72
     1
 11
-883.02937399999985
 21
-300.0
 31
0.0
  0
CIRCLE
  5
C1F
  8
SIZE
  6
CONTINUOUS
 62
    30
 10
-858.16542299999981
 20
0.0
 30
0.0
 40
6.0
  0
LINE
  5
C20
  8
SIZE
  6
CONTINUOUS
 62
    30
 10
-858.16542299999981
 20
0.0
 30
0.0
 11
-858.16542299999981
 21
-12.0
 31
0.0
  0
CIRCLE
  5
C21
  8
SIZE
  6
CONTINUOUS
 62
    30
 10
-858.16542299999981
 20
-600.0
 30
0.0
 40
6.0
  0
LINE
  5
C22
  8
SIZE
  6
CONTINUOUS
 62
    30
 10
-858.16542299999981
 20
-600.0
 30
0.0
 11
-858.16542299999981
 21
-588.0
 31
0.0
  0
LINE
  5
C23
  8
DETAIL
  6
CONTINOUS
 62
     5
 10
370.0
 20
-600.0
 30
0.0
 11
370.0
 21
-200.0
 31
0.0
  0
LINE
  5
C24
  8
SIZE
  6
CONTINUOUS
 62
    30
 10
650.0
 20
-511.91519
 30
0.0
 11
650.0
 21
-1023.255295
 31
0.0
  0
LINE
  5
C25
  8
SIZE
  6
CONTINUOUS
 62
    30
 10
0.0
 20
-620.0
 30
0.0
 11
0.0
 21
-1023.255295
 31
0.0
  0
LINE
  5
C26
  8
SIZE
  6
CONTINUOUS
 62
    30
 10
638.0
 20
-1003.255294999995
 30
0.0
 11
12.0
 21
-1003.255294999995
 31
0.0
  0
TEXT
  5
C27
  8
SIZE
  6
CONTINUOUS
 62
    30
 10
250.94285714285709
 20
-978.25529500000005
 30
0.0
 40
64.0
  1
650
 41
0.9
 72
     1
 11
325.0
 21
-978.25529500000005
 31
0.0
  0
CIRCLE
  5
C28
  8
SIZE
  6
CONTINUOUS
 62
    30
 10
650.0
 20
-1003.255294999995
 30
0.0
 40
6.0
  0
LINE
  5
C29
  8
SIZE
  6
CONTINUOUS
 62
    30
 10
650.0
 20
-1003.255294999995
 30
0.0
 11
638.0
 21
-1003.255294999995
 31
0.0
  0
CIRCLE
  5
C2A
  8
SIZE
  6
CONTINUOUS
 62
    30
 10
0.0
 20
-1003.255294999995
 30
0.0
 40
6.0
  0
LINE
  5
C2B
  8
SIZE
  6
CONTINUOUS
 62
    30
 10
0.0
 20
-1003.255294999995
 30
0.0
 11
12.0
 21
-1003.255294999995
 31
0.0
  0
LINE
  5
C2C
  8
NOTE
  6
CONTINUOUS
 62
     4
 10
0.0
 20
-515.0
 30
0.0
 11
0.0
 21
-475.0
 31
0.0
  0
LINE
  5
C2D
  8
NOTE
  6
CONTINUOUS
 62
     4
 10
20.0
 20
-495.0
 30
0.0
 11
-20.0
 21
-495.0
 31
0.0
  0
ARC
  5
C2E
  8
OUTLINE
  6
CONTINOUS
 62
     3
 10
618.3878739999999
 20
-538.30277000000001
 30
0.0
 40
16.0
 50
291.64304800000002
 51
345.0
  0
ARC
  5
C2F
  8
OUTLINE
  6
CONTINOUS
 62
     3
 10
622.95407699999976
 20
-474.89703200000002
 30
0.0
 40
28.0
 50
345.0
 51
33.809981999999998
  0
ARC
  5
C30
  8
OUTLINE
  6
CONTINOUS
 62
     3
 10
456.93892699999998
 20
-227.0
 30
0.0
 40
28.0
 50
33.809981999999998
 51
74.641114000000002
  0
LINE
  5
C31
  8
OUTLINE
  6
CONTINOUS
 62
     3
 10
633.84268799999995
 20
-542.44387500000005
 30
0.0
 11
650.0
 21
-482.14396499999998
 31
0.0
  0
LINE
  5
C32
  8
OUTLINE
  6
CONTINOUS
 62
     3
 10
646.21892800000001
 20
-459.31670100000002
 30
0.0
 11
480.203778
 21
-211.41966899999991
 31
0.0
  0
ARC
  5
C33
  8
OUTLINE
  6
CONTINOUS
 62
     3
 10
381.70782400000002
 20
50.948417999999997
 30
0.0
 40
651.00727099999995
 50
269.22957000000002
 51
291.87756400000001
  0
LINE
  5
C34
  8
OUTLINE
  6
CONTINOUS
 62
     3
 10
0.0
 20
-600.0
 30
0.0
 11
0.0
 21
-200.0
 31
0.0
  0
LINE
  5
C35
  8
OUTLINE
  6
CONTINOUS
 62
     3
 10
0.0
 20
-600.0
 30
0.0
 11
372.95429100000001
 21
-600.0
 31
0.0
  0
LINE
  5
C36
  8
OUTLINE
  6
CONTINOUS
 62
     3
 10
464.35512499999987
 20
-200.0
 30
0.0
 11
0.0
 21
-200.0
 31
0.0
  0
LINE
  5
C37
  8
NOTE
  6
CONTINUOUS
 62
     4
 10
0.0
 20
-280.0
 30
0.0
 11
0.0
 21
-240.0
 31
0.0
  0
LINE
  5
C38
  8
NOTE
  6
CONTINUOUS
 62
     4
 10
20.0
 20
-260.0
 30
0.0
 11
-20.0
 21
-260.0
 31
0.0
  0
CIRCLE
  5
C39
  8
FIX
  6
CONTINUOUS
 62
    11
 10
0.0
 20
-260.0
 30
0.0
 40
4.0
  0
CIRCLE
  5
C3A
  8
FIX
  6
CONTINUOUS
 62
    11
 10
0.0
 20
-495.0
 30
0.0
 40
4.0
  0
TEXT
  5
C3B
  8
NOTE
  6
CONTINUOUS
 62
     4
 10
-300.9031589999999
 20
-697.59203200000002
 30
0.0
 40
64.0
  1
4-φ8
 41
0.9
  0
LINE
  5
C3C
  8
NOTE
  6
CONTINUOUS
 62
     4
 10
-310.32718199999982
 20
-729.25006599999983
 30
0.0
 11
-56.525725000000001
 21
-729.25006599999983
 31
0.0
  0
LINE
  5
C3D
  8
DETAIL
  6
CONTINOUS
 62
     5
 10
480.0
 20
-185.0
 30
0.0
 11
440.0
 21
-185.0
 31
0.0
  0
LINE
  5
C3E
  8
DETAIL
  6
CONTINOUS
 62
     5
 10
480.0
 20
0.0
 30
0.0
 11
320.0
 21
0.0
 31
0.0
  0
LINE
  5
C3F
  8
DETAIL
  6
CONTINOUS
 62
     5
 10
270.0
 20
-185.0
 30
0.0
 11
270.0
 21
-10.0
 31
0.0
  0
LINE
  5
C40
  8
BASIS
  6
DASHDOT
 62
     6
 10
365.0
 20
-213.74200499999981
 30
0.0
 11
365.0
 21
60.984850000000002
 31
0.0
  0
LINE
  5
C41
  8
DETAIL
  6
CONTINOUS
 62
     5
 10
480.0
 20
-185.0
 30
0.0
 11
480.0
 21
0.0
 31
0.0
  0
LINE
  5
C42
  8
DETAIL
  6
PHANTOM
 62
     5
 10
439.0
 20
0.0
 30
0.0
 11
439.0
 21
45.0
 31
0.0
  0
LINE
  5
C43
  8
DETAIL
  6
PHANTOM
 62
     5
 10
291.0
 20
45.0
 30
0.0
 11
439.0
 21
45.0
 31
0.0
  0
LINE
  5
C44
  8
DETAIL
  6
PHANTOM
 62
     5
 10
291.0
 20
0.0
 30
0.0
 11
291.0
 21
45.0
 31
0.0
  0
LINE
  5
C45
  8
DETAIL
  6
CONTINOUS
 62
     5
 10
320.0
 20
-10.0
 30
0.0
 11
270.0
 21
-10.0
 31
0.0
  0
LINE
  5
C46
  8
DETAIL
  6
CONTINOUS
 62
     5
 10
450.0
 20
-185.0
 30
0.0
 11
450.0
 21
0.0
 31
0.0
  0
LINE
  5
C47
  8
DETAIL
  6
CONTINUOUS
 62
     5
 10
440.0
 20
-185.0
 30
0.0
 11
440.0
 21
-200.0
 31
0.0
  0
LINE
  5
C48
  8
DETAIL
  6
CONTINOUS
 62
     5
 10
320.0
 20
-200.0
 30
0.0
 11
320.0
 21
0.0
 31
0.0
  0
LINE
  5
C49
  8
NOTE
  6
CONTINUOUS
 62
     4
 10
255.0
 20
-220.0
 30
0.0
 11
255.0
 21
-180.0
 31
0.0
  0
LINE
  5
C4A
  8
NOTE
  6
CONTINUOUS
 62
     4
 10
235.0
 20
-200.0
 30
0.0
 11
275.0
 21
-200.0
 31
0.0
  0
CIRCLE
  5
C4B
  8
FIX
  6
CONTINUOUS
 62
    11
 10
255.0
 20
-200.0
 30
0.0
 40
12.5
  0
LINE
  5
C4C
  8
OUTLINE
  6
CONTINOUS
 62
     3
 10
480.0
 20
0.0
 30
0.0
 11
320.0
 21
0.0
 31
0.0
  0
LINE
  5
C4D
  8
OUTLINE
  6
CONTINOUS
 62
     3
 10
450.0
 20
-185.0
 30
0.0
 11
450.0
 21
0.0
 31
0.0
  0
LINE
  5
C4E
  8
OUTLINE
  6
CONTINOUS
 62
     3
 10
480.0
 20
-185.0
 30
0.0
 11
480.0
 21
0.0
 31
0.0
  0
LINE
  5
C4F
  8
OUTLINE
  6
CONTINOUS
 62
     3
 10
480.0
 20
-185.0
 30
0.0
 11
440.0
 21
-185.0
 31
0.0
  0
LINE
  5
C50
  8
OUTLINE
  6
CONTINUOUS
 62
     3
 10
440.0
 20
-185.0
 30
0.0
 11
440.0
 21
-200.0
 31
0.0
  0
LINE
  5
C51
  8
OUTLINE
  6
CONTINOUS
 62
     3
 10
320.0
 20
-200.0
 30
0.0
 11
320.0
 21
0.0
 31
0.0
  0
LINE
  5
C52
  8
SIZE
  6
CONTINUOUS
 62
    30
 10
-20.0
 20
-600.0
 30
0.0
 11
-629.97719400000017
 21
-600.0
 31
0.0
  0
LINE
  5
C53
  8
SIZE
  6
CONTINUOUS
 62
    30
 10
-40.0
 20
-260.0
 30
0.0
 11
-629.97719400000017
 21
-260.0
 31
0.0
  0
LINE
  5
C54
  8
SIZE
  6
CONTINUOUS
 62
    30
 10
-609.97719400000005
 20
-588.0
 30
0.0
 11
-609.97719400000005
 21
-272.0
 31
0.0
  0
TEXT
  5
C55
  8
SIZE
  6
CONTINUOUS
 62
    30
 10
-634.97719400000005
 20
-504.05714285714282
 30
0.0
 40
64.0
  1
340
 50
90.0
 41
0.9
 72
     1
 11
-634.97719400000005
 21
-430.0
 31
0.0
  0
CIRCLE
  5
C56
  8
SIZE
  6
CONTINUOUS
 62
    30
 10
-609.97719400000005
 20
-600.0
 30
0.0
 40
6.0
  0
LINE
  5
C57
  8
SIZE
  6
CONTINUOUS
 62
    30
 10
-609.97719400000005
 20
-600.0
 30
0.0
 11
-609.97719400000005
 21
-588.0
 31
0.0
  0
CIRCLE
  5
C58
  8
SIZE
  6
CONTINUOUS
 62
    30
 10
-609.97719400000005
 20
-260.0
 30
0.0
 40
6.0
  0
LINE
  5
C59
  8
SIZE
  6
CONTINUOUS
 62
    30
 10
-609.97719400000005
 20
-260.0
 30
0.0
 11
-609.97719400000005
 21
-272.0
 31
0.0
  0
LINE
  5
C5A
  8
SIZE
  6
CONTINUOUS
 62
    30
 10
-20.0
 20
-600.0
 30
0.0
 11
-503.371128
 21
-600.0
 31
0.0
  0
LINE
  5
C5B
  8
SIZE
  6
CONTINUOUS
 62
    30
 10
-40.0
 20
-495.0
 30
0.0
 11
-503.371128
 21
-495.0
 31
0.0
  0
LINE
  5
C5C
  8
SIZE
  6
CONTINUOUS
 62
    30
 10
-483.371128
 20
-588.0
 30
0.0
 11
-483.371128
 21
-507.0
 31
0.0
  0
LINE
  5
C5D
  8
SIZE
  6
CONTINUOUS
 62
    30
 10
-483.371128
 20
-814.62909100000013
 30
0.0
 11
-483.371128
 21
-600.0
 31
0.0
  0
TEXT
  5
C5E
  8
SIZE
  6
CONTINUOUS
 62
    30
 10
-508.371128
 20
-789.62909057142861
 30
0.0
 40
64.0
  1
105
 50
90.0
 41
0.9
 72
     1
 11
-508.371128
 21
-721.05766200000005
 31
0.0
  0
CIRCLE
  5
C5F
  8
SIZE
  6
CONTINUOUS
 62
    30
 10
-483.371128
 20
-600.0
 30
0.0
 40
6.0
  0
LINE
  5
C60
  8
SIZE
  6
CONTINUOUS
 62
    30
 10
-483.371128
 20
-600.0
 30
0.0
 11
-483.371128
 21
-588.0
 31
0.0
  0
CIRCLE
  5
C61
  8
SIZE
  6
CONTINUOUS
 62
    30
 10
-483.371128
 20
-495.0
 30
0.0
 40
6.0
  0
LINE
  5
C62
  8
SIZE
  6
CONTINUOUS
 62
    30
 10
-483.371128
 20
-495.0
 30
0.0
 11
-483.371128
 21
-507.0
 31
0.0
  0
LINE
  5
C63
  8
SIZE
  6
CONTINUOUS
 62
    30
 10
145.0
 20
100.9848499999997
 30
0.0
 11
145.0
 21
623.63629899999989
 31
0.0
  0
LINE
  5
C64
  8
SIZE
  6
CONTINUOUS
 62
    30
 10
365.0
 20
80.98484999999998
 30
0.0
 11
365.0
 21
623.63629899999989
 31
0.0
  0
LINE
  5
C65
  8
SIZE
  6
CONTINUOUS
 62
    30
 10
157.0
 20
603.63629900000001
 30
0.0
 11
353.0
 21
603.63629900000001
 31
0.0
  0
LINE
  5
C66
  8
SIZE
  6
CONTINUOUS
 62
    30
 10
693.702676
 20
603.63629900000001
 30
0.0
 11
365.0
 21
603.63629900000001
 31
0.0
  0
TEXT
  5
C67
  8
SIZE
  6
CONTINUOUS
 62
    30
 10
520.58839014285707
 20
628.63629900000001
 30
0.0
 40
64.0
  1
220
 41
0.9
 72
     1
 11
594.645533
 21
628.63629900000001
 31
0.0
  0
CIRCLE
  5
C68
  8
SIZE
  6
CONTINUOUS
 62
    30
 10
145.0
 20
603.63629900000001
 30
0.0
 40
6.0
  0
LINE
  5
C69
  8
SIZE
  6
CONTINUOUS
 62
    30
 10
145.0
 20
603.63629900000001
 30
0.0
 11
157.0
 21
603.63629900000001
 31
0.0
  0
CIRCLE
  5
C6A
  8
SIZE
  6
CONTINUOUS
 62
    30
 10
365.0
 20
603.63629900000001
 30
0.0
 40
6.0
  0
LINE
  5
C6B
  8
SIZE
  6
CONTINUOUS
 62
    30
 10
365.0
 20
603.63629900000001
 30
0.0
 11
353.0
 21
603.63629900000001
 31
0.0
  0
LINE
  5
C6C
  8
SIZE
  6
CONTINUOUS
 62
    30
 10
270.0
 20
10.0
 30
0.0
 11
270.0
 21
715.76379799999995
 31
0.0
  0
LINE
  5
C6D
  8
SIZE
  6
CONTINUOUS
 62
    30
 10
12.0
 20
695.76379800000018
 30
0.0
 11
258.0
 21
695.76379800000018
 31
0.0
  0
TEXT
  5
C6E
  8
SIZE
  6
CONTINUOUS
 62
    30
 10
60.94285714285715
 20
722.85356300000001
 30
0.0
 40
64.0
  1
270
 41
0.9
 72
     1
 11
135.0
 21
722.85356300000001
 31
0.0
  0
CIRCLE
  5
C6F
  8
SIZE
  6
CONTINUOUS
 62
    30
 10
0.0
 20
695.76379800000018
 30
0.0
 40
6.0
  0
LINE
  5
C70
  8
SIZE
  6
CONTINUOUS
 62
    30
 10
0.0
 20
695.76379800000018
 30
0.0
 11
12.0
 21
695.76379800000018
 31
0.0
  0
CIRCLE
  5
C71
  8
SIZE
  6
CONTINUOUS
 62
    30
 10
270.0
 20
695.76379800000018
 30
0.0
 40
6.0
  0
LINE
  5
C72
  8
SIZE
  6
CONTINUOUS
 62
    30
 10
270.0
 20
695.76379800000018
 30
0.0
 11
258.0
 21
695.76379800000018
 31
0.0
  0
LINE
  5
C73
  8
SIZE
  6
CONTINUOUS
 62
    30
 10
480.0
 20
20.0
 30
0.0
 11
480.0
 21
715.76379799999995
 31
0.0
  0
LINE
  5
C74
  8
SIZE
  6
CONTINUOUS
 62
    30
 10
320.0
 20
20.0
 30
0.0
 11
320.0
 21
715.76379799999995
 31
0.0
  0
LINE
  5
C75
  8
SIZE
  6
CONTINUOUS
 62
    30
 10
468.0
 20
695.76379800000018
 30
0.0
 11
332.0
 21
695.76379800000018
 31
0.0
  0
TEXT
  5
C76
  8
SIZE
  6
CONTINUOUS
 62
    30
 10
331.42857142857139
 20
722.85356300000001
 30
0.0
 40
64.0
  1
160
 41
0.9
 72
     1
 11
400.0
 21
722.85356300000001
 31
0.0
  0
CIRCLE
  5
C77
  8
SIZE
  6
CONTINUOUS
 62
    30
 10
480.0
 20
695.76379800000018
 30
0.0
 40
6.0
  0
LINE
  5
C78
  8
SIZE
  6
CONTINUOUS
 62
    30
 10
480.0
 20
695.76379800000018
 30
0.0
 11
468.0
 21
695.76379800000018
 31
0.0
  0
CIRCLE
  5
C79
  8
SIZE
  6
CONTINUOUS
 62
    30
 10
320.0
 20
695.76379800000018
 30
0.0
 40
6.0
  0
LINE
  5
C7A
  8
SIZE
  6
CONTINUOUS
 62
    30
 10
320.0
 20
695.76379800000018
 30
0.0
 11
332.0
 21
695.76379800000018
 31
0.0
  0
LINE
  5
C7B
  8
SIZE
  6
CONTINUOUS
 62
    30
 10
480.0
 20
20.0
 30
0.0
 11
480.0
 21
837.71275400000002
 31
0.0
  0
LINE
  5
C7C
  8
SIZE
  6
CONTINUOUS
 62
    30
 10
12.0
 20
817.71275400000002
 30
0.0
 11
468.0
 21
817.71275400000002
 31
0.0
  0
TEXT
  5
C7D
  8
SIZE
  6
CONTINUOUS
 62
    30
 10
165.94285714285721
 20
844.465733
 30
0.0
 40
64.0
  1
480
 41
0.9
 72
     1
 11
240.0
 21
844.465733
 31
0.0
  0
CIRCLE
  5
C7E
  8
SIZE
  6
CONTINUOUS
 62
    30
 10
0.0
 20
817.71275400000002
 30
0.0
 40
6.0
  0
LINE
  5
C7F
  8
SIZE
  6
CONTINUOUS
 62
    30
 10
0.0
 20
817.71275400000002
 30
0.0
 11
12.0
 21
817.71275400000002
 31
0.0
  0
CIRCLE
  5
C80
  8
SIZE
  6
CONTINUOUS
 62
    30
 10
480.0
 20
817.71275400000002
 30
0.0
 40
6.0
  0
LINE
  5
C81
  8
SIZE
  6
CONTINUOUS
 62
    30
 10
480.0
 20
817.71275400000002
 30
0.0
 11
468.0
 21
817.71275400000002
 31
0.0
  0
LINE
  5
C82
  8
SIZE
  6
CONTINUOUS
 62
    30
 10
2.0
 20
603.63629900000001
 30
0.0
 11
-208.555767
 21
603.63629900000001
 31
0.0
  0
LINE
  5
C83
  8
NOTE
  6
CONTINUOUS
 62
     4
 10
0.0
 20
-495.0
 30
0.0
 11
-56.525725000000001
 21
-729.25006599999983
 31
0.0
  0
LINE
  5
C84
  8
NOTE
  6
CONTINUOUS
 62
     4
 10
-20.324082000000001
 20
-529.45187499999986
 30
0.0
 11
0.0
 21
-495.0
 31
0.0
  0
LINE
  5
C85
  8
NOTE
  6
CONTINUOUS
 62
     4
 10
0.0
 20
-495.0
 30
0.0
 11
-0.375234
 21
-534.99824000000001
 31
0.0
  0
LINE
  5
C86
  8
NOTE
  6
CONTINUOUS
 62
     4
 10
255.0
 20
-200.0
 30
0.0
 11
611.65360999999984
 21
-358.656093
 31
0.0
  0
LINE
  5
C87
  8
NOTE
  6
CONTINUOUS
 62
     4
 10
286.5005779999999
 20
-224.651848
 30
0.0
 11
255.0
 21
-200.0
 31
0.0
  0
LINE
  5
C88
  8
NOTE
  6
CONTINUOUS
 62
     4
 10
255.0
 20
-200.0
 30
0.0
 11
294.60622499999999
 21
-205.598837
 31
0.0
  0
TEXT
  5
C89
  8
NOTE
  6
CONTINUOUS
 62
     4
 10
606.19274800000005
 20
-330.71655099999992
 30
0.0
 40
64.0
  1
AH 2-φ25
 41
0.9
  0
LINE
  5
C8A
  8
NOTE
  6
CONTINUOUS
 62
     4
 10
611.65360999999984
 20
-358.656093
 30
0.0
 11
1076.795991
 21
-358.656093
 31
0.0
  0
LINE
  5
C8B
  8
SIZE
  6
CONTINUOUS
 62
    30
 10
484.35512499999987
 20
-200.0
 30
0.0
 11
1509.906367
 21
-200.0
 31
0.0
  0
LINE
  5
C8C
  8
SIZE
  6
CONTINUOUS
 62
    30
 10
500.0
 20
-185.0
 30
0.0
 11
1509.906367
 21
-185.0
 31
0.0
  0
LINE
  5
C8D
  8
SIZE
  6
CONTINUOUS
 62
    30
 10
1489.906367
 20
-212.0
 30
0.0
 11
1489.906367
 21
-224.0
 31
0.0
  0
LINE
  5
C8E
  8
SIZE
  6
CONTINUOUS
 62
    30
 10
1489.906367
 20
-173.0
 30
0.0
 11
1489.906367
 21
-161.0
 31
0.0
  0
LINE
  5
C8F
  8
SIZE
  6
CONTINUOUS
 62
    30
 10
1489.906367
 20
-378.68744800000002
 30
0.0
 11
1489.906367
 21
-200.0
 31
0.0
  0
TEXT
  5
C90
  8
SIZE
  6
CONTINUOUS
 62
    30
 10
1464.906367
 20
-353.68744714285691
 30
0.0
 40
64.0
  1
15
 50
90.0
 41
0.9
 72
     1
 11
1464.906367
 21
-312.5445899999998
 31
0.0
  0
LINE
  5
C91
  8
SIZE
  6
CONTINUOUS
 62
    30
 10
1489.906367
 20
-200.0
 30
0.0
 11
1489.906367
 21
-185.0
 31
0.0
  0
LINE
  5
C92
  8
SIZE
  6
CONTINUOUS
 62
    30
 10
1489.906367
 20
-200.0
 30
0.0
 11
1489.906367
 21
-185.0
 31
0.0
  0
CIRCLE
  5
C93
  8
SIZE
  6
CONTINUOUS
 62
    30
 10
1489.906367
 20
-200.0
 30
0.0
 40
6.0
  0
LINE
  5
C94
  8
SIZE
  6
CONTINUOUS
 62
    30
 10
1489.906367
 20
-200.0
 30
0.0
 11
1489.906367
 21
-212.0
 31
0.0
  0
CIRCLE
  5
C95
  8
SIZE
  6
CONTINUOUS
 62
    30
 10
1489.906367
 20
-185.0
 30
0.0
 40
6.0
  0
LINE
  5
C96
  8
SIZE
  6
CONTINUOUS
 62
    30
 10
1489.906367
 20
-185.0
 30
0.0
 11
1489.906367
 21
-173.0
 31
0.0
  0
LINE
  5
C97
  8
SIZE
  6
CONTINUOUS
 62
    30
 10
500.0
 20
-185.0
 30
0.0
 11
1509.906367
 21
-185.0
 31
0.0
  0
LINE
  5
C98
  8
SIZE
  6
CONTINUOUS
 62
    30
 10
500.0
 20
0.0
 30
0.0
 11
1509.906367
 21
0.0
 31
0.0
  0
LINE
  5
C99
  8
SIZE
  6
CONTINUOUS
 62
    30
 10
1489.906367
 20
-173.0
 30
0.0
 11
1489.906367
 21
-12.0
 31
0.0
  0
TEXT
  5
C9A
  8
SIZE
  6
CONTINUOUS
 62
    30
 10
1464.5906849999999
 20
-161.0714285714285
 30
0.0
 40
64.0
  1
185
 50
90.0
 41
0.9
 72
     1
 11
1464.5906849999999
 21
-92.5
 31
0.0
  0
CIRCLE
  5
C9B
  8
SIZE
  6
CONTINUOUS
 62
    30
 10
1489.906367
 20
-185.0
 30
0.0
 40
6.0
  0
LINE
  5
C9C
  8
SIZE
  6
CONTINUOUS
 62
    30
 10
1489.906367
 20
-185.0
 30
0.0
 11
1489.906367
 21
-173.0
 31
0.0
  0
CIRCLE
  5
C9D
  8
SIZE
  6
CONTINUOUS
 62
    30
 10
1489.906367
 20
0.0
 30
0.0
 40
6.0
  0
LINE
  5
C9E
  8
SIZE
  6
CONTINUOUS
 62
    30
 10
1489.906367
 20
0.0
 30
0.0
 11
1489.906367
 21
-12.0
 31
0.0
  0
LINE
  5
C9F
  8
SIZE
  6
CONTINUOUS
 62
    30
 10
484.35512499999987
 20
-200.0
 30
0.0
 11
1371.0198740000001
 21
-200.0
 31
0.0
  0
LINE
  5
CA0
  8
SIZE
  6
CONTINUOUS
 62
    30
 10
1351.0198740000001
 20
-188.0
 30
0.0
 11
1351.0198740000001
 21
-22.0
 31
0.0
  0
TEXT
  5
CA1
  8
SIZE
  6
CONTINUOUS
 62
    30
 10
1327.796118
 20
-173.5714285714285
 30
0.0
 40
64.0
  1
190
 50
90.0
 41
0.9
 72
     1
 11
1327.796118
 21
-105.0
 31
0.0
  0
CIRCLE
  5
CA2
  8
SIZE
  6
CONTINUOUS
 62
    30
 10
1351.0198740000001
 20
-200.0
 30
0.0
 40
6.0
  0
LINE
  5
CA3
  8
SIZE
  6
CONTINUOUS
 62
    30
 10
1351.0198740000001
 20
-200.0
 30
0.0
 11
1351.0198740000001
 21
-188.0
 31
0.0
  0
CIRCLE
  5
CA4
  8
SIZE
  6
CONTINUOUS
 62
    30
 10
1351.0198740000001
 20
-10.0
 30
0.0
 40
6.0
  0
LINE
  5
CA5
  8
SIZE
  6
CONTINUOUS
 62
    30
 10
1351.0198740000001
 20
-10.0
 30
0.0
 11
1351.0198740000001
 21
-22.0
 31
0.0
  0
LINE
  5
CA6
  8
SIZE
  6
CONTINUOUS
 62
    30
 10
459.0
 20
45.0
 30
0.0
 11
1371.0198740000001
 21
45.0
 31
0.0
  0
LINE
  5
CA7
  8
SIZE
  6
CONTINUOUS
 62
    30
 10
1351.0198740000001
 20
-22.0
 30
0.0
 11
1351.0198740000001
 21
-34.0
 31
0.0
  0
LINE
  5
CA8
  8
SIZE
  6
CONTINUOUS
 62
    30
 10
1351.0198740000001
 20
57.0
 30
0.0
 11
1351.0198740000001
 21
69.0
 31
0.0
  0
LINE
  5
CA9
  8
SIZE
  6
CONTINUOUS
 62
    30
 10
1351.0198740000001
 20
220.41145800000001
 30
0.0
 11
1351.0198740000001
 21
45.0
 31
0.0
  0
TEXT
  5
CAA
  8
SIZE
  6
CONTINUOUS
 62
    30
 10
1326.0198740000001
 20
102.1543145714286
 30
0.0
 40
64.0
  1
55
 50
90.0
 41
0.9
 72
     1
 11
1326.0198740000001
 21
148.78288599999999
 31
0.0
  0
LINE
  5
CAB
  8
SIZE
  6
CONTINUOUS
 62
    30
 10
1351.0198740000001
 20
-10.0
 30
0.0
 11
1351.0198740000001
 21
45.0
 31
0.0
  0
LINE
  5
CAC
  8
SIZE
  6
CONTINUOUS
 62
    30
 10
1351.0198740000001
 20
-10.0
 30
0.0
 11
1351.0198740000001
 21
45.0
 31
0.0
  0
CIRCLE
  5
CAD
  8
SIZE
  6
CONTINUOUS
 62
    30
 10
1351.0198740000001
 20
-10.0
 30
0.0
 40
6.0
  0
LINE
  5
CAE
  8
SIZE
  6
CONTINUOUS
 62
    30
 10
1351.0198740000001
 20
-10.0
 30
0.0
 11
1351.0198740000001
 21
-22.0
 31
0.0
  0
CIRCLE
  5
CAF
  8
SIZE
  6
CONTINUOUS
 62
    30
 10
1351.0198740000001
 20
45.0
 30
0.0
 40
6.0
  0
LINE
  5
CB0
  8
SIZE
  6
CONTINUOUS
 62
    30
 10
1351.0198740000001
 20
45.0
 30
0.0
 11
1351.0198740000001
 21
57.0
 31
0.0
  0
TEXT
  5
CB1
  8
NOTE
  6
CONTINUOUS
 62
     4
 10
-560.55613300000005
 20
392.04280599999993
 30
0.0
 40
64.0
  1
ダクト接続口可動寸法
 41
0.9
  0
POINT
  5
CB2
  8
ARRANGE
  6
CONTINUOUS
 62
     1
 10
0.0
 20
0.0
 30
0.0
  0
CIRCLE
  5
CB3
  8
ARRANGE
  6
CONTINUOUS
 62
     1
 10
0.0
 20
0.0
 30
0.0
 40
40.0
  0
LINE
  5
CB4
  8
DETAIL
  6
CONTINUOUS
 62
     5
 10
270.0
 20
-185.0
 30
0.0
 11
291.0
 21
-200.0
 31
0.0
  0
TEXT
  5
CB5
  8
NOTE
  6
CONTINUOUS
 62
     4
 10
311.81696899999992
 20
69.260340999999997
 30
0.0
 40
64.0
  1
OA
 41
0.9
  0
TEXT
  5
CB6
  8
NOTE
  6
CONTINUOUS
 62
     4
 10
92.982314000000002
 20
57.407893000000008
 30
0.0
 40
64.0
  1
EA
 41
0.9
  0
LINE
  5
CB7
  8
BASIS
  6
DASHDOT
 62
     6
 10
246.44969499999999
 20
-100.0
 30
0.0
 11
506.09789499999988
 21
-100.0
 31
0.0
  0
CIRCLE
  5
CB8
  8
DETAIL
  6
PHANTOM
 62
     5
 10
365.0
 20
-100.0
 30
0.0
 40
80.0
  0
LINE
  5
CB9
  8
SIZE
  6
CONTINUOUS
 62
    30
 10
392.95429100000001
 20
-600.0
 30
0.0
 11
1247.044251
 21
-600.0
 31
0.0
  0
LINE
  5
CBA
  8
SIZE
  6
CONTINUOUS
 62
    30
 10
526.09789499999999
 20
-100.0
 30
0.0
 11
1247.044251
 21
-100.0
 31
0.0
  0
LINE
  5
CBB
  8
SIZE
  6
CONTINUOUS
 62
    30
 10
1227.044251
 20
-588.0
 30
0.0
 11
1227.044251
 21
-112.0
 31
0.0
  0
TEXT
  5
CBC
  8
SIZE
  6
CONTINUOUS
 62
    30
 10
1202.80026
 20
-422.05474485714268
 30
0.0
 40
64.0
  1
500
 50
90.0
 41
0.9
 72
     1
 11
1202.80026
 21
-347.99760199999992
 31
0.0
  0
CIRCLE
  5
CBD
  8
SIZE
  6
CONTINUOUS
 62
    30
 10
1227.044251
 20
-600.0
 30
0.0
 40
6.0
  0
LINE
  5
CBE
  8
SIZE
  6
CONTINUOUS
 62
    30
 10
1227.044251
 20
-600.0
 30
0.0
 11
1227.044251
 21
-588.0
 31
0.0
  0
CIRCLE
  5
CBF
  8
SIZE
  6
CONTINUOUS
 62
    30
 10
1227.044251
 20
-100.0
 30
0.0
 40
6.0
  0
LINE
  5
CC0
  8
SIZE
  6
CONTINUOUS
 62
    30
 10
1227.044251
 20
-100.0
 30
0.0
 11
1227.044251
 21
-112.0
 31
0.0
  0
TEXT
  5
CC1
  8
NOTE
  6
CONTINUOUS
 62
     4
 10
592.71033699999998
 20
458.34375699999998
 30
0.0
 40
64.0
  1
上部右側給気接続口
 41
0.9
  0
LINE
  5
CC2
  8
NOTE
  6
CONTINUOUS
 62
     4
 10
583.05680800000005
 20
430.46659799999998
 30
0.0
 11
1201.0559559999999
 21
430.46659799999998
 31
0.0
  0
LINE
  5
CC3
  8
SIZE
  6
CONTINUOUS
 62
    30
 10
139.0
 20
78.529285999999999
 30
0.0
 11
139.0
 21
494.03518899999989
 31
0.0
  0
LINE
  5
CC4
  8
SIZE
  6
CONTINUOUS
 62
    30
 10
151.0
 20
78.529285999999999
 30
0.0
 11
151.0
 21
494.03518899999989
 31
0.0
  0
LINE
  5
CC5
  8
SIZE
  6
CONTINUOUS
 62
    30
 10
127.0
 20
474.03518899999989
 30
0.0
 11
115.0
 21
474.03518899999989
 31
0.0
  0
LINE
  5
CC6
  8
SIZE
  6
CONTINUOUS
 62
    30
 10
163.0
 20
474.03518899999989
 30
0.0
 11
175.0
 21
474.03518899999989
 31
0.0
  0
LINE
  5
CC7
  8
SIZE
  6
CONTINUOUS
 62
    30
 10
-291.30750699999999
 20
474.03518899999989
 30
0.0
 11
139.0
 21
474.03518899999989
 31
0.0
  0
TEXT
  5
CC8
  8
SIZE
  6
CONTINUOUS
 62
    30
 10
-266.30750714285722
 20
499.03518899999989
 30
0.0
 40
64.0
  1
12
 41
0.9
 72
     1
 11
-225.16464999999999
 21
499.03518899999989
 31
0.0
  0
LINE
  5
CC9
  8
SIZE
  6
CONTINUOUS
 62
    30
 10
139.0
 20
474.03518899999989
 30
0.0
 11
151.0
 21
474.03518899999989
 31
0.0
  0
LINE
  5
CCA
  8
SIZE
  6
CONTINUOUS
 62
    30
 10
139.0
 20
474.03518899999989
 30
0.0
 11
151.0
 21
474.03518899999989
 31
0.0
  0
CIRCLE
  5
CCB
  8
SIZE
  6
CONTINUOUS
 62
    30
 10
139.0
 20
474.03518899999989
 30
0.0
 40
6.0
  0
LINE
  5
CCC
  8
SIZE
  6
CONTINUOUS
 62
    30
 10
139.0
 20
474.03518899999989
 30
0.0
 11
127.0
 21
474.03518899999989
 31
0.0
  0
CIRCLE
  5
CCD
  8
SIZE
  6
CONTINUOUS
 62
    30
 10
151.0
 20
474.03518899999989
 30
0.0
 40
6.0
  0
LINE
  5
CCE
  8
SIZE
  6
CONTINUOUS
 62
    30
 10
151.0
 20
474.03518899999989
 30
0.0
 11
163.0
 21
474.03518899999989
 31
0.0
  0
LINE
  5
CCF
  8
SIZE
  6
CONTINUOUS
 62
    30
 10
145.0
 20
100.9848499999997
 30
0.0
 11
145.0
 21
623.63629899999989
 31
0.0
  0
LINE
  5
CD0
  8
SIZE
  6
CONTINUOUS
 62
    30
 10
12.0
 20
603.63629900000001
 30
0.0
 11
133.0
 21
603.63629900000001
 31
0.0
  0
LINE
  5
CD1
  8
SIZE
  6
CONTINUOUS
 62
    30
 10
-208.95542499999991
 20
603.63629900000001
 30
0.0
 11
0.0
 21
603.63629900000001
 31
0.0
  0
TEXT
  5
CD2
  8
SIZE
  6
CONTINUOUS
 62
    30
 10
-183.95542457142841
 20
628.63629900000001
 30
0.0
 40
64.0
  1
145
 41
0.9
 72
     1
 11
-115.3839959999999
 21
628.63629900000001
 31
0.0
  0
CIRCLE
  5
CD3
  8
SIZE
  6
CONTINUOUS
 62
    30
 10
0.0
 20
603.63629900000001
 30
0.0
 40
6.0
  0
LINE
  5
CD4
  8
SIZE
  6
CONTINUOUS
 62
    30
 10
0.0
 20
603.63629900000001
 30
0.0
 11
12.0
 21
603.63629900000001
 31
0.0
  0
CIRCLE
  5
CD5
  8
SIZE
  6
CONTINUOUS
 62
    30
 10
145.0
 20
603.63629900000001
 30
0.0
 40
6.0
  0
LINE
  5
CD6
  8
SIZE
  6
CONTINUOUS
 62
    30
 10
145.0
 20
603.63629900000001
 30
0.0
 11
133.0
 21
603.63629900000001
 31
0.0
  0
LINE
  5
CD7
  8
NOTE
  6
CONTINUOUS
 62
     4
 10
416.85737799999998
 20
45.0
 30
0.0
 11
583.05680800000005
 21
430.46659799999998
 31
0.0
  0
LINE
  5
CD8
  8
NOTE
  6
CONTINUOUS
 62
     4
 10
442.47647699999987
 20
75.719077999999982
 30
0.0
 11
416.85737799999998
 21
45.0
 31
0.0
  0
LINE
  5
CD9
  8
NOTE
  6
CONTINUOUS
 62
     4
 10
416.85737799999998
 20
45.0
 30
0.0
 11
423.68462899999992
 21
84.413051999999979
 31
0.0
  0
LINE
  5
CDA
  8
DETAIL
  6
CONTINUOUS
 62
     5
 10
236.0
 20
-200.0
 30
0.0
 11
236.0
 21
-18.0
 31
0.0
  0
LINE
  5
CDB
  8
DETAIL
  6
CONTINUOUS
 62
     5
 10
54.0
 20
-18.0
 30
0.0
 11
236.0
 21
-18.0
 31
0.0
  0
LINE
  5
CDC
  8
DETAIL
  6
CONTINUOUS
 62
     5
 10
54.0
 20
-200.0
 30
0.0
 11
54.0
 21
-18.0
 31
0.0
  0
LINE
  5
CDD
  8
DETAIL
  6
CONTINUOUS
 62
     5
 10
61.0
 20
-18.0
 30
0.0
 11
71.0
 21
-8.0
 31
0.0
  0
LINE
  5
CDE
  8
DETAIL
  6
CONTINUOUS
 62
     5
 10
71.0
 20
37.0
 30
0.0
 11
219.0
 21
37.0
 31
0.0
  0
LINE
  5
CDF
  8
DETAIL
  6
CONTINUOUS
 62
     5
 10
71.0
 20
-8.0
 30
0.0
 11
219.0
 21
-8.0
 31
0.0
  0
LINE
  5
CE0
  8
DETAIL
  6
CONTINUOUS
 62
     5
 10
219.0
 20
-8.0
 30
0.0
 11
219.0
 21
37.0
 31
0.0
  0
LINE
  5
CE1
  8
DETAIL
  6
CONTINUOUS
 62
     5
 10
71.0
 20
-8.0
 30
0.0
 11
71.0
 21
37.0
 31
0.0
  0
LINE
  5
CE2
  8
BASIS
  6
DASHDOT
 62
     6
 10
139.0
 20
-219.31054700000001
 30
0.0
 11
139.0
 21
58.529285999999999
 31
0.0
  0
LINE
  5
CE3
  8
BASIS
  6
DASHDOT
 62
     6
 10
151.0
 20
-219.31054700000001
 30
0.0
 11
151.0
 21
58.529285999999999
 31
0.0
  0
LINE
  5
CE4
  8
SIZE
  6
CONTINUOUS
 62
    30
 10
-20.0
 20
-200.0
 30
0.0
 11
-752.35662699999989
 21
-200.0
 31
0.0
  0
LINE
  5
CE5
  8
SIZE
  6
CONTINUOUS
 62
    30
 10
34.0
 20
-18.0
 30
0.0
 11
-752.35662699999989
 21
-18.0
 31
0.0
  0
LINE
  5
CE6
  8
SIZE
  6
CONTINUOUS
 62
    30
 10
-732.356627
 20
-212.0
 30
0.0
 11
-732.356627
 21
-224.0
 31
0.0
  0
LINE
  5
CE7
  8
SIZE
  6
CONTINUOUS
 62
    30
 10
-732.356627
 20
-6.0
 30
0.0
 11
-732.356627
 21
6.0
 31
0.0
  0
LINE
  5
CE8
  8
SIZE
  6
CONTINUOUS
 62
    30
 10
-732.356627
 20
-200.0
 30
0.0
 11
-732.356627
 21
-18.0
 31
0.0
  0
CIRCLE
  5
CE9
  8
SIZE
  6
CONTINUOUS
 62
    30
 10
-732.356627
 20
-200.0
 30
0.0
 40
6.0
  0
LINE
  5
CEA
  8
SIZE
  6
CONTINUOUS
 62
    30
 10
-732.356627
 20
-200.0
 30
0.0
 11
-732.356627
 21
-212.0
 31
0.0
  0
CIRCLE
  5
CEB
  8
SIZE
  6
CONTINUOUS
 62
    30
 10
-732.356627
 20
-18.0
 30
0.0
 40
6.0
  0
LINE
  5
CEC
  8
SIZE
  6
CONTINUOUS
 62
    30
 10
-732.356627
 20
-18.0
 30
0.0
 11
-732.356627
 21
-6.0
 31
0.0
  0
TEXT
  5
CED
  8
SIZE
  6
CONTINUOUS
 62
    30
 10
-757.356627
 20
-177.5714285714285
 30
0.0
 40
64.0
  1
182
 50
90.0
 41
0.9
 72
     1
 11
-757.356627
 21
-109.0
 31
0.0
  0
LINE
  5
CEE
  8
SIZE
  6
CONTINUOUS
 62
    30
 10
34.0
 20
-18.0
 30
0.0
 11
-752.35662699999989
 21
-18.0
 31
0.0
  0
LINE
  5
CEF
  8
SIZE
  6
CONTINUOUS
 62
    30
 10
51.0
 20
37.0
 30
0.0
 11
-752.35662699999989
 21
37.0
 31
0.0
  0
LINE
  5
CF0
  8
SIZE
  6
CONTINUOUS
 62
    30
 10
-732.356627
 20
-30.0
 30
0.0
 11
-732.356627
 21
-42.0
 31
0.0
  0
LINE
  5
CF1
  8
SIZE
  6
CONTINUOUS
 62
    30
 10
-732.356627
 20
49.0
 30
0.0
 11
-732.356627
 21
61.0
 31
0.0
  0
LINE
  5
CF2
  8
SIZE
  6
CONTINUOUS
 62
    30
 10
-732.356627
 20
204.9007399999999
 30
0.0
 11
-732.356627
 21
37.0
 31
0.0
  0
TEXT
  5
CF3
  8
SIZE
  6
CONTINUOUS
 62
    30
 10
-757.356627
 20
86.643597571428515
 30
0.0
 40
64.0
  1
55
 50
90.0
 41
0.9
 72
     1
 11
-757.356627
 21
133.27216899999991
 31
0.0
  0
LINE
  5
CF4
  8
SIZE
  6
CONTINUOUS
 62
    30
 10
-732.356627
 20
-18.0
 30
0.0
 11
-732.356627
 21
37.0
 31
0.0
  0
LINE
  5
CF5
  8
SIZE
  6
CONTINUOUS
 62
    30
 10
-732.356627
 20
-18.0
 30
0.0
 11
-732.356627
 21
37.0
 31
0.0
  0
CIRCLE
  5
CF6
  8
SIZE
  6
CONTINUOUS
 62
    30
 10
-732.356627
 20
-18.0
 30
0.0
 40
6.0
  0
LINE
  5
CF7
  8
SIZE
  6
CONTINUOUS
 62
    30
 10
-732.356627
 20
-18.0
 30
0.0
 11
-732.356627
 21
-30.0
 31
0.0
  0
CIRCLE
  5
CF8
  8
SIZE
  6
CONTINUOUS
 62
    30
 10
-732.356627
 20
37.0
 30
0.0
 40
6.0
  0
LINE
  5
CF9
  8
SIZE
  6
CONTINUOUS
 62
    30
 10
-732.356627
 20
37.0
 30
0.0
 11
-732.356627
 21
49.0
 31
0.0
  0
LINE
  5
CFA
  8
DETAIL
  6
PHANTOM
 62
     5
 10
281.0
 20
-10.0
 30
0.0
 11
291.0
 21
0.0
 31
0.0
  0
LINE
  5
CFB
  8
DETAIL
  6
CONTINUOUS
 62
     5
 10
229.0
 20
-18.0
 30
0.0
 11
219.0
 21
-8.0
 31
0.0
  0
LINE
  5
CFC
  8
BASIS
  6
DASHDOT
 62
     6
 10
82.407601000000014
 20
-109.0
 30
0.0
 11
-20.077959
 21
-109.0
 31
0.0
  0
LINE
  5
CFD
  8
DETAIL
  6
PHANTOM
 62
     5
 10
44.0
 20
-183.0
 30
0.0
 11
-1.0
 21
-183.0
 31
0.0
  0
LINE
  5
CFE
  8
DETAIL
  6
PHANTOM
 62
     5
 10
44.0
 20
-35.0
 30
0.0
 11
-1.0
 21
-35.0
 31
0.0
  0
LINE
  5
CFF
  8
DETAIL
  6
PHANTOM
 62
     5
 10
44.0
 20
-183.0
 30
0.0
 11
44.0
 21
-35.0
 31
0.0
  0
LINE
  5
D00
  8
DETAIL
  6
PHANTOM
 62
     5
 10
54.0
 20
-25.0
 30
0.0
 11
44.0
 21
-35.0
 31
0.0
  0
LINE
  5
D01
  8
DETAIL
  6
PHANTOM
 62
     5
 10
-1.0
 20
-183.0
 30
0.0
 11
-1.0
 21
-35.0
 31
0.0
  0
LINE
  5
D02
  8
SIZE
  6
CONTINUOUS
 62
    30
 10
-20.0
 20
-200.0
 30
0.0
 11
-626.83329100000003
 21
-200.0
 31
0.0
  0
LINE
  5
D03
  8
SIZE
  6
CONTINUOUS
 62
    30
 10
-40.077959
 20
-109.0
 30
0.0
 11
-626.83329100000003
 21
-109.0
 31
0.0
  0
LINE
  5
D04
  8
SIZE
  6
CONTINUOUS
 62
    30
 10
-606.83329100000003
 20
-188.0
 30
0.0
 11
-606.83329100000003
 21
-121.0
 31
0.0
  0
LINE
  5
D05
  8
SIZE
  6
CONTINUOUS
 62
    30
 10
-606.83329100000003
 20
151.012179
 30
0.0
 11
-606.83329100000003
 21
-109.0
 31
0.0
  0
TEXT
  5
D06
  8
SIZE
  6
CONTINUOUS
 62
    30
 10
-631.83329100000003
 20
57.440750714285713
 30
0.0
 40
64.0
  1
91
 50
90.0
 41
0.9
 72
     1
 11
-631.83329100000003
 21
91.726465000000005
 31
0.0
  0
CIRCLE
  5
D07
  8
SIZE
  6
CONTINUOUS
 62
    30
 10
-606.83329100000003
 20
-200.0
 30
0.0
 40
6.0
  0
LINE
  5
D08
  8
SIZE
  6
CONTINUOUS
 62
    30
 10
-606.83329100000003
 20
-200.0
 30
0.0
 11
-606.83329100000003
 21
-188.0
 31
0.0
  0
CIRCLE
  5
D09
  8
SIZE
  6
CONTINUOUS
 62
    30
 10
-606.83329100000003
 20
-109.0
 30
0.0
 40
6.0
  0
LINE
  5
D0A
  8
SIZE
  6
CONTINUOUS
 62
    30
 10
-606.83329100000003
 20
-109.0
 30
0.0
 11
-606.83329100000003
 21
-121.0
 31
0.0
  0
LINE
  5
D0B
  8
DETAIL
  6
CONTINUOUS
 62
     5
 10
224.0
 20
-200.0
 30
0.0
 11
224.0
 21
-70.0
 31
0.0
  0
LINE
  5
D0C
  8
DETAIL
  6
CONTINOUS
 62
     5
 10
224.0
 20
-70.0
 30
0.0
 11
54.0
 21
-70.0
 31
0.0
  0
LINE
  5
D0D
  8
SIZE
  6
CONTINUOUS
 62
    30
 10
0.0
 20
-620.0
 30
0.0
 11
0.0
 21
-747.76205799999968
 31
0.0
  0
LINE
  5
D0E
  8
SIZE
  6
CONTINUOUS
 62
    30
 10
255.0
 20
-240.0
 30
0.0
 11
255.0
 21
-747.76205799999968
 31
0.0
  0
LINE
  5
D0F
  8
SIZE
  6
CONTINUOUS
 62
    30
 10
12.0
 20
-727.76205800000002
 30
0.0
 11
243.0
 21
-727.76205800000002
 31
0.0
  0
CIRCLE
  5
D10
  8
SIZE
  6
CONTINUOUS
 62
    30
 10
0.0
 20
-727.76205800000002
 30
0.0
 40
6.0
  0
LINE
  5
D11
  8
SIZE
  6
CONTINUOUS
 62
    30
 10
0.0
 20
-727.76205800000002
 30
0.0
 11
12.0
 21
-727.76205800000002
 31
0.0
  0
CIRCLE
  5
D12
  8
SIZE
  6
CONTINUOUS
 62
    30
 10
255.0
 20
-727.76205800000002
 30
0.0
 40
6.0
  0
LINE
  5
D13
  8
SIZE
  6
CONTINUOUS
 62
    30
 10
255.0
 20
-727.76205800000002
 30
0.0
 11
243.0
 21
-727.76205800000002
 31
0.0
  0
TEXT
  5
D14
  8
SIZE
  6
CONTINUOUS
 62
    30
 10
53.44285714285715
 20
-702.76205800000002
 30
0.0
 40
64.0
  1
255
 41
0.9
 72
     1
 11
127.5
 21
-702.76205800000002
 31
0.0
  0
TEXT
  5
D15
  8
NOTE
  6
CONTINUOUS
 62
     4
 10
-836.87488699999994
 20
253.16011099999989
 30
0.0
 40
64.0
  1
後部排気接続口
 41
0.9
  0
LINE
  5
D16
  8
NOTE
  6
CONTINUOUS
 62
     4
 10
-359.50189599999987
 20
232.76053899999991
 30
0.0
 11
-869.598298
 21
232.76053899999991
 31
0.0
  0
LINE
  5
D17
  8
SIZE
  6
CONTINUOUS
 62
    30
 10
54.0
 20
2.0
 30
0.0
 11
54.0
 21
297.4261259999999
 31
0.0
  0
LINE
  5
D18
  8
SIZE
  6
CONTINUOUS
 62
    30
 10
236.0
 20
2.0
 30
0.0
 11
236.0
 21
297.4261259999999
 31
0.0
  0
LINE
  5
D19
  8
SIZE
  6
CONTINUOUS
 62
    30
 10
66.0
 20
277.42612599999973
 30
0.0
 11
224.0
 21
277.42612599999973
 31
0.0
  0
LINE
  5
D1A
  8
SIZE
  6
CONTINUOUS
 62
    30
 10
-236.972747
 20
277.42612599999973
 30
0.0
 11
54.0
 21
277.42612599999973
 31
0.0
  0
TEXT
  5
D1B
  8
SIZE
  6
CONTINUOUS
 62
    30
 10
-215.8127475714285
 20
302.42612599999973
 30
0.0
 40
64.0
  1
□182
 41
0.9
 72
     1
 11
-110.761319
 21
302.42612599999973
 31
0.0
  0
CIRCLE
  5
D1C
  8
SIZE
  6
CONTINUOUS
 62
    30
 10
54.0
 20
277.42612599999973
 30
0.0
 40
6.0
  0
LINE
  5
D1D
  8
SIZE
  6
CONTINUOUS
 62
    30
 10
54.0
 20
277.42612599999973
 30
0.0
 11
66.0
 21
277.42612599999973
 31
0.0
  0
CIRCLE
  5
D1E
  8
SIZE
  6
CONTINUOUS
 62
    30
 10
236.0
 20
277.42612599999973
 30
0.0
 40
6.0
  0
LINE
  5
D1F
  8
SIZE
  6
CONTINUOUS
 62
    30
 10
236.0
 20
277.42612599999973
 30
0.0
 11
224.0
 21
277.42612599999973
 31
0.0
  0
LINE
  5
D20
  8
SIZE
  6
CONTINUOUS
 62
    30
 10
71.0
 20
57.0
 30
0.0
 11
71.0
 21
190.03580600000001
 31
0.0
  0
LINE
  5
D21
  8
SIZE
  6
CONTINUOUS
 62
    30
 10
219.0
 20
57.0
 30
0.0
 11
219.0
 21
190.03580600000001
 31
0.0
  0
LINE
  5
D22
  8
SIZE
  6
CONTINUOUS
 62
    30
 10
83.0
 20
170.03580600000001
 30
0.0
 11
207.0
 21
170.03580600000001
 31
0.0
  0
LINE
  5
D23
  8
SIZE
  6
CONTINUOUS
 62
    30
 10
-238.206087
 20
170.03580600000001
 30
0.0
 11
71.0
 21
170.03580600000001
 31
0.0
  0
TEXT
  5
D24
  8
SIZE
  6
CONTINUOUS
 62
    30
 10
-227.4689435714285
 20
195.03580600000001
 30
0.0
 40
64.0
  1
φ148
 41
0.9
 72
     1
 11
-118.57751500000001
 21
195.03580600000001
 31
0.0
  0
CIRCLE
  5
D25
  8
SIZE
  6
CONTINUOUS
 62
    30
 10
71.0
 20
170.03580600000001
 30
0.0
 40
6.0
  0
LINE
  5
D26
  8
SIZE
  6
CONTINUOUS
 62
    30
 10
71.0
 20
170.03580600000001
 30
0.0
 11
83.0
 21
170.03580600000001
 31
0.0
  0
CIRCLE
  5
D27
  8
SIZE
  6
CONTINUOUS
 62
    30
 10
219.0
 20
170.03580600000001
 30
0.0
 40
6.0
  0
LINE
  5
D28
  8
SIZE
  6
CONTINUOUS
 62
    30
 10
219.0
 20
170.03580600000001
 30
0.0
 11
207.0
 21
170.03580600000001
 31
0.0
  0
LINE
  5
D29
  8
NOTE
  6
CONTINUOUS
 62
     4
 10
-359.50189599999987
 20
232.76053899999991
 30
0.0
 11
-1.0
 21
-50.672184999999999
 31
0.0
  0
LINE
  5
D2A
  8
NOTE
  6
CONTINUOUS
 62
     4
 10
-24.888206
 20
-18.588643999999992
 30
0.0
 11
-1.0
 21
-50.672184999999999
 31
0.0
  0
LINE
  5
D2B
  8
NOTE
  6
CONTINUOUS
 62
     4
 10
-1.0
 20
-50.672184999999999
 30
0.0
 11
-37.729564000000003
 21
-34.831127000000002
 31
0.0
  0
LINE
  5
D2C
  8
SIZE
  6
CONTINUOUS
 62
    30
 39
50.0
 10
-291.30750699999999
 20
474.03518899999989
 30
0.0
 11
-553.20098399999995
 21
474.03518899999989
 31
0.0
  0
LINE
  5
D2D
  8
DETAIL
  6
CONTINUOUS
 62
     5
 10
640.87511600000005
 20
-531.65280700000005
 30
0.0
 11
650.03357000000005
 21
-497.47334699999999
 31
0.0
  0
ARC
  5
D2E
  8
DETAIL
  6
CONTINUOUS
 62
     5
 10
630.31375600000001
 20
-516.97660800000006
 30
0.0
 40
20.0
 50
323.96262999999999
 51
6.0370729999999986
  0
LINE
  5
D2F
  8
DETAIL
  6
CONTINUOUS
 62
     5
 10
641.89554699999997
 20
-527.84454800000003
 30
0.0
 11
645.95269800000005
 21
-528.93166900000006
 31
0.0
  0
LINE
  5
D30
  8
DETAIL
  6
CONTINUOUS
 62
     5
 10
635.31421999999975
 20
-536.95147599999984
 30
0.0
 11
636.18676600000003
 21
-537.18527599999993
 31
0.0
  0
ARC
  5
D31
  8
DETAIL
  6
CONTINUOUS
 62
     5
 10
640.39215399999978
 20
-531.52339600000005
 30
0.0
 40
0.5
 50
331.83587
 51
344.99985199999992
  0
ARC
  5
D32
  8
DETAIL
  6
CONTINUOUS
 62
     5
 10
636.44558700000005
 20
-536.21935099999985
 30
0.0
 40
1.0
 50
254.99985199999989
 51
317.35163899999992
  0
ARC
  5
D33
  8
DETAIL
  6
CONTINUOUS
 62
     5
 10
618.79297499999996
 20
-519.95942200000002
 30
0.0
 40
25.0
 50
317.35163899999992
 51
331.83587
  0
ARC
  5
D34
  8
DETAIL
  6
CONTINUOUS
 62
     5
 10
646.08210799999995
 20
-528.4487069999999
 30
0.0
 40
0.5
 50
254.99985199999989
 51
323.96262999999999
  0
ARC
  5
D35
  8
DETAIL
  6
CONTINUOUS
 62
     5
 10
625.06318699999963
 20
-496.55891600000001
 30
0.0
 40
25.0
 50
358.16383400000001
 51
12.64806499999999
  0
ARC
  5
D36
  8
DETAIL
  6
CONTINUOUS
 62
     5
 10
648.48078899999985
 20
-491.30383099999989
 30
0.0
 40
1.0
 50
12.64806499999999
 51
74.999852000000004
  0
LINE
  5
D37
  8
DETAIL
  6
CONTINUOUS
 62
     5
 10
648.73960999999963
 20
-490.3379059999998
 30
0.0
 11
647.86706500000003
 21
-490.10410599999989
 31
0.0
  0
LINE
  5
D38
  8
DETAIL
  6
CONTINUOUS
 62
     5
 10
645.77787000000001
 20
-513.35567000000003
 30
0.0
 11
649.83502099999987
 21
-514.44279200000005
 31
0.0
  0
ARC
  5
D39
  8
DETAIL
  6
CONTINUOUS
 62
     5
 10
649.70560999999998
 20
-514.92575499999975
 30
0.0
 40
0.5
 50
6.0370729999999986
 51
74.999852000000004
  0
ARC
  5
D3A
  8
DETAIL
  6
CONTINUOUS
 62
     5
 10
649.55060700000001
 20
-497.34393599999993
 30
0.0
 40
0.5
 50
344.99985199999992
 51
358.16383400000001
  0
LINE
  5
D3B
  8
DETAIL
  6
PHANTOM
 62
     5
 10
54.0
 20
-193.0
 30
0.0
 11
44.0
 21
-183.0
 31
0.0
  0
TEXT
  5
D3C
  8
NOTE
  6
CONTINUOUS
 62
     4
 10
645.50460799999985
 20
304.52190599999989
 30
0.0
 40
64.0
  1
左側面給気接続口
 41
0.9
  0
LINE
  5
D3D
  8
NOTE
  6
CONTINUOUS
 62
     4
 10
621.30785000000003
 20
276.644746
 30
0.0
 11
1184.7302269999991
 21
276.644746
 31
0.0
  0
LINE
  5
D3E
  8
NOTE
  6
CONTINUOUS
 62
     4
 10
422.459115
 20
-44.336277000000003
 30
0.0
 11
621.30785000000003
 21
276.644746
 31
0.0
  0
LINE
  5
D3F
  8
NOTE
  6
CONTINUOUS
 62
     4
 10
451.607508
 20
-16.943373000000001
 30
0.0
 11
422.459115
 21
-44.336277000000003
 31
0.0
  0
LINE
  5
D40
  8
NOTE
  6
CONTINUOUS
 62
     4
 10
422.459115
 20
-44.336277000000003
 30
0.0
 11
434.00591200000002
 21
-6.0391300000000001
 31
0.0
  0
LINE
  5
D41
  8
SIZE
  6
CONTINUOUS
 62
    30
 10
0.0
 20
-620.0
 30
0.0
 11
0.0
 21
-882.93706499999985
 31
0.0
  0
LINE
  5
D42
  8
SIZE
  6
CONTINUOUS
 62
    30
 10
370.0
 20
-620.0
 30
0.0
 11
370.0
 21
-882.93706499999985
 31
0.0
  0
LINE
  5
D43
  8
SIZE
  6
CONTINUOUS
 62
    30
 10
12.0
 20
-862.93706499999985
 30
0.0
 11
358.0
 21
-862.93706499999985
 31
0.0
  0
CIRCLE
  5
D44
  8
SIZE
  6
CONTINUOUS
 62
    30
 10
0.0
 20
-862.93706499999985
 30
0.0
 40
6.0
  0
LINE
  5
D45
  8
SIZE
  6
CONTINUOUS
 62
    30
 10
0.0
 20
-862.93706499999985
 30
0.0
 11
12.0
 21
-862.93706499999985
 31
0.0
  0
CIRCLE
  5
D46
  8
SIZE
  6
CONTINUOUS
 62
    30
 10
370.0
 20
-862.93706499999985
 30
0.0
 40
6.0
  0
LINE
  5
D47
  8
SIZE
  6
CONTINUOUS
 62
    30
 10
370.0
 20
-862.93706499999985
 30
0.0
 11
358.0
 21
-862.93706499999985
 31
0.0
  0
TEXT
  5
D48
  8
SIZE
  6
CONTINUOUS
 62
    30
 10
110.94285714285709
 20
-837.93706499999985
 30
0.0
 40
64.0
  1
370
 41
0.9
 72
     1
 11
185.0
 21
-837.93706499999985
 31
0.0
  0
LINE
  5
D49
  8
DETAIL
  6
PHANTOM
 62
     5
 10
320.0
 20
0.0
 30
0.0
 11
291.0
 21
0.0
 31
0.0
  0
TEXT
  5
D4A
  8
ETC
  6
CONTINUOUS
 62
    61
 10
983.81966748163529
 20
849.10515659839848
 30
0.0
 40
64.0
  1
V-904KQE7_5
 41
0.9
  0
TEXT
  5
D4B
  8
ETC
  6
CONTINUOUS
 62
    61
 10
979.59770048163546
 20
752.6143295983984
 30
0.0
 40
64.0
  1
換気扇
 41
0.9
  0
TEXT
  5
D4C
  8
ETC
  6
CONTINUOUS
 62
    61
 10
1122.2163074166781
 20
668.83298977040567
 30
0.0
 40
50.0
  1
V-904KQE6
 41
0.9
  0
LINE
  5
D4D
  8
DETAIL
  6
DASHED
 62
     5
 39
50.0
 10
320.0
 20
-10.0
 30
0.0
 11
450.0
 21
-10.0
 31
0.0
  0
LINE
  5
D4E
  8
DETAIL
  6
PHANTOM
 62
     5
 39
50.0
 10
450.0
 20
-10.0
 30
0.0
 11
439.0
 21
0.0
 31
0.0
  0
LINE
  5
D50
  8
SIZE
  6
CONTINUOUS
 62
    30
 39
50.0
 10
0.0
 20
-180.81231034770991
 30
0.0
 11
0.0
 21
845.36492603953025
 31
0.0
  0
LINE
  5
D52
  8
SIZE
  6
CONTINUOUS
 62
    30
 39
50.0
 10
334.01127838407592
 20
-10.0
 30
0.0
 11
1371.167148101729
 21
-10.0
 31
0.0
  0
TEXT
  5
E2E
  8
ETC
  6
CONTINUOUS
 62
    61
 10
1122.2163074166781
 20
587.47448029096768
 30
0.0
 40
50.0
  1
V-904KQE7
 41
0.9
  0
ENDSEC
  0
EOF
