  0
SECTION
  2
HEADER
  9
$ACADVER
  1
AC1009
  9
$INSBASE
 10
0.0
 20
0.0
 30
0.0
  9
$EXTMIN
 10
-837.03459062035654
 20
-714.88951497582093
 30
-0.0015258207003583
  9
$EXTMAX
 10
1236.2915157180871
 20
522.30835755158648
 30
0.0000000349246037
  9
$LIMMIN
 10
-2970.0
 20
-2100.0
  9
$LIMMAX
 10
2970.0
 20
2100.0
  9
$ORTHOMODE
 70
     1
  9
$REGENMODE
 70
     0
  9
$FILLMODE
 70
     1
  9
$QTEXTMODE
 70
     0
  9
$MIRRTEXT
 70
     0
  9
$DRAGMODE
 70
     2
  9
$LTSCALE
 40
20.0
  9
$OSMODE
 70
    32
  9
$ATTMODE
 70
     1
  9
$TEXTSIZE
 40
64.0
  9
$TRACEWID
 40
0.05
  9
$TEXTSTYLE
  7
STANDARD
  9
$CLAYER
  8
ETC
  9
$CELTYPE
  6
CONTINUOUS
  9
$CECOLOR
 62
    30
  9
$DIMSCALE
 40
1.0
  9
$DIMASZ
 40
12.0
  9
$DIMEXO
 40
20.0
  9
$DIMDLI
 40
200.0
  9
$DIMRND
 40
0.0
  9
$DIMDLE
 40
0.0
  9
$DIMEXE
 40
20.0
  9
$DIMTP
 40
0.0
  9
$DIMTM
 40
0.0
  9
$DIMTXT
 40
64.0
  9
$DIMCEN
 40
0.09
  9
$DIMTSZ
 40
0.0
  9
$DIMTOL
 70
     0
  9
$DIMLIM
 70
     0
  9
$DIMTIH
 70
     0
  9
$DIMTOH
 70
     0
  9
$DIMSE1
 70
     0
  9
$DIMSE2
 70
     0
  9
$DIMTAD
 70
     1
  9
$DIMZIN
 70
     8
  9
$DIMBLK
  1
DOT1
  9
$DIMASO
 70
     1
  9
$DIMSHO
 70
     0
  9
$DIMPOST
  1

  9
$DIMAPOST
  1

  9
$DIMALT
 70
     0
  9
$DIMALTD
 70
     2
  9
$DIMALTF
 40
25.399999999999999
  9
$DIMLFAC
 40
1.0
  9
$DIMTOFL
 70
     1
  9
$DIMTVP
 40
0.0
  9
$DIMTIX
 70
     1
  9
$DIMSOXD
 70
     0
  9
$DIMSAH
 70
     1
  9
$DIMBLK1
  1
ORIGIN
  9
$DIMBLK2
  1
ORIGIN
  9
$DIMSTYLE
  2
STANDARD
  9
$DIMCLRD
 70
     7
  9
$DIMCLRE
 70
     7
  9
$DIMCLRT
 70
     7
  9
$DIMTFAC
 40
1.0
  9
$DIMGAP
 40
25.0
  9
$LUNITS
 70
     2
  9
$LUPREC
 70
     4
  9
$SKETCHINC
 40
0.1
  9
$FILLETRAD
 40
4.0
  9
$AUNITS
 70
     1
  9
$AUPREC
 70
     3
  9
$MENU
  1
ACAD
  9
$ELEVATION
 40
0.0
  9
$PELEVATION
 40
0.0
  9
$THICKNESS
 40
50.0
  9
$LIMCHECK
 70
     0
  9
$BLIPMODE
 70
     0
  9
$CHAMFERA
 40
0.0
  9
$CHAMFERB
 40
0.0
  9
$SKPOLY
 70
     0
  9
$TDCREATE
 40
2453095.80773735
  9
$TDUPDATE
 40
2454743.7745003821
  9
$TDINDWG
 40
0.0051460417
  9
$TDUSRTIMER
 40
0.0051458565
  9
$USRTIMER
 70
     1
  9
$ANGBASE
 50
0.0
  9
$ANGDIR
 70
     0
  9
$PDMODE
 70
     3
  9
$PDSIZE
 40
-2.0
  9
$PLINEWID
 40
0.0
  9
$COORDS
 70
     1
  9
$SPLFRAME
 70
     0
  9
$SPLINETYPE
 70
     6
  9
$SPLINESEGS
 70
     8
  9
$ATTDIA
 70
     0
  9
$ATTREQ
 70
     1
  9
$HANDLING
 70
     1
  9
$HANDSEED
  5
31F
  9
$SURFTAB1
 70
     6
  9
$SURFTAB2
 70
     6
  9
$SURFTYPE
 70
     6
  9
$SURFU
 70
     6
  9
$SURFV
 70
     6
  9
$UCSNAME
  2

  9
$UCSORG
 10
0.0
 20
0.0
 30
0.0
  9
$UCSXDIR
 10
1.0
 20
0.0
 30
0.0
  9
$UCSYDIR
 10
0.0
 20
1.0
 30
0.0
  9
$PUCSNAME
  2

  9
$PUCSORG
 10
0.0
 20
0.0
 30
0.0
  9
$PUCSXDIR
 10
1.0
 20
0.0
 30
0.0
  9
$PUCSYDIR
 10
0.0
 20
1.0
 30
0.0
  9
$USERI1
 70
     0
  9
$USERI2
 70
     0
  9
$USERI3
 70
     0
  9
$USERI4
 70
     0
  9
$USERI5
 70
     0
  9
$USERR1
 40
20.0
  9
$USERR2
 40
0.0
  9
$USERR3
 40
0.0
  9
$USERR4
 40
0.0
  9
$USERR5
 40
0.0
  9
$WORLDVIEW
 70
     1
  9
$SHADEDGE
 70
     3
  9
$SHADEDIF
 70
    70
  9
$TILEMODE
 70
     1
  9
$MAXACTVP
 70
    48
  9
$PLIMCHECK
 70
     0
  9
$PEXTMIN
 10
-1.0000000000000000E+020
 20
-1.0000000000000000E+020
 30
-1.0000000000000000E+020
  9
$PEXTMAX
 10
1.0000000000000000E+020
 20
1.0000000000000000E+020
 30
1.0000000000000000E+020
  9
$PLIMMIN
 10
0.0
 20
0.0
  9
$PLIMMAX
 10
12.0
 20
9.0
  9
$UNITMODE
 70
     0
  9
$VISRETAIN
 70
     0
  9
$PLINEGEN
 70
     0
  9
$PSLTSCALE
 70
     0
  0
ENDSEC
  0
SECTION
  2
TABLES
  0
TABLE
  2
VPORT
 70
     1
  0
VPORT
  2
*ACTIVE
 70
     0
 10
0.0
 20
0.0
 11
1.0
 21
1.0
 12
238.67196378473881
 22
-156.84453854253749
 13
0.0
 23
0.0
 14
1.0
 24
1.0
 15
0.0
 25
0.0
 16
0.0
 26
0.0
 36
1.0
 17
0.0
 27
0.0
 37
0.0
 40
1400.4724639205119
 41
1.812051649928264
 42
50.0
 43
0.0
 44
0.0
 50
0.0
 51
0.0
 71
     0
 72
  1000
 73
     1
 74
     0
 75
     0
 76
     0
 77
     0
 78
     0
  0
ENDTAB
  0
TABLE
  2
LTYPE
 70
     4
  0
LTYPE
  2
CONTINUOUS
 70
     0
  3
実線
 72
    65
 73
     0
 40
0.0
  0
LTYPE
  2
DASHDOT
 70
     0
  3
____ _ ____ _ ____ _ ____ _ ____ _ ____ _ ____
 72
    65
 73
     4
 40
5.5
 49
4.0
 49
-0.6
 49
0.3
 49
-0.6
  0
LTYPE
  2
CONTINOUS
 70
     0
  3
Solid line
 72
    65
 73
     0
 40
0.0
  0
ENDTAB
  0
TABLE
  2
LAYER
 70
    12
  0
LAYER
  2
0
 70
     0
 62
     7
  6
CONTINUOUS
  0
LAYER
  2
SIZE
 70
     0
 62
    30
  6
CONTINUOUS
  0
LAYER
  2
BASIS
 70
     0
 62
     6
  6
DASHDOT
  0
LAYER
  2
OUTLINE
 70
     0
 62
     3
  6
CONTINUOUS
  0
LAYER
  2
DETAIL
 70
     0
 62
     5
  6
CONTINUOUS
  0
LAYER
  2
ARRANGE
 70
     0
 62
     1
  6
CONTINUOUS
  0
LAYER
  2
DEFPOINTS
 70
     0
 62
     7
  6
CONTINUOUS
  0
LAYER
  2
ETC
 70
     0
 62
    61
  6
CONTINUOUS
  0
LAYER
  2
FIX
 70
     0
 62
    11
  6
CONTINUOUS
  0
LAYER
  2
NOTE
 70
     0
 62
     4
  6
CONTINUOUS
  0
LAYER
  2
SERVICESPACE
 70
     0
 62
     2
  6
DASHDOT
  0
LAYER
  2
SYMBOLLINE
 70
     0
 62
    15
  6
CONTINUOUS
  0
ENDTAB
  0
TABLE
  2
STYLE
 70
     2
  0
STYLE
  2
STANDARD
 70
     0
 40
64.0
 41
0.9
 50
0.0
 71
     0
 42
64.0
  3
SIMPLEX.shx
  4
BIGFONT.shx
  0
STYLE
  2
ANNOTATIVE
 70
     0
 40
0.0
 41
1.0
 50
0.0
 71
     0
 42
0.2
  3
txt
  4

  0
ENDTAB
  0
TABLE
  2
VIEW
 70
     1
  0
VIEW
  2
ALL
 70
     0
 40
4282.6198079999967
 10
0.0
 20
41.309903999999989
 41
5940.0
 11
0.0
 21
0.0
 31
1.0
 12
0.0
 22
0.0
 32
0.0
 42
50.0
 43
0.0
 44
0.0
 50
0.0
 71
     0
  0
ENDTAB
  0
TABLE
  2
UCS
 70
     0
  0
ENDTAB
  0
TABLE
  2
APPID
 70
     5
  0
APPID
  2
ACAD
 70
     0
  0
APPID
  2
ACADANNOTATIVE
 70
     0
  0
APPID
  2
ACAD_MLEADERVER
 70
     0
  0
APPID
  2
AUTOCAD_POSTSCRIPT_FIGURE
 70
     0
  0
APPID
  2
ACAD_EXEMPT_FROM_CAD_STANDARDS
 70
     0
  0
ENDTAB
  0
TABLE
  2
DIMSTYLE
 70
     2
  0
DIMSTYLE
  2
STANDARD
 70
     0
  3

  4

  5

  6

  7

 40
1.0
 41
0.18
 42
0.0625
 43
0.38
 44
0.18
 45
0.0
 46
0.0
 47
0.0
 48
0.0
140
0.18
141
0.09
142
0.0
143
25.399999999999999
144
1.0
145
0.0
146
1.0
147
0.09
 71
     0
 72
     0
 73
     1
 74
     1
 75
     0
 76
     0
 77
     0
 78
     0
170
     0
171
     2
172
     0
173
     0
174
     0
175
     0
176
     7
177
     7
178
     7
  0
DIMSTYLE
  2
ANNOTATIVE
 70
     0
  3

  4

  5

  6

  7

 40
1.0
 41
0.18
 42
0.0625
 43
0.38
 44
0.18
 45
0.0
 46
0.0
 47
0.0
 48
0.0
140
0.18
141
0.09
142
0.0
143
25.399999999999999
144
1.0
145
0.0
146
1.0
147
0.09
 71
     0
 72
     0
 73
     1
 74
     1
 75
     0
 76
     0
 77
     0
 78
     0
170
     0
171
     2
172
     0
173
     0
174
     0
175
     0
176
     0
177
     0
178
     0
  0
ENDTAB
  0
ENDSEC
  0
SECTION
  2
BLOCKS
  0
BLOCK
  8
0
  2
$MODEL_SPACE
 70
     0
 10
0.0
 20
0.0
 30
0.0
  3
$MODEL_SPACE
  1

  0
ENDBLK
  5
2C3
  8
0
  0
BLOCK
 67
     1
  8
0
  2
$PAPER_SPACE
 70
     0
 10
0.0
 20
0.0
 30
0.0
  3
$PAPER_SPACE
  1

  0
ENDBLK
  5
2BF
 67
     1
  8
0
  0
BLOCK
  8
0
  2
DOT1
 70
     0
 10
0.0
 20
0.0
 30
0.0
  3
DOT1
  1

  0
CIRCLE
  5
167
  8
SIZE
  6
CONTINUOUS
 62
     7
 10
0.0
 20
0.0
 30
0.0
 40
3.0
  0
ENDBLK
  5
168
  8
0
  0
BLOCK
  8
0
  2
_ORIGIN
 70
     0
 10
0.0
 20
0.0
 30
0.0
  3
_ORIGIN
  1

  0
CIRCLE
  5
16B
  8
0
  6
CONTINUOUS
 62
     7
 10
0.0
 20
0.0
 30
0.0
 40
0.5
  0
LINE
  5
16C
  8
0
  6
CONTINUOUS
 62
     7
 10
0.0
 20
0.0
 30
0.0
 11
-1.0
 21
0.0
 31
0.0
  0
ENDBLK
  5
16D
  8
0
  0
BLOCK
  8
0
 62
    30
  2
_NONE
 70
     0
 10
0.0
 20
0.0
 30
0.0
  3
_NONE
  1

  0
ENDBLK
  5
170
  8
0
 62
    30
  0
BLOCK
  8
0
 62
    30
  2
_OPEN30
 70
     0
 10
0.0
 20
0.0
 30
0.0
  3
_OPEN30
  1

  0
LINE
  5
173
  8
0
  6
BYBLOCK
 62
     0
 10
-1.0
 20
0.26794919
 30
0.0
 11
0.0
 21
0.0
 31
0.0
  0
LINE
  5
174
  8
0
  6
BYBLOCK
 62
     0
 10
0.0
 20
0.0
 30
0.0
 11
-1.0
 21
-0.26794919
 31
0.0
  0
LINE
  5
175
  8
0
  6
BYBLOCK
 62
     0
 10
0.0
 20
0.0
 30
0.0
 11
-1.0
 21
0.0
 31
0.0
  0
ENDBLK
  5
176
  8
0
 62
    30
  0
ENDSEC
  0
SECTION
  2
ENTITIES
  0
LINE
  5
177
  8
BASIS
  6
DASHDOT
 62
     6
 10
0.0
 20
-714.60153800000001
 30
0.0
 11
0.0
 21
48.397177999999982
 31
0.0
  0
LINE
  5
178
  8
DETAIL
  6
CONTINOUS
 62
     5
 10
450.0
 20
0.0
 30
0.0
 11
450.0
 21
-640.0
 31
0.0
  0
LINE
  5
179
  8
DETAIL
  6
CONTINOUS
 62
     5
 10
429.99878499999988
 20
-648.0
 30
0.0
 11
442.0
 21
-648.0
 31
0.0
  0
ARC
  5
17A
  8
DETAIL
  6
CONTINOUS
 62
     5
 10
-442.0
 20
-640.0
 30
0.0
 40
8.0
 50
180.0
 51
270.0
  0
LINE
  5
17B
  8
DETAIL
  6
CONTINOUS
 62
     5
 10
429.99878499999988
 20
-648.0
 30
0.0
 11
429.99878499999988
 21
-650.0
 31
0.0
  0
ARC
  5
17C
  8
DETAIL
  6
CONTINOUS
 62
     5
 10
442.0
 20
-640.0
 30
0.0
 40
8.0
 50
270.0
 51
0.0
  0
LINE
  5
17D
  8
DETAIL
  6
CONTINOUS
 62
     5
 10
-442.0
 20
-648.0
 30
0.0
 11
-430.001215
 21
-648.0
 31
0.0
  0
LINE
  5
17E
  8
DETAIL
  6
CONTINOUS
 62
     5
 10
-430.001215
 20
-650.0
 30
0.0
 11
429.99878499999988
 21
-650.0
 31
0.0
  0
LINE
  5
17F
  8
DETAIL
  6
CONTINOUS
 62
     5
 10
-450.0
 20
0.0
 30
0.0
 11
-450.0
 21
-640.0
 31
0.0
  0
LINE
  5
180
  8
DETAIL
  6
CONTINOUS
 62
     5
 10
-450.0
 20
0.0
 30
0.0
 11
-74.0
 21
0.0
 31
0.0
  0
LINE
  5
181
  8
NOTE
  6
CONTINUOUS
 62
     4
 10
220.0
 20
0.0
 30
0.0
 11
260.0
 21
0.0
 31
0.0
  0
LINE
  5
182
  8
DETAIL
  6
CONTINOUS
 62
     5
 10
-74.0
 20
0.0
 30
0.0
 11
450.0
 21
0.0
 31
0.0
  0
LINE
  5
183
  8
DETAIL
  6
CONTINOUS
 62
     5
 10
430.0
 20
0.0
 30
0.0
 11
430.0
 21
-648.0
 31
0.0
  0
LINE
  5
184
  8
DETAIL
  6
CONTINOUS
 62
     5
 10
-430.0
 20
0.0
 30
0.0
 11
-430.0
 21
-650.0
 31
0.0
  0
LINE
  5
185
  8
NOTE
  6
CONTINUOUS
 62
     4
 10
-240.0
 20
-20.0
 30
0.0
 11
-240.0
 21
20.0
 31
0.0
  0
LINE
  5
186
  8
NOTE
  6
CONTINUOUS
 62
     4
 10
-260.0
 20
0.0
 30
0.0
 11
-220.0
 21
0.0
 31
0.0
  0
LINE
  5
187
  8
NOTE
  6
CONTINUOUS
 62
     4
 10
240.0
 20
-20.0
 30
0.0
 11
240.0
 21
20.0
 31
0.0
  0
LINE
  5
188
  8
NOTE
  6
CONTINUOUS
 62
     4
 10
220.0
 20
0.0
 30
0.0
 11
260.0
 21
0.0
 31
0.0
  0
CIRCLE
  5
189
  8
FIX
  6
CONTINUOUS
 62
    11
 10
-240.0
 20
0.0
 30
0.0
 40
4.0
  0
CIRCLE
  5
18A
  8
FIX
  6
CONTINUOUS
 62
    11
 10
240.0
 20
0.0
 30
0.0
 40
4.0
  0
TEXT
  5
18B
  8
NOTE
  6
CONTINUOUS
 62
     4
 10
-768.39674599999989
 20
156.87686399999981
 30
0.0
 40
64.0
  1
4-φ8
 41
0.9
  0
LINE
  5
18C
  8
NOTE
  6
CONTINUOUS
 62
     4
 10
-802.93249900000001
 20
125.21883
 30
0.0
 11
-513.26052199999992
 21
125.21883
 31
0.0
  0
LINE
  5
18D
  8
NOTE
  6
CONTINUOUS
 62
     4
 10
-240.0
 20
0.0
 30
0.0
 11
-513.26052199999992
 21
125.21883
 31
0.0
  0
LINE
  5
18E
  8
NOTE
  6
CONTINUOUS
 62
     4
 10
-279.31683500000003
 20
7.3611490000000002
 30
0.0
 11
-240.0
 21
0.0
 31
0.0
  0
LINE
  5
18F
  8
NOTE
  6
CONTINUOUS
 62
     4
 10
-240.0
 20
0.0
 30
0.0
 11
-270.3688029999999
 21
26.033359000000001
 31
0.0
  0
LINE
  5
190
  8
OUTLINE
  6
CONTINOUS
 62
     3
 10
-450.0
 20
0.0
 30
0.0
 11
450.0
 21
0.0
 31
0.0
  0
LINE
  5
191
  8
OUTLINE
  6
CONTINOUS
 62
     3
 10
450.0
 20
0.0
 30
0.0
 11
450.0
 21
-640.0
 31
0.0
  0
LINE
  5
192
  8
OUTLINE
  6
CONTINOUS
 62
     3
 10
-450.0
 20
0.0
 30
0.0
 11
-450.0
 21
-640.0
 31
0.0
  0
LINE
  5
193
  8
OUTLINE
  6
CONTINOUS
 62
     3
 10
-430.001215
 20
-650.0
 30
0.0
 11
429.99878499999988
 21
-650.0
 31
0.0
  0
LINE
  5
194
  8
OUTLINE
  6
CONTINOUS
 62
     3
 10
-442.0
 20
-648.0
 30
0.0
 11
-430.001215
 21
-648.0
 31
0.0
  0
ARC
  5
195
  8
OUTLINE
  6
CONTINOUS
 62
     3
 10
442.0
 20
-640.0
 30
0.0
 40
8.0
 50
270.0
 51
0.0
  0
LINE
  5
196
  8
OUTLINE
  6
CONTINOUS
 62
     3
 10
429.99878499999988
 20
-648.0
 30
0.0
 11
429.99878499999988
 21
-650.0
 31
0.0
  0
ARC
  5
197
  8
OUTLINE
  6
CONTINOUS
 62
     3
 10
-442.0
 20
-640.0
 30
0.0
 40
8.0
 50
180.0
 51
270.0
  0
LINE
  5
198
  8
OUTLINE
  6
CONTINOUS
 62
     3
 10
429.99878499999988
 20
-648.0
 30
0.0
 11
442.0
 21
-648.0
 31
0.0
  0
LINE
  5
199
  8
OUTLINE
  6
CONTINOUS
 62
     3
 10
-430.001215
 20
-648.0
 30
0.0
 11
-430.001215
 21
-650.0
 31
0.0
  0
POINT
  5
19A
  8
ARRANGE
  6
CONTINUOUS
 62
     1
 10
0.0
 20
0.0
 30
0.0
  0
CIRCLE
  5
19B
  8
ARRANGE
  6
CONTINUOUS
 62
     1
 10
0.0
 20
0.0
 30
0.0
 40
40.0
  0
LINE
  5
19C
  8
SIZE
  6
CONTINUOUS
 62
    30
 10
-240.0
 20
40.0
 30
0.0
 11
-240.0
 21
207.4563609999999
 31
0.0
  0
LINE
  5
19D
  8
SIZE
  6
CONTINUOUS
 62
    30
 10
240.0
 20
40.0
 30
0.0
 11
240.0
 21
207.4563609999999
 31
0.0
  0
LINE
  5
19E
  8
SIZE
  6
CONTINUOUS
 62
    30
 10
-228.0
 20
187.4563609999999
 30
0.0
 11
228.0
 21
187.4563609999999
 31
0.0
  0
CIRCLE
  5
19F
  8
SIZE
  6
CONTINUOUS
 62
    30
 10
-240.0
 20
187.4563609999999
 30
0.0
 40
6.0
  0
LINE
  5
1A0
  8
SIZE
  6
CONTINUOUS
 62
    30
 10
-240.0
 20
187.4563609999999
 30
0.0
 11
-228.0
 21
187.4563609999999
 31
0.0
  0
CIRCLE
  5
1A1
  8
SIZE
  6
CONTINUOUS
 62
    30
 10
240.0
 20
187.4563609999999
 30
0.0
 40
6.0
  0
LINE
  5
1A2
  8
SIZE
  6
CONTINUOUS
 62
    30
 10
240.0
 20
187.4563609999999
 30
0.0
 11
228.0
 21
187.4563609999999
 31
0.0
  0
TEXT
  5
1A3
  8
SIZE
  6
CONTINUOUS
 62
    30
 10
-74.057142857142836
 20
212.45636099999999
 30
0.0
 40
64.0
  1
480
 41
0.9
 72
     1
 11
0.0
 21
212.45636099999999
 31
0.0
  0
LINE
  5
1A7
  8
DETAIL
  6
CONTINOUS
 62
     5
 10
-430.001215
 20
-590.0
 30
0.0
 11
429.99878499999988
 21
-590.0
 31
0.0
  0
LINE
  5
1A8
  8
DETAIL
  6
CONTINOUS
 62
     5
 10
-430.0
 20
-185.0
 30
0.0
 11
430.0
 21
-185.0
 31
0.0
  0
LINE
  5
1A9
  8
DETAIL
  6
CONTINOUS
 62
     5
 10
-430.0
 20
-450.0
 30
0.0
 11
430.0
 21
-450.0
 31
0.0
  0
LINE
  5
1AA
  8
DETAIL
  6
CONTINUOUS
 62
     5
 10
258.0
 20
-450.0
 30
0.0
 11
258.0
 21
-185.0
 31
0.0
  0
LINE
  5
1AB
  8
DETAIL
  6
CONTINUOUS
 62
     5
 10
115.5
 20
-185.0
 30
0.0
 11
87.0
 21
-218.0
 31
0.0
  0
LINE
  5
1AC
  8
DETAIL
  6
CONTINUOUS
 62
     5
 10
144.0
 20
-185.0
 30
0.0
 11
87.0
 21
-251.0
 31
0.0
  0
LINE
  5
1AD
  8
DETAIL
  6
CONTINUOUS
 62
     5
 10
172.5
 20
-185.0
 30
0.0
 11
87.0
 21
-284.0
 31
0.0
  0
LINE
  5
1AE
  8
DETAIL
  6
CONTINUOUS
 62
     5
 10
201.0
 20
-185.0
 30
0.0
 11
87.0
 21
-317.0
 31
0.0
  0
LINE
  5
1AF
  8
DETAIL
  6
CONTINUOUS
 62
     5
 10
229.49999999999989
 20
-185.0
 30
0.0
 11
87.0
 21
-350.0
 31
0.0
  0
LINE
  5
1B0
  8
DETAIL
  6
CONTINUOUS
 62
     5
 10
258.0
 20
-185.0
 30
0.0
 11
87.0
 21
-383.0
 31
0.0
  0
LINE
  5
1B1
  8
DETAIL
  6
CONTINUOUS
 62
     5
 10
258.0
 20
-218.0
 30
0.0
 11
87.0
 21
-416.0
 31
0.0
  0
LINE
  5
1B2
  8
DETAIL
  6
CONTINUOUS
 62
     5
 10
258.0
 20
-251.0
 30
0.0
 11
87.0
 21
-450.0
 31
0.0
  0
LINE
  5
1B3
  8
DETAIL
  6
CONTINUOUS
 62
     5
 10
258.0
 20
-284.0
 30
0.0
 11
115.5
 21
-450.0
 31
0.0
  0
LINE
  5
1B4
  8
DETAIL
  6
CONTINUOUS
 62
     5
 10
258.0
 20
-317.0
 30
0.0
 11
144.0
 21
-450.0
 31
0.0
  0
LINE
  5
1B5
  8
DETAIL
  6
CONTINUOUS
 62
     5
 10
258.0
 20
-350.0
 30
0.0
 11
172.5
 21
-450.0
 31
0.0
  0
LINE
  5
1B6
  8
DETAIL
  6
CONTINUOUS
 62
     5
 10
258.0
 20
-383.0
 30
0.0
 11
201.0
 21
-450.0
 31
0.0
  0
LINE
  5
1B7
  8
DETAIL
  6
CONTINUOUS
 62
     5
 10
258.0
 20
-416.0
 30
0.0
 11
229.49999999999989
 21
-450.0
 31
0.0
  0
LINE
  5
1B8
  8
DETAIL
  6
CONTINUOUS
 62
     5
 10
229.49999999999989
 20
-185.0
 30
0.0
 11
258.0
 21
-218.0
 31
0.0
  0
LINE
  5
1B9
  8
DETAIL
  6
CONTINUOUS
 62
     5
 10
258.0
 20
-251.0
 30
0.0
 11
201.0
 21
-185.0
 31
0.0
  0
LINE
  5
1BA
  8
DETAIL
  6
CONTINUOUS
 62
     5
 10
172.5
 20
-185.0
 30
0.0
 11
258.0
 21
-284.0
 31
0.0
  0
LINE
  5
1BB
  8
DETAIL
  6
CONTINUOUS
 62
     5
 10
144.0
 20
-185.0
 30
0.0
 11
258.0
 21
-317.0
 31
0.0
  0
LINE
  5
1BC
  8
DETAIL
  6
CONTINUOUS
 62
     5
 10
115.5
 20
-185.0
 30
0.0
 11
258.0
 21
-350.0
 31
0.0
  0
LINE
  5
1BD
  8
DETAIL
  6
CONTINUOUS
 62
     5
 10
87.0
 20
-185.0
 30
0.0
 11
258.0
 21
-383.0
 31
0.0
  0
LINE
  5
1BE
  8
DETAIL
  6
CONTINUOUS
 62
     5
 10
258.0
 20
-416.0
 30
0.0
 11
87.0
 21
-218.0
 31
0.0
  0
LINE
  5
1BF
  8
DETAIL
  6
CONTINUOUS
 62
     5
 10
87.0
 20
-251.0
 30
0.0
 11
258.0
 21
-450.0
 31
0.0
  0
LINE
  5
1C0
  8
DETAIL
  6
CONTINUOUS
 62
     5
 10
229.49999999999989
 20
-450.0
 30
0.0
 11
87.0
 21
-284.0
 31
0.0
  0
LINE
  5
1C1
  8
DETAIL
  6
CONTINUOUS
 62
     5
 10
87.0
 20
-317.0
 30
0.0
 11
201.0
 21
-450.0
 31
0.0
  0
LINE
  5
1C2
  8
DETAIL
  6
CONTINUOUS
 62
     5
 10
172.5
 20
-450.0
 30
0.0
 11
87.0
 21
-350.0
 31
0.0
  0
LINE
  5
1C3
  8
DETAIL
  6
CONTINUOUS
 62
     5
 10
87.0
 20
-383.0
 30
0.0
 11
144.0
 21
-450.0
 31
0.0
  0
LINE
  5
1C4
  8
DETAIL
  6
CONTINUOUS
 62
     5
 10
115.5
 20
-450.0
 30
0.0
 11
87.0
 21
-416.0
 31
0.0
  0
LINE
  5
1C5
  8
DETAIL
  6
CONTINUOUS
 62
     5
 10
87.0
 20
-185.0
 30
0.0
 11
87.0
 21
-450.0
 31
0.0
  0
LINE
  5
1C6
  8
DETAIL
  6
CONTINOUS
 62
     5
 10
87.0
 20
-450.0
 30
0.0
 11
258.0
 21
-450.0
 31
0.0
  0
LINE
  5
1C7
  8
DETAIL
  6
CONTINOUS
 62
     5
 10
87.0
 20
-185.0
 30
0.0
 11
258.0
 21
-185.0
 31
0.0
  0
LINE
  5
1C8
  8
DETAIL
  6
CONTINOUS
 62
     5
 10
-258.0
 20
-185.0
 30
0.0
 11
-87.0
 21
-185.0
 31
0.0
  0
LINE
  5
1C9
  8
DETAIL
  6
CONTINOUS
 62
     5
 10
-258.0
 20
-450.0
 30
0.0
 11
-87.0
 21
-450.0
 31
0.0
  0
LINE
  5
1CA
  8
DETAIL
  6
CONTINUOUS
 62
     5
 10
-258.0
 20
-185.0
 30
0.0
 11
-258.0
 21
-450.0
 31
0.0
  0
LINE
  5
1CB
  8
DETAIL
  6
CONTINUOUS
 62
     5
 10
-229.49999999999989
 20
-450.0
 30
0.0
 11
-258.0
 21
-416.0
 31
0.0
  0
LINE
  5
1CC
  8
DETAIL
  6
CONTINUOUS
 62
     5
 10
-258.0
 20
-383.0
 30
0.0
 11
-201.0
 21
-450.0
 31
0.0
  0
LINE
  5
1CD
  8
DETAIL
  6
CONTINUOUS
 62
     5
 10
-172.5
 20
-450.0
 30
0.0
 11
-258.0
 21
-350.0
 31
0.0
  0
LINE
  5
1CE
  8
DETAIL
  6
CONTINUOUS
 62
     5
 10
-258.0
 20
-317.0
 30
0.0
 11
-144.0
 21
-450.0
 31
0.0
  0
LINE
  5
1CF
  8
DETAIL
  6
CONTINUOUS
 62
     5
 10
-115.5
 20
-450.0
 30
0.0
 11
-258.0
 21
-284.0
 31
0.0
  0
LINE
  5
1D0
  8
DETAIL
  6
CONTINUOUS
 62
     5
 10
-258.0
 20
-251.0
 30
0.0
 11
-87.0
 21
-450.0
 31
0.0
  0
LINE
  5
1D1
  8
DETAIL
  6
CONTINUOUS
 62
     5
 10
-87.0
 20
-416.0
 30
0.0
 11
-258.0
 21
-218.0
 31
0.0
  0
LINE
  5
1D2
  8
DETAIL
  6
CONTINUOUS
 62
     5
 10
-258.0
 20
-185.0
 30
0.0
 11
-87.0
 21
-383.0
 31
0.0
  0
LINE
  5
1D3
  8
DETAIL
  6
CONTINUOUS
 62
     5
 10
-229.49999999999989
 20
-185.0
 30
0.0
 11
-87.0
 21
-350.0
 31
0.0
  0
LINE
  5
1D4
  8
DETAIL
  6
CONTINUOUS
 62
     5
 10
-201.0
 20
-185.0
 30
0.0
 11
-87.0
 21
-317.0
 31
0.0
  0
LINE
  5
1D5
  8
DETAIL
  6
CONTINUOUS
 62
     5
 10
-172.5
 20
-185.0
 30
0.0
 11
-87.0
 21
-284.0
 31
0.0
  0
LINE
  5
1D6
  8
DETAIL
  6
CONTINUOUS
 62
     5
 10
-87.0
 20
-251.0
 30
0.0
 11
-144.0
 21
-185.0
 31
0.0
  0
LINE
  5
1D7
  8
DETAIL
  6
CONTINUOUS
 62
     5
 10
-115.5
 20
-185.0
 30
0.0
 11
-87.0
 21
-218.0
 31
0.0
  0
LINE
  5
1D8
  8
DETAIL
  6
CONTINUOUS
 62
     5
 10
-87.0
 20
-416.0
 30
0.0
 11
-115.5
 21
-450.0
 31
0.0
  0
LINE
  5
1D9
  8
DETAIL
  6
CONTINUOUS
 62
     5
 10
-87.0
 20
-383.0
 30
0.0
 11
-144.0
 21
-450.0
 31
0.0
  0
LINE
  5
1DA
  8
DETAIL
  6
CONTINUOUS
 62
     5
 10
-87.0
 20
-350.0
 30
0.0
 11
-172.5
 21
-450.0
 31
0.0
  0
LINE
  5
1DB
  8
DETAIL
  6
CONTINUOUS
 62
     5
 10
-87.0
 20
-317.0
 30
0.0
 11
-201.0
 21
-450.0
 31
0.0
  0
LINE
  5
1DC
  8
DETAIL
  6
CONTINUOUS
 62
     5
 10
-87.0
 20
-284.0
 30
0.0
 11
-229.49999999999989
 21
-450.0
 31
0.0
  0
LINE
  5
1DD
  8
DETAIL
  6
CONTINUOUS
 62
     5
 10
-87.0
 20
-251.0
 30
0.0
 11
-258.0
 21
-450.0
 31
0.0
  0
LINE
  5
1DE
  8
DETAIL
  6
CONTINUOUS
 62
     5
 10
-87.0
 20
-218.0
 30
0.0
 11
-258.0
 21
-416.0
 31
0.0
  0
LINE
  5
1DF
  8
DETAIL
  6
CONTINUOUS
 62
     5
 10
-87.0
 20
-185.0
 30
0.0
 11
-258.0
 21
-383.0
 31
0.0
  0
LINE
  5
1E0
  8
DETAIL
  6
CONTINUOUS
 62
     5
 10
-115.5
 20
-185.0
 30
0.0
 11
-258.0
 21
-350.0
 31
0.0
  0
LINE
  5
1E1
  8
DETAIL
  6
CONTINUOUS
 62
     5
 10
-144.0
 20
-185.0
 30
0.0
 11
-258.0
 21
-317.0
 31
0.0
  0
LINE
  5
1E2
  8
DETAIL
  6
CONTINUOUS
 62
     5
 10
-172.5
 20
-185.0
 30
0.0
 11
-258.0
 21
-284.0
 31
0.0
  0
LINE
  5
1E3
  8
DETAIL
  6
CONTINUOUS
 62
     5
 10
-201.0
 20
-185.0
 30
0.0
 11
-258.0
 21
-251.0
 31
0.0
  0
LINE
  5
1E4
  8
DETAIL
  6
CONTINUOUS
 62
     5
 10
-229.49999999999989
 20
-185.0
 30
0.0
 11
-258.0
 21
-218.0
 31
0.0
  0
LINE
  5
1E5
  8
DETAIL
  6
CONTINUOUS
 62
     5
 10
-87.0
 20
-450.0
 30
0.0
 11
-87.0
 21
-185.0
 31
0.0
  0
LINE
  5
1E6
  8
DETAIL
  6
CONTINOUS
 62
     5
 10
-450.0
 20
-370.0
 30
0.0
 11
-430.0
 21
-370.0
 31
0.0
  0
LINE
  5
1E7
  8
DETAIL
  6
CONTINOUS
 62
     5
 10
430.0
 20
-370.0
 30
0.0
 11
450.0
 21
-370.0
 31
0.0
  0
LINE
  5
1E8
  8
SIZE
  6
CONTINUOUS
 62
    30
 10
450.0
 20
20.0
 30
0.0
 11
450.0
 21
352.91501499999993
 31
0.0
  0
LINE
  5
1E9
  8
SIZE
  6
CONTINUOUS
 62
    30
 10
-450.0
 20
20.0
 30
0.0
 11
-450.0
 21
352.91501499999993
 31
0.0
  0
LINE
  5
1EA
  8
SIZE
  6
CONTINUOUS
 62
    30
 10
438.0
 20
332.91501499999993
 30
0.0
 11
-438.0
 21
332.91501499999993
 31
0.0
  0
CIRCLE
  5
1EB
  8
SIZE
  6
CONTINUOUS
 62
    30
 10
450.0
 20
332.91501499999993
 30
0.0
 40
6.0
  0
LINE
  5
1EC
  8
SIZE
  6
CONTINUOUS
 62
    30
 10
450.0
 20
332.91501499999993
 30
0.0
 11
438.0
 21
332.91501499999993
 31
0.0
  0
CIRCLE
  5
1ED
  8
SIZE
  6
CONTINUOUS
 62
    30
 10
-450.0
 20
332.91501499999993
 30
0.0
 40
6.0
  0
LINE
  5
1EE
  8
SIZE
  6
CONTINUOUS
 62
    30
 10
-450.0
 20
332.91501499999993
 30
0.0
 11
-438.0
 21
332.91501499999993
 31
0.0
  0
TEXT
  5
1EF
  8
SIZE
  6
CONTINUOUS
 62
    30
 10
-74.057142857142864
 20
357.91501499999993
 30
0.0
 40
64.0
  1
900
 41
0.9
 72
     1
 11
0.0
 21
357.91501499999993
 31
0.0
  0
LINE
  5
1F3
  8
SIZE
  6
CONTINUOUS
 62
    30
 10
-470.0
 20
0.0
 30
0.0
 11
-767.93007899999998
 21
0.0
 31
0.0
  0
LINE
  5
1F4
  8
SIZE
  6
CONTINUOUS
 62
    30
 10
-450.0
 20
-650.0
 30
0.0
 11
-767.93007899999998
 21
-650.0
 31
0.0
  0
LINE
  5
1F5
  8
SIZE
  6
CONTINUOUS
 62
    30
 10
-747.93007899999986
 20
-12.0
 30
0.0
 11
-747.93007899999986
 21
-638.0
 31
0.0
  0
CIRCLE
  5
1F6
  8
SIZE
  6
CONTINUOUS
 62
    30
 10
-747.93007899999986
 20
0.0
 30
0.0
 40
6.0
  0
LINE
  5
1F7
  8
SIZE
  6
CONTINUOUS
 62
    30
 10
-747.93007899999986
 20
0.0
 30
0.0
 11
-747.93007899999986
 21
-12.0
 31
0.0
  0
CIRCLE
  5
1F8
  8
SIZE
  6
CONTINUOUS
 62
    30
 10
-747.93007899999986
 20
-650.0
 30
0.0
 40
6.0
  0
LINE
  5
1F9
  8
SIZE
  6
CONTINUOUS
 62
    30
 10
-747.93007899999986
 20
-650.0
 30
0.0
 11
-747.93007899999986
 21
-638.0
 31
0.0
  0
TEXT
  5
1FA
  8
SIZE
  6
CONTINUOUS
 62
    30
 10
-772.93007899999986
 20
-399.05714285714282
 30
0.0
 40
64.0
  1
650
 50
90.0
 41
0.9
 72
     1
 11
-772.93007899999986
 21
-325.0
 31
0.0
  0
LINE
  5
1FE
  8
SIZE
  6
CONTINUOUS
 62
    30
 10
-470.0
 20
0.0
 30
0.0
 11
-639.85051499999997
 21
0.0
 31
0.0
  0
LINE
  5
1FF
  8
SIZE
  6
CONTINUOUS
 62
    30
 10
-470.0
 20
-370.0
 30
0.0
 11
-639.85051499999997
 21
-370.0
 31
0.0
  0
LINE
  5
200
  8
SIZE
  6
CONTINUOUS
 62
    30
 10
-619.85051499999986
 20
-12.0
 30
0.0
 11
-619.85051499999986
 21
-358.0
 31
0.0
  0
CIRCLE
  5
201
  8
SIZE
  6
CONTINUOUS
 62
    30
 10
-619.85051499999986
 20
0.0
 30
0.0
 40
6.0
  0
LINE
  5
202
  8
SIZE
  6
CONTINUOUS
 62
    30
 10
-619.85051499999986
 20
0.0
 30
0.0
 11
-619.85051499999986
 21
-12.0
 31
0.0
  0
CIRCLE
  5
203
  8
SIZE
  6
CONTINUOUS
 62
    30
 10
-619.85051499999986
 20
-370.0
 30
0.0
 40
6.0
  0
LINE
  5
204
  8
SIZE
  6
CONTINUOUS
 62
    30
 10
-619.85051499999986
 20
-370.0
 30
0.0
 11
-619.85051499999986
 21
-358.0
 31
0.0
  0
TEXT
  5
205
  8
SIZE
  6
CONTINUOUS
 62
    30
 10
-644.85051499999986
 20
-259.05714285714282
 30
0.0
 40
64.0
  1
370
 50
90.0
 41
0.9
 72
     1
 11
-644.85051499999986
 21
-185.0
 31
0.0
  0
TEXT
  5
209
  8
ETC
  6
CONTINUOUS
 62
    61
 10
618.73823249523321
 20
458.00755891085441
 30
0.0
 40
64.0
  1
V-904KQE7_6
 41
0.9
  0
TEXT
  5
20A
  8
ETC
  6
CONTINUOUS
 62
    61
 10
614.51626549523337
 20
361.51673191085439
 30
0.0
 40
64.0
  1
換気扇
 41
0.9
  0
TEXT
  5
20B
  8
ETC
  6
CONTINUOUS
 62
    61
 10
757.13487243027623
 20
277.73539208286132
 30
0.0
 40
50.0
  1
V-904KQE6
 41
0.9
  0
TEXT
  5
2E4
  8
ETC
  6
CONTINUOUS
 62
    61
 10
757.13487243027623
 20
197.25243371427351
 30
0.0
 40
50.0
  1
V-904KQE7
 41
0.9
  0
ENDSEC
  0
EOF
