  0
SECTION
  2
HEADER
  9
$ACADVER
  1
AC1009
  9
$DWGCODEPAGE
  3
dos932
  9
$INSBASE
 10
0.0
 20
0.0
 30
0.0
  9
$EXTMIN
 10
-1167.407210633866
 20
-253.78416775933511
 30
-0.0015258207003583
  9
$EXTMAX
 10
1571.6491821241179
 20
1159.332284074429
 30
0.0000000349246037
  9
$LIMMIN
 10
-2970.0
 20
-2100.0
  9
$LIMMAX
 10
2970.0
 20
2100.0
  9
$ORTHOMODE
 70
     1
  9
$REGENMODE
 70
     1
  9
$FILLMODE
 70
     1
  9
$QTEXTMODE
 70
     0
  9
$MIRRTEXT
 70
     0
  9
$LTSCALE
 40
20.0
  9
$ATTMODE
 70
     1
  9
$TEXTSIZE
 40
64.0
  9
$TRACEWID
 40
0.05
  9
$TEXTSTYLE
  7
STANDARD
  9
$CLAYER
  8
SIZE
  9
$CELTYPE
  6
CONTINUOUS
  9
$CECOLOR
 62
     7
  9
$DIMSCALE
 40
1.0
  9
$DIMASZ
 40
12.0
  9
$DIMEXO
 40
20.0
  9
$DIMDLI
 40
200.0
  9
$DIMRND
 40
0.0
  9
$DIMDLE
 40
0.0
  9
$DIMEXE
 40
20.0
  9
$DIMTP
 40
0.0
  9
$DIMTM
 40
0.0
  9
$DIMTXT
 40
64.0
  9
$DIMCEN
 40
0.09
  9
$DIMTSZ
 40
0.0
  9
$DIMTOL
 70
     0
  9
$DIMLIM
 70
     0
  9
$DIMTIH
 70
     0
  9
$DIMTOH
 70
     0
  9
$DIMSE1
 70
     0
  9
$DIMSE2
 70
     0
  9
$DIMTAD
 70
     1
  9
$DIMZIN
 70
     8
  9
$DIMBLK
  1

  9
$DIMASO
 70
     1
  9
$DIMSHO
 70
     0
  9
$DIMPOST
  1

  9
$DIMAPOST
  1

  9
$DIMALT
 70
     0
  9
$DIMALTD
 70
     2
  9
$DIMALTF
 40
25.399999999999999
  9
$DIMLFAC
 40
1.0
  9
$DIMTOFL
 70
     1
  9
$DIMTVP
 40
0.0
  9
$DIMTIX
 70
     1
  9
$DIMSOXD
 70
     0
  9
$DIMSAH
 70
     0
  9
$DIMBLK1
  1

  9
$DIMBLK2
  1

  9
$DIMSTYLE
  2
STANDARD
  9
$DIMCLRD
 70
     7
  9
$DIMCLRE
 70
     7
  9
$DIMCLRT
 70
     7
  9
$DIMTFAC
 40
1.0
  9
$DIMGAP
 40
25.0
  9
$LUNITS
 70
     2
  9
$LUPREC
 70
     4
  9
$SKETCHINC
 40
0.1
  9
$FILLETRAD
 40
3.0
  9
$AUNITS
 70
     1
  9
$AUPREC
 70
     3
  9
$MENU
  1
ACAD
  9
$ELEVATION
 40
0.0
  9
$PELEVATION
 40
0.0
  9
$THICKNESS
 40
0.0
  9
$LIMCHECK
 70
     0
  9
$CHAMFERA
 40
0.0
  9
$CHAMFERB
 40
0.0
  9
$SKPOLY
 70
     0
  9
$TDCREATE
 40
2453019.62301037
  9
$TDUPDATE
 40
2459025.596422998
  9
$TDINDWG
 40
1.7145414468
  9
$TDUSRTIMER
 40
1.7145414468
  9
$USRTIMER
 70
     1
  9
$ANGBASE
 50
0.0
  9
$ANGDIR
 70
     0
  9
$PDMODE
 70
     3
  9
$PDSIZE
 40
-2.0
  9
$PLINEWID
 40
0.0
  9
$SPLFRAME
 70
     0
  9
$SPLINETYPE
 70
     6
  9
$SPLINESEGS
 70
     8
  9
$SURFTAB1
 70
     6
  9
$SURFTAB2
 70
     6
  9
$SURFTYPE
 70
     6
  9
$SURFU
 70
     6
  9
$SURFV
 70
     6
  9
$UCSNAME
  2

  9
$UCSORG
 10
0.0
 20
0.0
 30
0.0
  9
$UCSXDIR
 10
1.0
 20
0.0
 30
0.0
  9
$UCSYDIR
 10
0.0
 20
1.0
 30
0.0
  9
$PUCSNAME
  2

  9
$PUCSORG
 10
0.0
 20
0.0
 30
0.0
  9
$PUCSXDIR
 10
1.0
 20
0.0
 30
0.0
  9
$PUCSYDIR
 10
0.0
 20
1.0
 30
0.0
  9
$USERI1
 70
     0
  9
$USERI2
 70
     0
  9
$USERI3
 70
     0
  9
$USERI4
 70
     0
  9
$USERI5
 70
     0
  9
$USERR1
 40
20.0
  9
$USERR2
 40
0.0
  9
$USERR3
 40
0.0
  9
$USERR4
 40
0.0
  9
$USERR5
 40
0.0
  9
$WORLDVIEW
 70
     1
  9
$SHADEDGE
 70
     3
  9
$SHADEDIF
 70
    70
  9
$TILEMODE
 70
     1
  9
$MAXACTVP
 70
    48
  9
$PINSBASE
 10
0.0
 20
0.0
 30
0.0
  9
$PLIMCHECK
 70
     0
  9
$PEXTMIN
 10
-100000000000000000000.0
 20
-100000000000000000000.0
 30
-100000000000000000000.0
  9
$PEXTMAX
 10
100000000000000000000.0
 20
100000000000000000000.0
 30
100000000000000000000.0
  9
$PLIMMIN
 10
0.0
 20
0.0
  9
$PLIMMAX
 10
12.0
 20
9.0
  9
$UNITMODE
 70
     0
  9
$VISRETAIN
 70
     0
  9
$PLINEGEN
 70
     0
  9
$PSLTSCALE
 70
     0
  9
$TREEDEPTH
 70
  3020
  9
$ATTDIA
 70
     0
  9
$ATTREQ
 70
     1
  9
$BLIPMODE
 70
     1
  9
$COORDS
 70
     1
  9
$DRAGMODE
 70
     2
  9
$OSMODE
 70
     0
  9
$HANDLING
 70
     0
  9
$HANDSEED
  5
111A2
  0
ENDSEC
  0
SECTION
  2
TABLES
  0
TABLE
  2
LTYPE
 70
     3
  0
LTYPE
  2
CONTINUOUS
 70
     0
  3
実線
 72
    65
 73
     0
 40
0.0
  0
LTYPE
  2
DASHDOT
 70
     0
  3
____ _ ____ _ ____ _ ____ _ ____ _ ____ _ ____
 72
    65
 73
     4
 40
5.5
 49
4.0
 49
-0.6
 49
0.3
 49
-0.6
  0
LTYPE
  2
DIVIDE
 70
     0
  3
Divide ____ . . ____ . . ____ . . ____ . . ____
 72
    65
 73
     6
 40
1.25
 49
0.5
 49
-0.25
 49
0.0
 49
-0.25
 49
0.0
 49
-0.25
  0
ENDTAB
  0
TABLE
  2
LAYER
 70
    12
  0
LAYER
  2
0
 70
     0
 62
     7
  6
CONTINUOUS
  0
LAYER
  2
BASIS
 70
     0
 62
     6
  6
DASHDOT
  0
LAYER
  2
OUTLINE
 70
     0
 62
     3
  6
CONTINUOUS
  0
LAYER
  2
DETAIL
 70
     0
 62
     5
  6
CONTINUOUS
  0
LAYER
  2
SIZE
 70
     0
 62
    30
  6
CONTINUOUS
  0
LAYER
  2
ARRANGE
 70
     0
 62
     1
  6
CONTINUOUS
  0
LAYER
  2
ETC
 70
     0
 62
    61
  6
CONTINUOUS
  0
LAYER
  2
FIX
 70
     0
 62
    11
  6
CONTINUOUS
  0
LAYER
  2
NOTE
 70
     0
 62
     4
  6
CONTINUOUS
  0
LAYER
  2
DEFPOINTS
 70
    64
 62
     7
  6
CONTINUOUS
  0
LAYER
  2
SERVICESPACE
 70
    64
 62
     2
  6
DASHDOT
  0
LAYER
  2
SYMBOLLINE
 70
    64
 62
    15
  6
CONTINUOUS
  0
ENDTAB
  0
TABLE
  2
STYLE
 70
     1
  0
STYLE
  2
STANDARD
 70
     0
 40
64.0
 41
0.9
 50
0.0
 71
     0
 42
64.0
  3
SIMPLEX.shx
  4
BIGFONT.shx
  0
ENDTAB
  0
TABLE
  2
APPID
 70
    19
  0
APPID
  2
ACAD
 70
     0
  0
APPID
  2
AUTOCAD_POSTSCRIPT_FIGURE
 70
     0
  0
APPID
  2
ACAD_EXEMPT_FROM_CAD_STANDARDS
 70
     0
  0
APPID
  2
ACAD_PSEXT
 70
     0
  0
APPID
  2
ACAUTHENVIRON
 70
     0
  0
APPID
  2
GENIUS_GENOENT_13
 70
     0
  0
APPID
  2
GENIUS_GENCFG_13
 70
     0
  0
APPID
  2
GENIUS_GENCFG0_13
 70
     0
  0
APPID
  2
GENIUS_GENCFG1_13
 70
     0
  0
APPID
  2
GENIUS_GENCFG2_13
 70
     0
  0
APPID
  2
GENIUS_GENCFG3_13
 70
     0
  0
APPID
  2
GENIUS_GENCFG4_13
 70
     0
  0
APPID
  2
GENIUS_GEVCFG0_13
 70
     0
  0
APPID
  2
CONTENTBLOCKICON
 70
     0
  0
APPID
  2
CONTENTBLOCKDESCRIPTION
 70
     0
  0
APPID
  2
ACAD_NAV_VCDISPLAY
 70
     0
  0
APPID
  2
ACAD_MLEADERVER
 70
     0
  0
APPID
  2
ACDBDYNAMICBLOCKTRUENAME
 70
     0
  0
APPID
  2
ACDBDYNAMICBLOCKGUID
 70
     0
  0
ENDTAB
  0
TABLE
  2
DIMSTYLE
 70
     1
  0
DIMSTYLE
  2
STANDARD
 70
     0
  3

  4

  5
_ORIGIN
  6

  7

 40
1.0
 41
12.0
 42
20.0
 43
200.0
 44
20.0
 45
0.0
 46
0.0
 47
0.0
 48
0.0
140
64.0
141
0.09
142
0.0
143
25.399999999999999
144
1.0
145
0.0
146
1.0
147
25.0
 71
     0
 72
     0
 73
     0
 74
     0
 75
     0
 76
     0
 77
     1
 78
     8
170
     0
171
     2
172
     1
173
     0
174
     1
175
     0
176
     7
177
     7
178
     7
  0
ENDTAB
  0
TABLE
  2
VIEW
 70
     1
  0
VIEW
  2
ALL
 70
     0
 40
4282.6198079999986
 10
0.0
 20
41.309904000000003
 41
5940.0
 11
0.0
 21
0.0
 31
1.0
 12
0.0
 22
0.0
 32
0.0
 42
50.0
 43
0.0
 44
0.0
 50
0.0
 71
     0
  0
ENDTAB
  0
TABLE
  2
UCS
 70
     0
  0
ENDTAB
  0
TABLE
  2
VPORT
 70
     1
  0
VPORT
  2
*ACTIVE
 70
     0
 10
0.0
 20
0.0
 11
1.0
 21
1.0
 12
202.12098574512581
 22
452.77405815754719
 13
0.0
 23
0.0
 14
1.0
 24
1.0
 15
0.0
 25
0.0
 16
0.0
 26
0.0
 36
1.0
 17
0.0
 27
0.0
 37
0.0
 40
1573.1009664314761
 41
1.747787610619469
 42
50.0
 43
0.0
 44
0.0
 50
0.0
 51
0.0
 71
     0
 72
  1000
 73
     1
 74
     3
 75
     0
 76
     0
 77
     0
 78
     0
  0
ENDTAB
  0
ENDSEC
  0
SECTION
  2
BLOCKS
  0
BLOCK
  8
0
  2
_ORIGIN
 70
     0
 10
0.0
 20
0.0
 30
0.0
  3
_ORIGIN
  1
_ORIGIN
  0
CIRCLE
  8
0
  6
CONTINUOUS
 62
     7
 10
0.0
 20
0.0
 30
0.0
 40
0.5
  0
LINE
  8
0
  6
CONTINUOUS
 62
     7
 10
0.0
 20
0.0
 30
0.0
 11
-1.0
 21
0.0
 31
0.0
  0
ENDBLK
  8
0
  0
ENDSEC
  0
SECTION
  2
ENTITIES
  0
TEXT
  8
ETC
  6
CONTINUOUS
 62
    61
 10
701.78615890329911
 20
1066.642027269027
 30
0.0
 40
64.0
  1
V-904SHL3-R-S_4
 41
0.9
  0
TEXT
  8
ETC
  6
CONTINUOUS
 62
    61
 10
697.60016490329872
 20
948.68671725419563
 30
0.0
 40
64.0
  1
換気扇
 41
0.9
  0
TEXT
  8
ETC
  6
CONTINUOUS
 62
    61
 10
748.30156315185468
 20
840.53794436797034
 30
0.0
 40
40.0
  1
V-904SHL3-R-S
 41
0.9
  0
CIRCLE
  8
ARRANGE
  6
CONTINUOUS
 62
     1
 10
0.0
 20
0.0
 30
0.0
 40
40.0
  0
POINT
  8
ARRANGE
  6
CONTINUOUS
 62
     1
 10
0.0
 20
0.0
 30
0.0
  0
LINE
  8
BASIS
  6
DASHDOT
 62
     6
 10
0.0
 20
-20.629391026564921
 30
0.0
 11
0.0
 21
376.95794989982278
 31
0.0
  0
LINE
  8
BASIS
  6
DASHDOT
 62
     6
 10
125.4561247050906
 20
0.0
 30
0.0
 11
-627.40493576999506
 21
0.0
 31
0.0
  0
ARC
  8
DETAIL
  6
CONTINUOUS
 62
     5
 10
-1.601067375995626
 20
298.60240180700021
 30
0.0
 40
0.8005336880006405
 50
0.0
 51
90.0
  0
ARC
  8
DETAIL
  6
CONTINUOUS
 62
     5
 10
-1.601067375995626
 20
298.60240180700021
 30
0.0
 40
1.6010673759999099
 50
0.0
 51
90.0
  0
ARC
  8
DETAIL
  6
CONTINUOUS
 62
     5
 10
-70.246831121996365
 20
279.38959287299991
 30
0.0
 40
0.8005336879997199
 50
180.0
 51
270.0
  0
ARC
  8
DETAIL
  6
CONTINUOUS
 62
     5
 10
-69.646430855998915
 20
276.98799180900011
 30
0.0
 40
1.60106737599945
 50
0.0
 51
90.0
  0
ARC
  8
DETAIL
  6
CONTINUOUS
 62
     5
 10
-60.040026599999692
 20
272.38492310299989
 30
0.0
 40
8.0053368800000104
 50
180.0
 51
222.47910396309291
  0
ARC
  8
DETAIL
  6
CONTINUOUS
 62
     5
 10
-1.601067375995626
 20
147.20146764199939
 30
0.0
 40
0.8005336879999501
 50
270.0
 51
0.0
  0
ARC
  8
DETAIL
  6
CONTINUOUS
 62
     5
 10
-1.601067375995626
 20
147.20146764199939
 30
0.0
 40
1.6010673759998899
 50
270.0
 51
0.0
  0
ARC
  8
DETAIL
  6
DIVIDE
 62
     5
 10
-449.09939896799921
 20
699.16944551799997
 30
0.0
 40
0.60040026599995
 50
90.0
 51
180.0
  0
ARC
  8
DETAIL
  6
DIVIDE
 62
     5
 10
-449.09939896799921
 20
699.16944551799997
 30
0.0
 40
1.2008005320000501
 50
90.0
 51
180.0
  0
ARC
  8
DETAIL
  6
CONTINUOUS
 62
     5
 10
-360.18160849150809
 20
300.40360218299969
 30
0.0
 40
300.20013300000011
 50
254.78875425061401
 51
270.0
  0
ARC
  8
DETAIL
  6
DIVIDE
 62
     5
 10
-450.90059976599878
 20
150.40360239399979
 30
0.0
 40
0.6004002660000199
 50
270.0
 51
0.0
  0
ARC
  8
DETAIL
  6
DIVIDE
 62
     5
 10
-450.90059976599878
 20
150.40360239399979
 30
0.0
 40
1.20080053199992
 50
270.0
 51
0.0
  0
ARC
  8
DETAIL
  6
CONTINUOUS
 62
     5
 10
-607.40493576999506
 20
141.99799866999999
 30
0.0
 40
3.002001330000009
 50
90.0
 51
180.0
  0
ARC
  8
DETAIL
  6
CONTINUOUS
 62
     5
 10
-604.40293444000054
 20
106.9746498199997
 30
0.0
 40
15.010006649999839
 50
155.37568164778611
 51
204.62431835221389
  0
ARC
  8
DETAIL
  6
CONTINUOUS
 62
     5
 10
-595.39693044999876
 20
68.815243850162005
 30
0.0
 40
15.010006649999999
 50
180.0
 51
254.78875425061401
  0
LINE
  8
DETAIL
  6
DIVIDE
 62
     5
 10
-401.46764453199648
 20
700.37024604999988
 30
0.0
 11
-449.09939896799921
 21
700.37024604999988
 31
0.0
  0
LINE
  8
DETAIL
  6
DIVIDE
 62
     5
 10
-401.46764453199648
 20
699.76984578399993
 30
0.0
 11
-449.09939896799921
 21
699.76984578399993
 31
0.0
  0
LINE
  8
DETAIL
  6
DIVIDE
 62
     5
 10
-449.69979923399842
 20
699.16944551799997
 30
0.0
 11
-450.30019949999769
 21
699.16944551799997
 31
0.0
  0
LINE
  8
DETAIL
  6
DIVIDE
 62
     5
 10
-400.26684399999772
 20
699.16944551799997
 30
0.0
 11
-401.46764453199648
 21
699.16944551799997
 31
0.0
  0
LINE
  8
DETAIL
  6
CONTINUOUS
 62
     5
 10
0.0
 20
147.20146764199939
 30
0.0
 11
0.0
 21
298.20213496300039
 31
0.0
  0
LINE
  8
DETAIL
  6
CONTINUOUS
 62
     5
 10
0.0
 20
0.2034691829999247
 30
0.0
 11
0.0
 21
145.60040026600021
 31
0.0
  0
LINE
  8
DETAIL
  6
CONTINUOUS
 62
     5
 10
-0.8005336879978131
 20
348.63609043999992
 30
0.0
 11
-0.8005336879978131
 21
348.23582359599999
 31
0.0
  0
LINE
  8
DETAIL
  6
CONTINUOUS
 62
     5
 10
-2.0013342199963522
 20
146.8012007979996
 30
0.0
 11
-2.0013342199963522
 21
145.0
 31
0.0
  0
LINE
  8
DETAIL
  6
CONTINUOUS
 62
     5
 10
-2.0113408910983712
 20
145.60040026600021
 30
0.0
 11
-2.0113408910983712
 21
146.8112074690998
 31
0.0
  0
LINE
  8
DETAIL
  6
CONTINUOUS
 62
     5
 10
-15.0100066499981
 20
298.20213496300039
 30
0.0
 11
-15.0100066499981
 21
149.60306870600019
 31
0.0
  0
LINE
  8
DETAIL
  6
CONTINUOUS
 62
     5
 10
-15.0100066499981
 20
300.20346918299992
 30
0.0
 11
-15.0100066499981
 21
299.40293549499972
 31
0.0
  0
LINE
  8
DETAIL
  6
CONTINUOUS
 62
     5
 10
-45.03001994999795
 20
263.57905253499968
 30
0.0
 11
-45.03001994999795
 21
266.9813207090001
 31
0.0
  0
LINE
  8
DETAIL
  6
CONTINUOUS
 62
     5
 10
-68.045363479999651
 20
272.38492310299989
 30
0.0
 11
-68.045363479999651
 21
276.98799180900011
 31
0.0
  0
LINE
  8
DETAIL
  6
CONTINUOUS
 62
     5
 10
-71.047364809997816
 20
279.38959287299991
 30
0.0
 11
-71.047364809997816
 21
318.61574358500002
 31
0.0
  0
LINE
  8
DETAIL
  6
CONTINUOUS
 62
     5
 10
-219.1460970899989
 20
279.38959287299991
 30
0.0
 11
-219.14609709000069
 21
318.61574358500002
 31
0.0
  0
LINE
  8
DETAIL
  6
CONTINUOUS
 62
     5
 10
-15.0100066499981
 20
149.60306870600019
 30
0.0
 11
-13.00867243000175
 21
147.6017344860002
 31
0.0
  0
LINE
  8
DETAIL
  6
CONTINUOUS
 62
     5
 10
-1.601067375995626
 20
300.20346918299992
 30
0.0
 11
-15.0100066499981
 21
300.20346918299992
 31
0.0
  0
LINE
  8
DETAIL
  6
CONTINUOUS
 62
     5
 10
-1.601067375995626
 20
299.40293549499972
 30
0.0
 11
-15.0100066499981
 21
299.40293549499972
 31
0.0
  0
LINE
  8
DETAIL
  6
CONTINUOUS
 62
     5
 10
0.0
 20
298.20213496300039
 30
0.0
 11
-15.0100066499981
 21
298.20213496300039
 31
0.0
  0
LINE
  8
DETAIL
  6
DIVIDE
 62
     5
 10
-397.86524293600093
 20
146.2008005319999
 30
0.0
 11
-397.86524293600093
 21
148.60240159600019
 31
0.0
  0
LINE
  8
DETAIL
  6
DIVIDE
 62
     5
 10
-400.26684399999772
 20
147.40160106399981
 30
0.0
 11
-400.26684399999772
 21
699.16944551799997
 31
0.0
  0
LINE
  8
DETAIL
  6
DIVIDE
 62
     5
 10
-401.46764453199648
 20
146.2008005319999
 30
0.0
 11
-401.46764453199648
 21
147.40160106399981
 31
0.0
  0
LINE
  8
DETAIL
  6
DIVIDE
 62
     5
 10
-401.46764453199648
 20
700.37024604999988
 30
0.0
 11
-401.46764453199648
 21
699.16944551799997
 31
0.0
  0
LINE
  8
DETAIL
  6
CONTINUOUS
 62
     5
 10
-219.14609709000069
 20
318.61574358500002
 30
0.0
 11
-71.047364809997816
 21
318.61574358500002
 31
0.0
  0
LINE
  8
DETAIL
  6
DIVIDE
 62
     5
 10
-400.26684399999772
 20
296.30086703199959
 30
0.0
 11
-390.260172899998
 21
296.30086703199959
 31
0.0
  0
LINE
  8
DETAIL
  6
DIVIDE
 62
     5
 10
-200.133421999999
 20
156.20747163200031
 30
0.0
 11
-390.260172899998
 21
296.30086703199959
 31
0.0
  0
LINE
  8
DETAIL
  6
DIVIDE
 62
     5
 10
-449.09939896799921
 20
146.2008005319999
 30
0.0
 11
-449.09939896799921
 21
150.40360239399979
 31
0.0
  0
LINE
  8
DETAIL
  6
DIVIDE
 62
     5
 10
-449.09939896799921
 20
700.37024604999988
 30
0.0
 11
-449.09939896799921
 21
699.76984578399993
 31
0.0
  0
LINE
  8
DETAIL
  6
DIVIDE
 62
     5
 10
-450.30019949999769
 20
699.16944551799997
 30
0.0
 11
-450.30019949999769
 21
150.40360239399979
 31
0.0
  0
LINE
  8
DETAIL
  6
DIVIDE
 62
     5
 10
-463.30887192999938
 20
149.80320212799961
 30
0.0
 11
-463.30887192999938
 21
149.20280186199989
 31
0.0
  0
LINE
  8
DETAIL
  6
DIVIDE
 62
     5
 10
-465.31020614999937
 20
149.80320212799961
 30
0.0
 11
-465.31020614999937
 21
149.20280186199989
 31
0.0
  0
LINE
  8
DETAIL
  6
DIVIDE
 62
     5
 10
-449.09939896799921
 20
150.40360239399979
 30
0.0
 11
-450.30019949999769
 21
150.40360239399979
 31
0.0
  0
LINE
  8
DETAIL
  6
DIVIDE
 62
     5
 10
-465.31020614999937
 20
149.80320212799961
 30
0.0
 11
-450.90059976599878
 21
149.80320212799961
 31
0.0
  0
LINE
  8
DETAIL
  6
DIVIDE
 62
     5
 10
-465.31020614999937
 20
149.20280186199989
 30
0.0
 11
-450.90059976599878
 21
149.20280186199989
 31
0.0
  0
LINE
  8
DETAIL
  6
DIVIDE
 62
     5
 10
-400.26684399999772
 20
148.60240159600019
 30
0.0
 11
-397.86524293600093
 21
148.60240159600019
 31
0.0
  0
LINE
  8
DETAIL
  6
CONTINUOUS
 62
     5
 10
0.0
 20
147.6017344860002
 30
0.0
 11
-13.00867243000175
 21
147.6017344860002
 31
0.0
  0
LINE
  8
DETAIL
  6
DIVIDE
 62
     5
 10
-400.26684399999772
 20
147.40160106399981
 30
0.0
 11
-401.46764453199648
 21
147.40160106399981
 31
0.0
  0
LINE
  8
DETAIL
  6
CONTINUOUS
 62
     5
 10
-2.0113408910983712
 20
146.8112074690998
 30
0.0
 11
-0.8005336879978131
 21
146.8112074690998
 31
0.0
  0
LINE
  8
DETAIL
  6
CONTINUOUS
 62
     5
 10
-2.0013342199963522
 20
146.8012007979996
 30
0.0
 11
-0.8005336879978131
 21
146.8012007979996
 31
0.0
  0
LINE
  8
DETAIL
  6
CONTINUOUS
 62
     5
 10
-1.601067375995626
 20
146.40093395399981
 30
0.0
 11
-2.0113408910983712
 21
146.40093395399981
 31
0.0
  0
LINE
  8
DETAIL
  6
CONTINUOUS
 62
     5
 10
-351.6344224539971
 20
146.2008005319999
 30
0.0
 11
-2.0013342199963522
 21
146.2008005319999
 31
0.0
  0
LINE
  8
DETAIL
  6
DIVIDE
 62
     5
 10
-401.46764453199648
 20
146.2008005319999
 30
0.0
 11
-449.09939896799921
 21
146.2008005319999
 31
0.0
  0
LINE
  8
DETAIL
  6
CONTINUOUS
 62
     5
 10
0.0
 20
145.0
 30
0.0
 11
-607.40493576999506
 21
145.0
 31
0.0
  0
LINE
  8
DETAIL
  6
CONTINUOUS
 62
     5
 10
-613.40893842999878
 20
121.9846564700001
 30
0.0
 11
-610.40693709999687
 21
121.9846564700001
 31
0.0
  0
LINE
  8
DETAIL
  6
CONTINUOUS
 62
     5
 10
-610.40693709999687
 20
141.99799866999999
 30
0.0
 11
-610.40693709999687
 21
68.815243850162005
 31
0.0
  0
LINE
  8
DETAIL
  6
CONTINUOUS
 62
     5
 10
-613.40893842999878
 20
91.964643169999817
 30
0.0
 11
-613.40893842999878
 21
121.9846564700001
 31
0.0
  0
LINE
  8
DETAIL
  6
CONTINUOUS
 62
     5
 10
-613.40893842999878
 20
113.22881925749969
 30
0.0
 11
-618.0479212216743
 21
113.22881925749969
 31
0.0
  0
LINE
  8
DETAIL
  6
CONTINUOUS
 62
     5
 10
-613.40893842999878
 20
100.7204803824998
 30
0.0
 11
-618.0479212216743
 21
100.7204803824998
 31
0.0
  0
LINE
  8
DETAIL
  6
CONTINUOUS
 62
     5
 10
-613.40893842999878
 20
91.964643169999817
 30
0.0
 11
-610.40693709999687
 21
91.964643169999817
 31
0.0
  0
LINE
  8
DETAIL
  6
CONTINUOUS
 62
     5
 10
-599.33523471873195
 20
54.331112564022987
 30
0.0
 11
-438.9476938678672
 21
10.72097645673063
 31
0.0
  0
LINE
  8
DETAIL
  6
CONTINUOUS
 62
     5
 10
-360.18160849150809
 20
0.2034691829999247
 30
0.0
 11
0.0
 21
0.2034691829999247
 31
0.0
  0
LINE
  8
DETAIL
  6
DIVIDE
 62
     5
 10
-401.46764453199648
 20
146.8012007979996
 30
0.0
 11
-449.09939896799921
 21
146.8012007979996
 31
0.0
  0
LINE
  8
DETAIL
  6
DIVIDE
 62
     5
 10
-200.133421999999
 20
147.40160106399981
 30
0.0
 11
-397.86524293600093
 21
147.40160106399981
 31
0.0
  0
LINE
  8
DETAIL
  6
DIVIDE
 62
     5
 10
-449.69979923400018
 20
699.16944551799997
 30
0.0
 11
-449.69979923400018
 21
150.40360239399979
 31
0.0
  0
LINE
  8
DETAIL
  6
DIVIDE
 62
     5
 10
-447.89859843600061
 20
700.37024604999988
 30
0.0
 11
-447.89859843600061
 21
699.76984578399993
 31
0.0
  0
LINE
  8
DETAIL
  6
CONTINUOUS
 62
     5
 10
-354.03602351799782
 20
263.57905253499968
 30
0.0
 11
-15.0100066499981
 21
263.57905253499968
 31
0.0
  0
LINE
  8
DETAIL
  6
DIVIDE
 62
     5
 10
-435.29019284999958
 20
700.37024604999988
 30
0.0
 11
-435.29019284999958
 21
699.76984578399993
 31
0.0
  0
LINE
  8
DETAIL
  6
DIVIDE
 62
     5
 10
-434.08939231800088
 20
700.37024604999988
 30
0.0
 11
-434.08939231800088
 21
699.76984578399993
 31
0.0
  0
LINE
  8
DETAIL
  6
DIVIDE
 62
     5
 10
-401.96797808699921
 20
648.13546226723918
 30
0.0
 11
-401.96797808699921
 21
652.5383188322603
 31
0.0
  0
LINE
  8
DETAIL
  6
DIVIDE
 62
     5
 10
-400.86724426599892
 20
699.16944551799997
 30
0.0
 11
-400.86724426599892
 21
147.40160106399981
 31
0.0
  0
LINE
  8
DETAIL
  6
DIVIDE
 62
     5
 10
-399.06604346799941
 20
296.30086703199959
 30
0.0
 11
-399.06604346799941
 21
148.60240159600019
 31
0.0
  0
LINE
  8
DETAIL
  6
CONTINUOUS
 62
     5
 10
-355.23682405
 20
146.8012007979996
 30
0.0
 11
-355.23682405
 21
262.37825200299989
 31
0.0
  0
LINE
  8
DETAIL
  6
CONTINUOUS
 62
     5
 10
-0.8005336879978131
 20
147.6017344860002
 30
0.0
 11
-0.8005336879978131
 21
146.8012007979996
 31
0.0
  0
LINE
  8
DETAIL
  6
DIVIDE
 62
     5
 10
-401.46764453199648
 20
648.13542290799978
 30
0.0
 11
-401.96797808699921
 21
648.13542290799978
 31
0.0
  0
LINE
  8
DETAIL
  6
DIVIDE
 62
     5
 10
-401.46764453199648
 20
648.73582317399996
 30
0.0
 11
-401.96797808699921
 21
648.73582317399996
 31
0.0
  0
LINE
  8
DETAIL
  6
DIVIDE
 62
     5
 10
-401.46764453199648
 20
651.93795792600008
 30
0.0
 11
-401.96797808699921
 21
651.93795792600008
 31
0.0
  0
LINE
  8
DETAIL
  6
DIVIDE
 62
     5
 10
-401.46764453199648
 20
652.53835819199992
 30
0.0
 11
-401.96797808699921
 21
652.53835819199992
 31
0.0
  0
ARC
  8
DETAIL
  6
CONTINUOUS
 62
     5
 10
-355.83722431599739
 20
146.8012007979996
 30
0.0
 40
0.6004002660000199
 50
270.0
 51
0.0
  0
ARC
  8
DETAIL
  6
CONTINUOUS
 62
     5
 10
-354.03602351799782
 20
262.37825200299989
 30
0.0
 40
1.2008005320000501
 50
90.0
 51
180.0
  0
ARC
  8
DETAIL
  6
DIVIDE
 62
     5
 10
-401.46764453199648
 20
653.1387584580001
 30
0.0
 40
1.2008005320000501
 50
270.0
 51
0.0
  0
ARC
  8
DETAIL
  6
DIVIDE
 62
     5
 10
-401.46764453199648
 20
647.53502264200017
 30
0.0
 40
1.2008005319997599
 50
0.0
 51
90.0
  0
ARC
  8
DETAIL
  6
DIVIDE
 62
     5
 10
-401.46764453199648
 20
653.1387584580001
 30
0.0
 40
0.6004002660000199
 50
270.0
 51
0.0
  0
ARC
  8
DETAIL
  6
DIVIDE
 62
     5
 10
-401.46764453199648
 20
647.53502264200017
 30
0.0
 40
0.6004002659998798
 50
0.0
 51
90.0
  0
LINE
  8
NOTE
  6
CONTINUOUS
 62
     4
 10
-289.99999999999818
 20
256.05982334656483
 30
0.0
 11
-289.99999999999818
 21
410.25047365852561
 31
0.0
  0
ARC
  8
DETAIL
  6
DIVIDE
 62
     5
 10
-185.12341534999359
 20
293.39893241299978
 30
0.0
 40
110.3869629630544
 50
13.20525252972207
 51
87.402154664138536
  0
LINE
  8
DETAIL
  6
CONTINUOUS
 62
     5
 10
-180.12007979999541
 20
369.89221095827622
 30
0.0
 11
-175.37644671668019
 21
358.80945258801057
 31
0.0
  0
LINE
  8
DETAIL
  6
CONTINUOUS
 62
     5
 10
-175.37644671668019
 20
358.80945258801057
 30
0.0
 11
-171.59850891759561
 21
348.03535661899969
 31
0.0
  0
LINE
  8
DETAIL
  6
CONTINUOUS
 62
     5
 10
-171.59850891759561
 20
348.03535661899969
 30
0.0
 11
-171.59850891759561
 21
348.03535661899969
 31
0.0
  0
LINE
  8
DETAIL
  6
CONTINUOUS
 62
     5
 10
-171.59850891759561
 20
348.03535661899969
 30
0.0
 11
-169.5437048912718
 21
337.76283705202877
 31
0.0
  0
LINE
  8
DETAIL
  6
CONTINUOUS
 62
     5
 10
-169.5437048912718
 20
337.76283705202877
 30
0.0
 11
-169.1364459434335
 21
327.72181428600021
 31
0.0
  0
LINE
  8
DETAIL
  6
CONTINUOUS
 62
     5
 10
-169.1364459434335
 20
327.72181428600021
 30
0.0
 11
-169.1364459434335
 21
327.72181428600021
 31
0.0
  0
LINE
  8
DETAIL
  6
CONTINUOUS
 62
     5
 10
-169.1364459434335
 20
327.72181428600021
 30
0.0
 11
-169.9070400344535
 21
318.61574358500002
 31
0.0
  0
LINE
  8
DETAIL
  6
CONTINUOUS
 62
     5
 10
-169.9070400344535
 20
318.61574358500002
 30
0.0
 11
-169.9070400344535
 21
318.61574358500002
 31
0.0
  0
LINE
  8
DETAIL
  6
CONTINUOUS
 62
     5
 10
-180.12007979999541
 20
403.67244793499958
 30
0.0
 11
-180.12007979999541
 21
369.89221095824541
 31
0.0
  0
LINE
  8
DETAIL
  6
DIVIDE
 62
     5
 10
-180.42027993300141
 20
403.67244793499958
 30
0.0
 11
-180.12007979999541
 21
403.67244793499958
 31
0.0
  0
LINE
  8
DETAIL
  6
CONTINUOUS
 62
     5
 10
-180.42027993300141
 20
403.67244793499958
 30
0.0
 11
-180.42027993300141
 21
318.61574358500002
 31
0.0
  0
LINE
  8
BASIS
  6
DASHDOT
 62
     6
 10
-145.09673094999741
 20
229.8126208491752
 30
0.0
 11
-145.09673094999741
 21
360.2873729934272
 31
0.0
  0
ARC
  8
OUTLINE
  6
CONTINUOUS
 62
     3
 10
-1.601067375995626
 20
298.60240180700021
 30
0.0
 40
0.8005336880006405
 50
0.0
 51
90.0
  0
ARC
  8
OUTLINE
  6
CONTINUOUS
 62
     3
 10
-1.601067375995626
 20
298.60240180700021
 30
0.0
 40
1.6010673759999099
 50
0.0
 51
90.0
  0
ARC
  8
OUTLINE
  6
CONTINUOUS
 62
     3
 10
-70.246831121996365
 20
279.38959287299991
 30
0.0
 40
0.8005336879997199
 50
180.0
 51
270.0
  0
ARC
  8
OUTLINE
  6
CONTINUOUS
 62
     3
 10
-69.646430855998915
 20
276.98799180900011
 30
0.0
 40
1.60106737599945
 50
0.0
 51
90.0
  0
ARC
  8
OUTLINE
  6
CONTINUOUS
 62
     3
 10
-60.040026599999692
 20
272.38492310299989
 30
0.0
 40
8.0053368800000104
 50
180.0
 51
222.47910396309291
  0
ARC
  8
OUTLINE
  6
CONTINUOUS
 62
     3
 10
-1.601067375995626
 20
147.20146764199939
 30
0.0
 40
0.8005336879999501
 50
270.0
 51
0.0
  0
ARC
  8
OUTLINE
  6
CONTINUOUS
 62
     3
 10
-1.601067375995626
 20
147.20146764199939
 30
0.0
 40
1.6010673759998899
 50
270.0
 51
0.0
  0
ARC
  8
OUTLINE
  6
CONTINUOUS
 62
     3
 10
-360.18160849150809
 20
300.40360218299969
 30
0.0
 40
300.20013300000011
 50
254.78875425058709
 51
270.0
  0
ARC
  8
OUTLINE
  6
CONTINUOUS
 62
     3
 10
-607.40493576999506
 20
141.99799866999999
 30
0.0
 40
3.002001330000009
 50
90.0
 51
180.0
  0
ARC
  8
OUTLINE
  6
CONTINUOUS
 62
     3
 10
-595.39693044999876
 20
68.815243850162005
 30
0.0
 40
15.010006649999999
 50
180.0
 51
254.78875425061401
  0
LINE
  8
OUTLINE
  6
CONTINUOUS
 62
     3
 10
0.0
 20
147.20146764199939
 30
0.0
 11
0.0
 21
298.20213496300039
 31
0.0
  0
LINE
  8
OUTLINE
  6
CONTINUOUS
 62
     3
 10
0.0
 20
0.2034691829999247
 30
0.0
 11
0.0
 21
145.60040026600021
 31
0.0
  0
LINE
  8
OUTLINE
  6
CONTINUOUS
 62
     3
 10
-2.0013342199963522
 20
146.8012007979996
 30
0.0
 11
-2.0013342199963522
 21
145.0
 31
0.0
  0
LINE
  8
OUTLINE
  6
CONTINUOUS
 62
     3
 10
-2.0113408910983712
 20
145.60040026600021
 30
0.0
 11
-2.0113408910983712
 21
146.8112074690998
 31
0.0
  0
LINE
  8
OUTLINE
  6
CONTINUOUS
 62
     3
 10
-15.0100066499981
 20
298.20213496300039
 30
0.0
 11
-15.0100066499981
 21
149.60306870600019
 31
0.0
  0
LINE
  8
OUTLINE
  6
CONTINUOUS
 62
     3
 10
-15.0100066499981
 20
300.20346918299992
 30
0.0
 11
-15.0100066499981
 21
299.40293549499972
 31
0.0
  0
LINE
  8
OUTLINE
  6
CONTINUOUS
 62
     3
 10
-45.03001994999795
 20
263.57905253499968
 30
0.0
 11
-45.03001994999795
 21
266.9813207090001
 31
0.0
  0
LINE
  8
OUTLINE
  6
CONTINUOUS
 62
     3
 10
-68.045363479999651
 20
272.38492310299989
 30
0.0
 11
-68.045363479999651
 21
276.98799180900011
 31
0.0
  0
LINE
  8
OUTLINE
  6
CONTINUOUS
 62
     3
 10
-71.047364809997816
 20
279.38959287299991
 30
0.0
 11
-71.047364809997816
 21
318.61574358500002
 31
0.0
  0
LINE
  8
OUTLINE
  6
CONTINUOUS
 62
     3
 10
-219.1460970899989
 20
279.38959287299991
 30
0.0
 11
-219.14609709000069
 21
318.61574358500002
 31
0.0
  0
LINE
  8
OUTLINE
  6
CONTINUOUS
 62
     3
 10
-15.0100066499981
 20
149.60306870600019
 30
0.0
 11
-13.00867243000175
 21
147.6017344860002
 31
0.0
  0
LINE
  8
OUTLINE
  6
CONTINUOUS
 62
     3
 10
-1.601067375995626
 20
300.20346918299992
 30
0.0
 11
-15.0100066499981
 21
300.20346918299992
 31
0.0
  0
LINE
  8
OUTLINE
  6
CONTINUOUS
 62
     3
 10
-1.601067375995626
 20
299.40293549499972
 30
0.0
 11
-15.0100066499981
 21
299.40293549499972
 31
0.0
  0
LINE
  8
OUTLINE
  6
CONTINUOUS
 62
     3
 10
0.0
 20
298.20213496300039
 30
0.0
 11
-15.0100066499981
 21
298.20213496300039
 31
0.0
  0
LINE
  8
OUTLINE
  6
CONTINUOUS
 62
     3
 10
-219.14609709000069
 20
318.61574358500002
 30
0.0
 11
-71.047364809997816
 21
318.61574358500002
 31
0.0
  0
LINE
  8
OUTLINE
  6
CONTINUOUS
 62
     3
 10
0.0
 20
147.6017344860002
 30
0.0
 11
-13.00867243000175
 21
147.6017344860002
 31
0.0
  0
LINE
  8
OUTLINE
  6
CONTINUOUS
 62
     3
 10
-2.0113408910983712
 20
146.8112074690998
 30
0.0
 11
-0.8005336879978131
 21
146.8112074690998
 31
0.0
  0
LINE
  8
OUTLINE
  6
CONTINUOUS
 62
     3
 10
-2.0013342199963522
 20
146.8012007979996
 30
0.0
 11
-0.8005336879978131
 21
146.8012007979996
 31
0.0
  0
LINE
  8
OUTLINE
  6
CONTINUOUS
 62
     3
 10
-1.601067375995626
 20
146.40093395399981
 30
0.0
 11
-2.0113408910983712
 21
146.40093395399981
 31
0.0
  0
LINE
  8
OUTLINE
  6
CONTINUOUS
 62
     3
 10
-351.6344224539971
 20
146.2008005319999
 30
0.0
 11
-2.0013342199963522
 21
146.2008005319999
 31
0.0
  0
LINE
  8
OUTLINE
  6
CONTINUOUS
 62
     3
 10
-368.64576332399878
 20
145.0
 30
0.0
 11
-607.40493576999506
 21
145.0
 31
0.0
  0
LINE
  8
OUTLINE
  6
CONTINUOUS
 62
     3
 10
0.0
 20
145.0
 30
0.0
 11
-1.0006671099981761
 21
145.0
 31
0.0
  0
LINE
  8
OUTLINE
  6
CONTINUOUS
 62
     3
 10
-610.40693709999687
 20
141.99799866999999
 30
0.0
 11
-610.40693709999687
 21
68.815243850162005
 31
0.0
  0
LINE
  8
OUTLINE
  6
CONTINUOUS
 62
     3
 10
-599.33523471873195
 20
54.331112564022987
 30
0.0
 11
-438.9476938678672
 21
10.72097645673063
 31
0.0
  0
LINE
  8
OUTLINE
  6
CONTINUOUS
 62
     3
 10
-360.18160849150809
 20
0.2034691829999247
 30
0.0
 11
0.0
 21
0.2034691829999247
 31
0.0
  0
LINE
  8
OUTLINE
  6
CONTINUOUS
 62
     3
 10
-354.03602351799782
 20
263.57905253499968
 30
0.0
 11
-15.0100066499981
 21
263.57905253499968
 31
0.0
  0
LINE
  8
OUTLINE
  6
CONTINUOUS
 62
     3
 10
-355.23682405
 20
146.8012007979996
 30
0.0
 11
-355.23682405
 21
262.37825200299989
 31
0.0
  0
LINE
  8
OUTLINE
  6
CONTINUOUS
 62
     3
 10
-0.8005336879978131
 20
147.6017344860002
 30
0.0
 11
-0.8005336879978131
 21
146.8012007979996
 31
0.0
  0
ARC
  8
OUTLINE
  6
CONTINUOUS
 62
     3
 10
-355.83722431599739
 20
146.8012007979996
 30
0.0
 40
0.6004002660000199
 50
270.0
 51
0.0
  0
ARC
  8
OUTLINE
  6
CONTINUOUS
 62
     3
 10
-354.03602351799782
 20
262.37825200299989
 30
0.0
 40
1.2008005320000501
 50
90.0
 51
180.0
  0
LINE
  8
DETAIL
  6
DIVIDE
 62
     5
 10
-200.133421999999
 20
146.2008005319999
 30
0.0
 11
-200.133421999999
 21
156.20747163200031
 31
0.0
  0
LINE
  8
NOTE
  6
CONTINUOUS
 62
     4
 10
24.016010640001699
 20
283.20346918299992
 30
0.0
 11
-24.016010640001699
 21
283.20346918299992
 31
0.0
  0
LINE
  8
NOTE
  6
CONTINUOUS
 62
     4
 10
-0.000000000001819
 20
307.2194798229998
 30
0.0
 11
-0.000000000001819
 21
259.18745854299959
 31
0.0
  0
LINE
  8
NOTE
  6
CONTINUOUS
 62
     4
 10
23.51567708499897
 20
101.2034691829999
 30
0.0
 11
-23.51567708499897
 21
101.2034691829999
 31
0.0
  0
LINE
  8
NOTE
  6
CONTINUOUS
 62
     4
 10
0.000000000001819
 20
124.7191462679998
 30
0.0
 11
0.000000000001819
 21
77.687792097999591
 31
0.0
  0
CIRCLE
  8
FIX
  6
CONTINUOUS
 62
    11
 10
0.0
 20
101.2034691829999
 30
0.0
 40
5.0
  0
CIRCLE
  8
FIX
  6
CONTINUOUS
 62
    11
 10
0.0
 20
283.20346918299992
 30
0.0
 40
5.0
  0
LINE
  8
NOTE
  6
CONTINUOUS
 62
     4
 10
-284.1105776382102
 20
302.17815992700571
 30
0.0
 11
-289.99999999999909
 21
300.20346918300078
 31
0.0
  0
LINE
  8
NOTE
  6
CONTINUOUS
 62
     4
 10
-289.99999999999909
 20
300.20346918300078
 30
0.0
 11
-285.88696300766821
 21
304.85831891094222
 31
0.0
  0
LINE
  8
NOTE
  6
CONTINUOUS
 62
     4
 10
-289.99999999999909
 20
300.20346918300078
 30
0.0
 11
-279.99754064587933
 21
306.83300965494709
 31
0.0
  0
LINE
  8
NOTE
  6
CONTINUOUS
 62
     4
 10
-279.99754064587893
 20
306.83300965494709
 30
0.0
 11
95.309016076186708
 21
552.9582507922446
 31
0.0
  0
LINE
  8
NOTE
  6
CONTINUOUS
 62
     4
 10
95.309016076186708
 20
552.9582507922446
 30
0.0
 11
737.34521355096513
 21
552.9582507922446
 31
0.0
  0
TEXT
  8
NOTE
  6
CONTINUOUS
 62
     4
 10
117.3738046578428
 20
601.43054982859121
 30
0.0
 40
64.0
  1
AH 2-Φ12×47
 41
0.9
  0
CIRCLE
  8
FIX
  6
CONTINUOUS
 62
    11
 10
-290.0
 20
300.20346918299992
 30
0.0
 40
5.0
  0
LINE
  8
SIZE
  6
CONTINUOUS
 62
    30
 10
-219.14609709000069
 20
338.61574358500002
 30
0.0
 11
-219.14609709000069
 21
681.69275112592914
 31
0.0
  0
LINE
  8
SIZE
  6
CONTINUOUS
 62
    30
 10
-71.047364809997816
 20
338.61574358500002
 30
0.0
 11
-71.047364809997816
 21
681.69275112592914
 31
0.0
  0
LINE
  8
SIZE
  6
CONTINUOUS
 62
    30
 10
-207.14609709000069
 20
661.69275112592914
 30
0.0
 11
-83.047364809997816
 21
661.69275112592914
 31
0.0
  0
CIRCLE
  8
SIZE
  6
CONTINUOUS
 62
    30
 10
-219.14609709000069
 20
661.69275112592914
 30
0.0
 40
6.0
  0
LINE
  8
SIZE
  6
CONTINUOUS
 62
    30
 10
-219.14609709000069
 20
661.69275112592914
 30
0.0
 11
-207.14609709000069
 21
661.69275112592914
 31
0.0
  0
CIRCLE
  8
SIZE
  6
CONTINUOUS
 62
    30
 10
-71.047364809997816
 20
661.69275112592914
 30
0.0
 40
6.0
  0
LINE
  8
SIZE
  6
CONTINUOUS
 62
    30
 10
-71.047364809997816
 20
661.69275112592914
 30
0.0
 11
-83.047364809997816
 21
661.69275112592914
 31
0.0
  0
TEXT
  8
SIZE
  6
CONTINUOUS
 62
    30
 10
-253.98815952142769
 20
697.35941779259588
 30
0.0
 40
64.0
  1
φ148
 41
0.9
 72
     1
 11
-145.09673094999911
 21
697.35941779259588
 31
0.0
  0
LINE
  8
SIZE
  6
CONTINUOUS
 62
    30
 10
-400.26684399999772
 20
719.16944551799997
 30
0.0
 11
-400.26684399999772
 21
847.30693536908257
 31
0.0
  0
LINE
  8
SIZE
  6
CONTINUOUS
 62
    30
 10
-388.26684399999772
 20
827.30693536908257
 30
0.0
 11
-376.26684399999772
 21
827.30693536908257
 31
0.0
  0
LINE
  8
SIZE
  6
CONTINUOUS
 62
    30
 10
-462.30019949999769
 20
827.30693536908257
 30
0.0
 11
-617.55734235714033
 21
827.30693536908257
 31
0.0
  0
LINE
  8
SIZE
  6
CONTINUOUS
 62
    30
 10
-400.26684399999772
 20
827.30693536908257
 30
0.0
 11
-450.30019949999769
 21
827.30693536908257
 31
0.0
  0
CIRCLE
  8
SIZE
  6
CONTINUOUS
 62
    30
 10
-400.26684399999772
 20
827.30693536908257
 30
0.0
 40
6.0
  0
LINE
  8
SIZE
  6
CONTINUOUS
 62
    30
 10
-400.26684399999772
 20
827.30693536908257
 30
0.0
 11
-388.26684399999772
 21
827.30693536908257
 31
0.0
  0
CIRCLE
  8
SIZE
  6
CONTINUOUS
 62
    30
 10
-450.30019949999769
 20
827.30693536908257
 30
0.0
 40
6.0
  0
LINE
  8
SIZE
  6
CONTINUOUS
 62
    30
 10
-450.30019949999769
 20
827.30693536908257
 30
0.0
 11
-462.30019949999769
 21
827.30693536908257
 31
0.0
  0
TEXT
  8
SIZE
  6
CONTINUOUS
 62
    30
 10
-592.55734235714044
 20
852.30693536908257
 30
0.0
 40
64.0
  1
50
 41
0.9
 72
     1
 11
-545.92877092856907
 21
852.30693536908257
 31
0.0
  0
LINE
  8
SIZE
  6
CONTINUOUS
 62
    30
 10
-610.40693709999687
 20
48.815243850162013
 30
0.0
 11
-610.40693709999687
 21
-253.5557871736564
 31
0.0
  0
LINE
  8
SIZE
  6
CONTINUOUS
 62
    30
 10
0.0
 20
-40.629391026564917
 30
0.0
 11
0.0
 21
-253.5557871736564
 31
0.0
  0
LINE
  8
SIZE
  6
CONTINUOUS
 62
    30
 10
-598.40693709999687
 20
-233.5557871736564
 30
0.0
 11
-12.0
 21
-233.5557871736564
 31
0.0
  0
CIRCLE
  8
SIZE
  6
CONTINUOUS
 62
    30
 10
-610.40693709999687
 20
-233.5557871736564
 30
0.0
 40
6.0
  0
LINE
  8
SIZE
  6
CONTINUOUS
 62
    30
 10
-610.40693709999687
 20
-233.5557871736564
 30
0.0
 11
-598.40693709999687
 21
-233.5557871736564
 31
0.0
  0
CIRCLE
  8
SIZE
  6
CONTINUOUS
 62
    30
 10
0.0
 20
-233.5557871736564
 30
0.0
 40
6.0
  0
LINE
  8
SIZE
  6
CONTINUOUS
 62
    30
 10
0.0
 20
-233.5557871736564
 30
0.0
 11
-12.0
 21
-233.5557871736564
 31
0.0
  0
TEXT
  8
SIZE
  6
CONTINUOUS
 62
    30
 10
-373.77489712142699
 20
-208.5557871736564
 30
0.0
 40
64.0
  1
610
 41
0.9
 72
     1
 11
-305.20346854999838
 21
-208.5557871736564
 31
0.0
  0
LINE
  8
SIZE
  6
CONTINUOUS
 62
    30
 10
-624.6543767714337
 20
57.0
 30
0.0
 11
-859.72322502177587
 21
57.000000000000057
 31
0.0
  0
LINE
  8
SIZE
  6
CONTINUOUS
 62
    30
 10
-839.72322502177587
 20
133.00000000000011
 30
0.0
 11
-839.72322502177587
 21
69.000000000000057
 31
0.0
  0
LINE
  8
SIZE
  6
CONTINUOUS
 62
    30
 10
-839.72322502177587
 20
57.000000000000057
 30
0.0
 11
-839.72322502177587
 21
-235.24830974902949
 31
0.0
  0
CIRCLE
  8
SIZE
  6
CONTINUOUS
 62
    30
 10
-839.72322502177587
 20
145.00000000000011
 30
0.0
 40
6.0
  0
LINE
  8
SIZE
  6
CONTINUOUS
 62
    30
 10
-839.72322502177587
 20
145.00000000000011
 30
0.0
 11
-839.72322502177587
 21
133.00000000000011
 31
0.0
  0
CIRCLE
  8
SIZE
  6
CONTINUOUS
 62
    30
 10
-839.72322502177587
 20
57.000000000000057
 30
0.0
 40
6.0
  0
LINE
  8
SIZE
  6
CONTINUOUS
 62
    30
 10
-839.72322502177587
 20
57.000000000000057
 30
0.0
 11
-839.72322502177587
 21
69.000000000000057
 31
0.0
  0
TEXT
  8
SIZE
  6
CONTINUOUS
 62
    30
 10
-864.72322502177587
 20
-237.12830974902971
 30
0.0
 40
64.0
  1
（88）
 50
90.0
 41
0.9
 72
     1
 11
-864.72322502177587
 21
-122.7511668918869
 31
0.0
  0
LINE
  8
SIZE
  6
CONTINUOUS
 62
    30
 10
-647.40493576999506
 20
145.0
 30
0.0
 11
-973.79255840239762
 21
145.00000000000011
 31
0.0
  0
LINE
  8
SIZE
  6
CONTINUOUS
 62
    30
 10
-953.79255840239762
 20
133.00000000000011
 30
0.0
 11
-953.79255840239762
 21
12.00000000000011
 31
0.0
  0
LINE
  8
SIZE
  6
CONTINUOUS
 62
    30
 10
-953.79255840239762
 20
0.0000000000001137
 30
0.0
 11
-953.79255840239807
 21
-199.142857142857
 31
0.0
  0
CIRCLE
  8
SIZE
  6
CONTINUOUS
 62
    30
 10
-953.79255840239762
 20
145.00000000000011
 30
0.0
 40
6.0
  0
LINE
  8
SIZE
  6
CONTINUOUS
 62
    30
 10
-953.79255840239762
 20
145.00000000000011
 30
0.0
 11
-953.79255840239762
 21
133.00000000000011
 31
0.0
  0
CIRCLE
  8
SIZE
  6
CONTINUOUS
 62
    30
 10
-953.79255840239762
 20
0.0000000000001137
 30
0.0
 40
6.0
  0
LINE
  8
SIZE
  6
CONTINUOUS
 62
    30
 10
-953.79255840239762
 20
0.0000000000001137
 30
0.0
 11
-953.79255840239762
 21
12.00000000000011
 31
0.0
  0
TEXT
  8
SIZE
  6
CONTINUOUS
 62
    30
 10
-978.79255840239807
 20
-174.1428571428572
 30
0.0
 40
64.0
  1
145
 50
90.0
 41
0.9
 72
     1
 11
-978.79255840239807
 21
-105.5714285714286
 31
0.0
  0
LINE
  8
SIZE
  6
CONTINUOUS
 62
    30
 10
-469.09939896799921
 20
700.37024604999988
 30
0.0
 11
-859.72322502177565
 21
700.37024604999999
 31
0.0
  0
LINE
  8
SIZE
  6
CONTINUOUS
 62
    30
 10
-839.72322502177565
 20
688.37024604999999
 30
0.0
 11
-839.72322502177587
 21
157.00000000000011
 31
0.0
  0
CIRCLE
  8
SIZE
  6
CONTINUOUS
 62
    30
 10
-839.72322502177565
 20
700.37024604999999
 30
0.0
 40
6.0
  0
LINE
  8
SIZE
  6
CONTINUOUS
 62
    30
 10
-839.72322502177565
 20
700.37024604999999
 30
0.0
 11
-839.72322502177565
 21
688.37024604999999
 31
0.0
  0
CIRCLE
  8
SIZE
  6
CONTINUOUS
 62
    30
 10
-839.72322502177587
 20
145.00000000000011
 30
0.0
 40
6.0
  0
LINE
  8
SIZE
  6
CONTINUOUS
 62
    30
 10
-839.72322502177587
 20
145.00000000000011
 30
0.0
 11
-839.72322502177587
 21
157.00000000000011
 31
0.0
  0
TEXT
  8
SIZE
  6
CONTINUOUS
 62
    30
 10
-864.72322502177587
 20
280.87940873928551
 30
0.0
 40
64.0
  1
（555）
 50
90.0
 41
0.9
 72
     1
 11
-864.72322502177587
 21
422.68512302499983
 31
0.0
  0
LINE
  8
SIZE
  6
CONTINUOUS
 62
    30
 10
-145.09673094999741
 20
380.2873729934272
 30
0.0
 11
-145.09673094999741
 21
819.09923610617534
 31
0.0
  0
LINE
  8
SIZE
  6
CONTINUOUS
 62
    30
 10
-133.09673094999741
 20
799.09923610617534
 30
0.0
 11
-12.0
 21
799.09923610617534
 31
0.0
  0
LINE
  8
SIZE
  6
CONTINUOUS
 62
    30
 10
0.0
 20
799.09923610617534
 30
0.0
 11
199.14285714285711
 21
799.09923610617534
 31
0.0
  0
CIRCLE
  8
SIZE
  6
CONTINUOUS
 62
    30
 10
-145.09673094999741
 20
799.09923610617534
 30
0.0
 40
6.0
  0
LINE
  8
SIZE
  6
CONTINUOUS
 62
    30
 10
-145.09673094999741
 20
799.09923610617534
 30
0.0
 11
-133.09673094999741
 21
799.09923610617534
 31
0.0
  0
CIRCLE
  8
SIZE
  6
CONTINUOUS
 62
    30
 10
0.0
 20
799.09923610617534
 30
0.0
 40
6.0
  0
LINE
  8
SIZE
  6
CONTINUOUS
 62
    30
 10
0.0
 20
799.09923610617534
 30
0.0
 11
-12.0
 21
799.09923610617534
 31
0.0
  0
TEXT
  8
SIZE
  6
CONTINUOUS
 62
    30
 10
37.000000000000099
 20
824.09923610617534
 30
0.0
 40
64.0
  1
145
 41
0.9
 72
     1
 11
105.5714285714287
 21
824.09923610617534
 31
0.0
  0
LINE
  8
SIZE
  6
CONTINUOUS
 62
    30
 10
-450.30019949999769
 20
719.16944551799997
 30
0.0
 11
-450.30019949999769
 21
1090.273867523523
 31
0.0
  0
LINE
  8
SIZE
  6
CONTINUOUS
 62
    30
 10
0.0
 20
396.95794989982278
 30
0.0
 11
0.0
 21
1090.273867523523
 31
0.0
  0
LINE
  8
SIZE
  6
CONTINUOUS
 62
    30
 10
-438.30019949999769
 20
1070.273867523523
 30
0.0
 11
-12.0
 21
1070.273867523523
 31
0.0
  0
CIRCLE
  8
SIZE
  6
CONTINUOUS
 62
    30
 10
-450.30019949999769
 20
1070.273867523523
 30
0.0
 40
6.0
  0
LINE
  8
SIZE
  6
CONTINUOUS
 62
    30
 10
-450.30019949999769
 20
1070.273867523523
 30
0.0
 11
-438.30019949999769
 21
1070.273867523523
 31
0.0
  0
CIRCLE
  8
SIZE
  6
CONTINUOUS
 62
    30
 10
0.0
 20
1070.273867523523
 30
0.0
 40
6.0
  0
LINE
  8
SIZE
  6
CONTINUOUS
 62
    30
 10
0.0
 20
1070.273867523523
 30
0.0
 11
-12.0
 21
1070.273867523523
 31
0.0
  0
TEXT
  8
SIZE
  6
CONTINUOUS
 62
    30
 10
-416.052956892856
 20
1095.273867523523
 30
0.0
 40
64.0
  1
360～450
 41
0.9
 72
     1
 11
-225.15009974999879
 21
1095.273867523523
 31
0.0
  0
LINE
  8
DETAIL
  6
CONTINUOUS
 62
     5
 10
-306.79099000000298
 20
251.81247918299641
 30
0.0
 11
-303.60901000000013
 21
254.99445918299759
 31
0.0
  0
LINE
  8
DETAIL
  6
CONTINUOUS
 62
     5
 10
-276.79099000000309
 20
251.81247918299641
 30
0.0
 11
-273.60901000000013
 21
254.99445918299759
 31
0.0
  0
LINE
  8
DETAIL
  6
CONTINUOUS
 62
     5
 10
-315.20000000000073
 20
149.70346918299629
 30
0.0
 11
-315.20000000000073
 21
300.20346918299992
 31
0.0
  0
LINE
  8
DETAIL
  6
CONTINUOUS
 62
     5
 10
-315.20000000000073
 20
149.70346918299629
 30
0.0
 11
-313.20000000000249
 21
147.7034691829999
 31
0.0
  0
LINE
  8
DETAIL
  6
CONTINUOUS
 62
     5
 10
-299.95000000000249
 20
251.15346918299699
 30
0.0
 11
-299.95000000000249
 21
155.65346918300071
 31
0.0
  0
LINE
  8
DETAIL
  6
CONTINUOUS
 62
     5
 10
-295.45000000000073
 20
153.40346918299699
 30
0.0
 11
-295.45000000000073
 21
253.40346918299699
 31
0.0
  0
LINE
  8
DETAIL
  6
CONTINUOUS
 62
     5
 10
-313.20000000000249
 20
147.7034691829999
 30
0.0
 11
-257.20000000000073
 21
147.7034691829999
 31
0.0
  0
LINE
  8
DETAIL
  6
CONTINUOUS
 62
     5
 10
-305.20000000000073
 20
151.15346918299699
 30
0.0
 11
-297.70000000000073
 21
151.15346918299699
 31
0.0
  0
LINE
  8
DETAIL
  6
CONTINUOUS
 62
     5
 10
-275.20000000000073
 20
151.15346918299699
 30
0.0
 11
-267.70000000000073
 21
151.15346918299699
 31
0.0
  0
LINE
  8
DETAIL
  6
CONTINUOUS
 62
     5
 10
-269.95000000000249
 20
155.65346918300071
 30
0.0
 11
-275.20000000000073
 21
155.65346918300071
 31
0.0
  0
LINE
  8
DETAIL
  6
CONTINUOUS
 62
     5
 10
-299.95000000000249
 20
155.65346918300071
 30
0.0
 11
-305.20000000000073
 21
155.65346918300071
 31
0.0
  0
LINE
  8
DETAIL
  6
CONTINUOUS
 62
     5
 10
-269.95000000000249
 20
251.15346918299699
 30
0.0
 11
-269.95000000000249
 21
155.65346918300071
 31
0.0
  0
LINE
  8
DETAIL
  6
CONTINUOUS
 62
     5
 10
-265.45000000000073
 20
153.40346918299699
 30
0.0
 11
-265.45000000000073
 21
253.40346918299699
 31
0.0
  0
LINE
  8
DETAIL
  6
CONTINUOUS
 62
     5
 10
-255.2000000000007
 20
149.70346918299629
 30
0.0
 11
-255.2000000000007
 21
300.20346918299992
 31
0.0
  0
LINE
  8
DETAIL
  6
CONTINUOUS
 62
     5
 10
-257.20000000000073
 20
147.7034691829999
 30
0.0
 11
-255.2000000000007
 21
149.70346918299629
 31
0.0
  0
LINE
  8
DETAIL
  6
CONTINUOUS
 62
     5
 10
-226.80000000000109
 20
290.20346918299992
 30
0.0
 11
-226.80000000000109
 21
297.0034691829992
 31
0.0
  0
LINE
  8
DETAIL
  6
CONTINUOUS
 62
     5
 10
-225.20000000000249
 20
297.0034691829992
 30
0.0
 11
-225.20000000000249
 21
290.20346918299992
 31
0.0
  0
LINE
  8
DETAIL
  6
CONTINUOUS
 62
     5
 10
-306.79099000000298
 20
254.99445918299759
 30
0.0
 11
-303.60901000000013
 21
251.81247918299641
 31
0.0
  0
LINE
  8
DETAIL
  6
CONTINUOUS
 62
     5
 10
-301.08305000000291
 20
251.15346918299699
 30
0.0
 11
-299.95000000000249
 21
251.15346918299699
 31
0.0
  0
LINE
  8
DETAIL
  6
CONTINUOUS
 62
     5
 10
-271.08305000000291
 20
251.15346918299699
 30
0.0
 11
-269.95000000000249
 21
251.15346918299699
 31
0.0
  0
LINE
  8
DETAIL
  6
CONTINUOUS
 62
     5
 10
-276.79099000000309
 20
254.99445918299759
 30
0.0
 11
-273.60901000000013
 21
251.81247918299641
 31
0.0
  0
LINE
  8
DETAIL
  6
CONTINUOUS
 62
     5
 10
-267.70000000000073
 20
255.65346918300071
 30
0.0
 11
-271.08305000000291
 21
255.65346918300071
 31
0.0
  0
LINE
  8
DETAIL
  6
CONTINUOUS
 62
     5
 10
-297.70000000000073
 20
255.65346918300071
 30
0.0
 11
-301.08305000000291
 21
255.65346918300071
 31
0.0
  0
LINE
  8
DETAIL
  6
CONTINUOUS
 62
     5
 10
-226.80000000000109
 20
290.20346918299992
 30
0.0
 11
-225.20000000000249
 21
290.20346918299992
 31
0.0
  0
LINE
  8
DETAIL
  6
CONTINUOUS
 62
     5
 10
-225.20000000000249
 20
292.20346918299629
 30
0.0
 11
-226.80000000000109
 21
292.20346918299629
 31
0.0
  0
LINE
  8
DETAIL
  6
CONTINUOUS
 62
     5
 10
-228.40000000000151
 20
298.60346918299769
 30
0.0
 11
-255.2000000000007
 21
298.60346918299769
 31
0.0
  0
LINE
  8
DETAIL
  6
CONTINUOUS
 62
     5
 10
-228.40000000000151
 20
300.20346918299992
 30
0.0
 11
-315.20000000000073
 21
300.20346918299992
 31
0.0
  0
ARC
  8
DETAIL
  6
CONTINUOUS
 62
     5
 10
-305.20000000000073
 20
153.40346918299699
 30
0.0
 40
2.25
 50
90.0
 51
270.0
  0
ARC
  8
DETAIL
  6
CONTINUOUS
 62
     5
 10
-297.70000000000073
 20
153.40346918299699
 30
0.0
 40
2.25
 50
270.0
 51
0.0
  0
CIRCLE
  8
DETAIL
  6
CONTINUOUS
 62
     5
 10
-305.20000000000073
 20
253.40346918299699
 30
0.0
 40
4.6999999999999984
  0
ARC
  8
DETAIL
  6
CONTINUOUS
 62
     5
 10
-297.70000000000073
 20
253.40346918299699
 30
0.0
 40
2.25
 50
0.0
 51
261.52221204477439
  0
ARC
  8
DETAIL
  6
CONTINUOUS
 62
     5
 10
-275.20000000000073
 20
153.40346918299699
 30
0.0
 40
2.25
 50
90.0
 51
270.0
  0
ARC
  8
DETAIL
  6
CONTINUOUS
 62
     5
 10
-267.70000000000073
 20
153.40346918299699
 30
0.0
 40
2.25
 50
270.0
 51
0.0
  0
CIRCLE
  8
DETAIL
  6
CONTINUOUS
 62
     5
 10
-276.79099000000309
 20
251.81247918299641
 30
0.0
 40
4.6999999999999984
  0
ARC
  8
DETAIL
  6
CONTINUOUS
 62
     5
 10
-228.40000000000151
 20
297.0034691829992
 30
0.0
 40
3.2000000000000002
 50
0.0
 51
90.0
  0
ARC
  8
DETAIL
  6
CONTINUOUS
 62
     5
 10
-267.70000000000073
 20
253.40346918299699
 30
0.0
 40
2.25
 50
0.0
 51
90.0
  0
ARC
  8
DETAIL
  6
CONTINUOUS
 62
     5
 10
-228.40000000000151
 20
297.0034691829992
 30
0.0
 40
1.6000000000000001
 50
0.0
 51
90.0
  0
LINE
  8
DETAIL
  6
DASHDOT
 62
     5
 10
-293.40000000000151
 20
284.90346918299701
 30
0.0
 11
-293.40000000000151
 21
429.64482918300058
 31
0.0
  0
LINE
  8
DETAIL
  6
DASHDOT
 62
     5
 10
-286.60000000000218
 20
284.90346918299701
 30
0.0
 11
-286.60000000000218
 21
430.26313918299871
 31
0.0
  0
LINE
  8
DETAIL
  6
DASHDOT
 62
     5
 10
-293.40000000000151
 20
284.90346918299701
 30
0.0
 11
-286.60000000000218
 21
284.90346918299701
 31
0.0
  0
LINE
  8
DETAIL
  6
CONTINUOUS
 62
     5
 10
-290.0
 20
276.73840918299402
 30
0.0
 11
-290.0
 21
454.37710918299717
 31
0.0
  0
LINE
  8
SIZE
  6
CONTINUOUS
 62
    30
 10
-290.0
 20
474.37710918299717
 30
0.0
 11
-289.99999999999989
 21
971.55500823843886
 31
0.0
  0
LINE
  8
SIZE
  6
CONTINUOUS
 62
    30
 10
-278.0
 20
951.55500823843886
 30
0.0
 11
-12.0
 21
951.55500823843886
 31
0.0
  0
LINE
  8
SIZE
  6
CONTINUOUS
 62
    30
 10
0.0
 20
951.55500823843886
 30
0.0
 11
455.09949160401078
 21
951.55500823843886
 31
0.0
  0
CIRCLE
  8
SIZE
  6
CONTINUOUS
 62
    30
 10
-289.99999999999989
 20
951.55500823843886
 30
0.0
 40
6.0
  0
LINE
  8
SIZE
  6
CONTINUOUS
 62
    30
 10
-289.99999999999989
 20
951.55500823843886
 30
0.0
 11
-278.0
 21
951.55500823843886
 31
0.0
  0
CIRCLE
  8
SIZE
  6
CONTINUOUS
 62
    30
 10
0.0
 20
951.55500823843886
 30
0.0
 40
6.0
  0
LINE
  8
SIZE
  6
CONTINUOUS
 62
    30
 10
0.0
 20
951.55500823843886
 30
0.0
 11
-12.0
 21
951.55500823843886
 31
0.0
  0
TEXT
  8
SIZE
  6
CONTINUOUS
 62
    30
 10
46.099491604010836
 20
976.55500823843886
 30
0.0
 40
64.0
  1
255~290
 41
0.9
 72
     1
 11
238.09949160401081
 21
976.55500823843886
 31
0.0
  0
LINE
  8
SIZE
  6
CONTINUOUS
 62
    30
 10
-647.40493576999506
 20
0.0
 30
0.0
 11
-1098.3547139945731
 21
0.0000000000001137
 31
0.0
  0
LINE
  8
SIZE
  6
CONTINUOUS
 62
    30
 10
-335.20000000000073
 20
300.20346918299992
 30
0.0
 11
-1098.3547139945731
 21
300.20346918300021
 31
0.0
  0
LINE
  8
SIZE
  6
CONTINUOUS
 62
    30
 10
-1078.3547139945731
 20
12.00000000000011
 30
0.0
 11
-1078.3547139945731
 21
288.20346918300021
 31
0.0
  0
LINE
  8
SIZE
  6
CONTINUOUS
 62
    30
 10
-1078.3547139945731
 20
300.20346918300021
 30
0.0
 11
-1078.3547139945731
 21
1059.9863263258569
 31
0.0
  0
CIRCLE
  8
SIZE
  6
CONTINUOUS
 62
    30
 10
-1078.3547139945731
 20
0.0000000000001137
 30
0.0
 40
6.0
  0
LINE
  8
SIZE
  6
CONTINUOUS
 62
    30
 10
-1078.3547139945731
 20
0.0000000000001137
 30
0.0
 11
-1078.3547139945731
 21
12.00000000000011
 31
0.0
  0
CIRCLE
  8
SIZE
  6
CONTINUOUS
 62
    30
 10
-1078.3547139945731
 20
300.20346918300021
 30
0.0
 40
6.0
  0
LINE
  8
SIZE
  6
CONTINUOUS
 62
    30
 10
-1078.3547139945731
 20
300.20346918300021
 30
0.0
 11
-1078.3547139945731
 21
288.20346918300021
 31
0.0
  0
TEXT
  8
SIZE
  6
CONTINUOUS
 62
    30
 10
-1103.3547139945731
 20
337.20346918300032
 30
0.0
 40
64.0
  1
300（400に変更可）
 50
90.0
 41
0.9
 72
     1
 11
-1103.3547139945731
 21
686.09489775442864
 31
0.0
  0
LINE
  8
SIZE
  6
CONTINUOUS
 62
    30
 10
18.39893262400437
 20
300.20346918299992
 30
0.0
 11
610.81273503905322
 21
300.20346918299981
 31
0.0
  0
LINE
  8
SIZE
  6
CONTINUOUS
 62
    30
 10
145.45612470509059
 20
0.2034691829999247
 30
0.0
 11
610.81273503905322
 21
0.203469182999811
 31
0.0
  0
LINE
  8
SIZE
  6
CONTINUOUS
 62
    30
 10
590.81273503905322
 20
288.20346918299981
 30
0.0
 11
590.81273503905322
 21
12.203469182999809
 31
0.0
  0
CIRCLE
  8
SIZE
  6
CONTINUOUS
 62
    30
 10
590.81273503905322
 20
300.20346918299981
 30
0.0
 40
6.0
  0
LINE
  8
SIZE
  6
CONTINUOUS
 62
    30
 10
590.81273503905322
 20
300.20346918299981
 30
0.0
 11
590.81273503905322
 21
288.20346918299981
 31
0.0
  0
CIRCLE
  8
SIZE
  6
CONTINUOUS
 62
    30
 10
590.81273503905322
 20
0.203469182999811
 30
0.0
 40
6.0
  0
LINE
  8
SIZE
  6
CONTINUOUS
 62
    30
 10
590.81273503905322
 20
0.203469182999811
 30
0.0
 11
590.81273503905322
 21
12.203469182999809
 31
0.0
  0
TEXT
  8
SIZE
  6
CONTINUOUS
 62
    30
 10
565.81273503905322
 20
76.146326325856961
 30
0.0
 40
64.0
  1
300
 50
90.0
 41
0.9
 72
     1
 11
565.81273503905322
 21
150.20346918299981
 31
0.0
  0
LINE
  8
SIZE
  6
CONTINUOUS
 62
    30
 10
43.51567708499897
 20
101.2034691829999
 30
0.0
 11
196.65679308704239
 21
101.2034691829999
 31
0.0
  0
LINE
  8
SIZE
  6
CONTINUOUS
 62
    30
 10
145.45612470509059
 20
0.0
 30
0.0
 11
196.65679308704239
 21
0.0
 31
0.0
  0
LINE
  8
SIZE
  6
CONTINUOUS
 62
    30
 10
176.65679308704239
 20
89.203469182999868
 30
0.0
 11
176.65679308704239
 21
12.0
 31
0.0
  0
LINE
  8
SIZE
  6
CONTINUOUS
 62
    30
 10
176.65679308704239
 20
0.0
 30
0.0
 11
176.65679308704239
 21
-181.1007965216838
 31
0.0
  0
CIRCLE
  8
SIZE
  6
CONTINUOUS
 62
    30
 10
176.65679308704239
 20
101.2034691829999
 30
0.0
 40
6.0
  0
LINE
  8
SIZE
  6
CONTINUOUS
 62
    30
 10
176.65679308704239
 20
101.2034691829999
 30
0.0
 11
176.65679308704239
 21
89.203469182999868
 31
0.0
  0
CIRCLE
  8
SIZE
  6
CONTINUOUS
 62
    30
 10
176.65679308704239
 20
0.0
 30
0.0
 40
6.0
  0
LINE
  8
SIZE
  6
CONTINUOUS
 62
    30
 10
176.65679308704239
 20
0.0
 30
0.0
 11
176.65679308704239
 21
12.0
 31
0.0
  0
TEXT
  8
SIZE
  6
CONTINUOUS
 62
    30
 10
151.65679308704239
 20
-156.10079652168369
 30
0.0
 40
64.0
  1
101
 50
90.0
 41
0.9
 72
     1
 11
151.65679308704239
 21
-99.872225093112263
 31
0.0
  0
LINE
  8
SIZE
  6
CONTINUOUS
 62
    30
 10
44.016010640001703
 20
283.20346918299992
 30
0.0
 11
477.06340898820332
 21
283.20346918299981
 31
0.0
  0
LINE
  8
SIZE
  6
CONTINUOUS
 62
    30
 10
145.45612470509059
 20
0.0
 30
0.0
 11
477.06340898820332
 21
-0.0000000000001137
 31
0.0
  0
LINE
  8
SIZE
  6
CONTINUOUS
 62
    30
 10
457.06340898820332
 20
271.20346918299981
 30
0.0
 11
457.06340898820332
 21
11.99999999999989
 31
0.0
  0
CIRCLE
  8
SIZE
  6
CONTINUOUS
 62
    30
 10
457.06340898820332
 20
283.20346918299981
 30
0.0
 40
6.0
  0
LINE
  8
SIZE
  6
CONTINUOUS
 62
    30
 10
457.06340898820332
 20
283.20346918299981
 30
0.0
 11
457.06340898820332
 21
271.20346918299981
 31
0.0
  0
CIRCLE
  8
SIZE
  6
CONTINUOUS
 62
    30
 10
457.06340898820332
 20
-0.0000000000001137
 30
0.0
 40
6.0
  0
LINE
  8
SIZE
  6
CONTINUOUS
 62
    30
 10
457.06340898820332
 20
-0.0000000000001137
 30
0.0
 11
457.06340898820332
 21
11.99999999999989
 31
0.0
  0
TEXT
  8
SIZE
  6
CONTINUOUS
 62
    30
 10
432.06340898820332
 20
67.646326325857089
 30
0.0
 40
64.0
  1
283
 50
90.0
 41
0.9
 72
     1
 11
432.06340898820332
 21
141.7034691829999
 31
0.0
  0
LINE
  8
SIZE
  6
CONTINUOUS
 62
    30
 10
4.989993350001896
 20
263.57905253499968
 30
0.0
 11
344.60652802283948
 21
263.57905253499962
 31
0.0
  0
LINE
  8
SIZE
  6
CONTINUOUS
 62
    30
 10
145.45612470509059
 20
0.2034691830000384
 30
0.0
 11
344.60652802283948
 21
0.2034691829999247
 31
0.0
  0
LINE
  8
SIZE
  6
CONTINUOUS
 62
    30
 10
324.60652802283948
 20
251.5790525349997
 30
0.0
 11
324.60652802283948
 21
12.203469182999919
 31
0.0
  0
CIRCLE
  8
SIZE
  6
CONTINUOUS
 62
    30
 10
324.60652802283948
 20
263.57905253499968
 30
0.0
 40
6.0
  0
LINE
  8
SIZE
  6
CONTINUOUS
 62
    30
 10
324.60652802283948
 20
263.57905253499968
 30
0.0
 11
324.60652802283948
 21
251.5790525349997
 31
0.0
  0
CIRCLE
  8
SIZE
  6
CONTINUOUS
 62
    30
 10
324.60652802283948
 20
0.2034691829999247
 30
0.0
 40
6.0
  0
LINE
  8
SIZE
  6
CONTINUOUS
 62
    30
 10
324.60652802283948
 20
0.2034691829999247
 30
0.0
 11
324.60652802283948
 21
12.203469182999919
 31
0.0
  0
TEXT
  8
SIZE
  6
CONTINUOUS
 62
    30
 10
299.60652802283948
 20
57.834118001856943
 30
0.0
 40
64.0
  1
263
 50
90.0
 41
0.9
 72
     1
 11
299.60652802283948
 21
131.8912608589998
 31
0.0
  0
LINE
  8
SIZE
  6
CONTINUOUS
 62
    30
 10
-374.03602351799782
 20
263.57905253500007
 30
0.0
 11
-734.34146772538224
 21
263.57905253500007
 31
0.0
  0
LINE
  8
SIZE
  6
CONTINUOUS
 62
    30
 10
-714.34146772538224
 20
330.61574358500019
 30
0.0
 11
-714.34146772538224
 21
342.61574358500019
 31
0.0
  0
LINE
  8
SIZE
  6
CONTINUOUS
 62
    30
 10
-714.34146772538224
 20
251.5790525350001
 30
0.0
 11
-714.34146772538224
 21
73.371428571428737
 31
0.0
  0
LINE
  8
SIZE
  6
CONTINUOUS
 62
    30
 10
-714.34146772538224
 20
318.61574358500019
 30
0.0
 11
-714.34146772538224
 21
263.57905253500007
 31
0.0
  0
CIRCLE
  8
SIZE
  6
CONTINUOUS
 62
    30
 10
-714.34146772538224
 20
318.61574358500019
 30
0.0
 40
6.0
  0
LINE
  8
SIZE
  6
CONTINUOUS
 62
    30
 10
-714.34146772538224
 20
318.61574358500019
 30
0.0
 11
-714.34146772538224
 21
330.61574358500019
 31
0.0
  0
CIRCLE
  8
SIZE
  6
CONTINUOUS
 62
    30
 10
-714.34146772538224
 20
263.57905253500007
 30
0.0
 40
6.0
  0
LINE
  8
SIZE
  6
CONTINUOUS
 62
    30
 10
-714.34146772538224
 20
263.57905253500007
 30
0.0
 11
-714.34146772538224
 21
251.5790525350001
 31
0.0
  0
TEXT
  8
SIZE
  6
CONTINUOUS
 62
    30
 10
-739.34146772538224
 20
98.371428571428694
 30
0.0
 40
64.0
  1
55
 50
90.0
 41
0.9
 72
     1
 11
-739.34146772538224
 21
145.00000000000011
 31
0.0
  0
LINE
  8
SIZE
  6
CONTINUOUS
 62
    30
 10
-239.14609709000069
 20
318.61574358500002
 30
0.0
 11
-734.34146772538224
 21
318.61574358500019
 31
0.0
  0
LINE
  8
SIZE
  6
CONTINUOUS
 62
    30
 10
-200.1200797999422
 20
403.67244793499782
 30
0.0
 11
-734.34146772538213
 21
403.67244793499782
 31
0.0
  0
LINE
  8
SIZE
  6
CONTINUOUS
 62
    30
 10
-714.34146772538236
 20
330.61574358500019
 30
0.0
 11
-714.34146772538236
 21
391.67244793499782
 31
0.0
  0
LINE
  8
SIZE
  6
CONTINUOUS
 62
    30
 10
-714.34146772538224
 20
403.67244793499782
 30
0.0
 11
-714.34146772538224
 21
558.92959079214108
 31
0.0
  0
CIRCLE
  8
SIZE
  6
CONTINUOUS
 62
    30
 10
-714.34146772538236
 20
318.61574358500019
 30
0.0
 40
6.0
  0
LINE
  8
SIZE
  6
CONTINUOUS
 62
    30
 10
-714.34146772538236
 20
318.61574358500019
 30
0.0
 11
-714.34146772538236
 21
330.61574358500019
 31
0.0
  0
CIRCLE
  8
SIZE
  6
CONTINUOUS
 62
    30
 10
-714.34146772538224
 20
403.67244793499782
 30
0.0
 40
6.0
  0
LINE
  8
SIZE
  6
CONTINUOUS
 62
    30
 10
-714.34146772538224
 20
403.67244793499782
 30
0.0
 11
-714.34146772538224
 21
391.67244793499782
 31
0.0
  0
TEXT
  8
SIZE
  6
CONTINUOUS
 62
    30
 10
-739.34146772538224
 20
440.67244793499788
 30
0.0
 40
64.0
  1
85
 50
90.0
 41
0.9
 72
     1
 11
-739.34146772538224
 21
487.30101936356942
 31
0.0
  0
ARC
  8
DETAIL
  6
CONTINUOUS
 62
     5
 10
-219.94663077799851
 20
279.38959287299991
 30
0.0
 40
0.8005336879997199
 50
270.0
 51
0.0
  0
ARC
  8
DETAIL
  6
CONTINUOUS
 62
     5
 10
-220.54703104399599
 20
276.98799180900011
 30
0.0
 40
1.60106737599945
 50
90.0
 51
180.0
  0
ARC
  8
DETAIL
  6
CONTINUOUS
 62
     5
 10
-230.15343529999521
 20
272.38492310299989
 30
0.0
 40
8.0053368800000104
 50
317.52089603690712
 51
0.0
  0
LINE
  8
DETAIL
  6
CONTINUOUS
 62
     5
 10
-245.16344194999689
 20
263.57905253499968
 30
0.0
 11
-245.16344194999689
 21
266.9813207090001
 31
0.0
  0
LINE
  8
DETAIL
  6
CONTINUOUS
 62
     5
 10
-222.14809841999519
 20
272.38492310299989
 30
0.0
 11
-222.14809841999519
 21
276.98799180900011
 31
0.0
  0
LINE
  8
DETAIL
  6
CONTINUOUS
 62
     5
 10
-69.646430855998915
 20
278.58905918499948
 30
0.0
 11
-220.5470310419951
 21
278.58905918500022
 31
0.0
  0
ARC
  8
OUTLINE
  6
CONTINUOUS
 62
     3
 10
-219.94663077799851
 20
279.38959287299991
 30
0.0
 40
0.8005336879997199
 50
270.0
 51
0.0
  0
ARC
  8
OUTLINE
  6
CONTINUOUS
 62
     3
 10
-220.54703104399599
 20
276.98799180900011
 30
0.0
 40
1.60106737599945
 50
90.0
 51
180.0
  0
ARC
  8
OUTLINE
  6
CONTINUOUS
 62
     3
 10
-230.15343529999521
 20
272.38492310299989
 30
0.0
 40
8.0053368800000104
 50
317.52089603690712
 51
0.0
  0
LINE
  8
OUTLINE
  6
CONTINUOUS
 62
     3
 10
-245.16344194999689
 20
263.57905253499968
 30
0.0
 11
-245.16344194999689
 21
266.9813207090001
 31
0.0
  0
LINE
  8
OUTLINE
  6
CONTINUOUS
 62
     3
 10
-222.14809841999519
 20
272.38492310299989
 30
0.0
 11
-222.14809841999519
 21
276.98799180900011
 31
0.0
  0
LINE
  8
OUTLINE
  6
CONTINUOUS
 62
     3
 10
-69.646430855998915
 20
278.58905918499948
 30
0.0
 11
-220.5470310419951
 21
278.58905918500022
 31
0.0
  0
LINE
  8
SIZE
  6
CONTINUOUS
 62
    30
 10
-240.5470310419951
 20
278.58905918500022
 30
0.0
 11
-628.4448530226872
 21
278.58905918500022
 31
0.0
  0
LINE
  8
SIZE
  6
CONTINUOUS
 62
    30
 10
-608.4448530226872
 20
266.58905918500022
 30
0.0
 11
-608.4448530226872
 21
254.58905918500031
 31
0.0
  0
LINE
  8
SIZE
  6
CONTINUOUS
 62
    30
 10
-608.4448530226872
 20
330.61574358500002
 30
0.0
 11
-608.4448530226872
 21
590.4489992597903
 31
0.0
  0
LINE
  8
SIZE
  6
CONTINUOUS
 62
    30
 10
-608.4448530226872
 20
278.58905918500022
 30
0.0
 11
-608.4448530226872
 21
318.61574358500002
 31
0.0
  0
CIRCLE
  8
SIZE
  6
CONTINUOUS
 62
    30
 10
-608.4448530226872
 20
278.58905918500022
 30
0.0
 40
6.0
  0
LINE
  8
SIZE
  6
CONTINUOUS
 62
    30
 10
-608.4448530226872
 20
278.58905918500022
 30
0.0
 11
-608.4448530226872
 21
266.58905918500022
 31
0.0
  0
CIRCLE
  8
SIZE
  6
CONTINUOUS
 62
    30
 10
-608.4448530226872
 20
318.61574358500002
 30
0.0
 40
6.0
  0
LINE
  8
SIZE
  6
CONTINUOUS
 62
    30
 10
-608.4448530226872
 20
318.61574358500002
 30
0.0
 11
-608.4448530226872
 21
330.61574358500002
 31
0.0
  0
TEXT
  8
SIZE
  6
CONTINUOUS
 62
    30
 10
-633.4448530226872
 20
472.19185640264732
 30
0.0
 40
64.0
  1
40
 50
90.0
 41
0.9
 72
     1
 11
-633.4448530226872
 21
518.82042783121869
 31
0.0
  0
LINE
  8
DETAIL
  6
CONTINUOUS
 62
     5
 10
-45.03001994999795
 20
266.9813207090001
 30
0.0
 11
-245.16344194999689
 21
266.9813207090001
 31
0.0
  0
LINE
  8
OUTLINE
  6
CONTINUOUS
 62
     3
 10
-45.03001994999795
 20
266.9813207090001
 30
0.0
 11
-245.16344194999689
 21
266.9813207090001
 31
0.0
  0
ENDSEC
  0
EOF
