  0
SECTION
  2
HEADER
  9
$ACADVER
  1
AC1009
  9
$DWGCODEPAGE
  3
dos932
  9
$INSBASE
 10
0.0
 20
0.0
 30
0.0
  9
$EXTMIN
 10
-730.98905827034105
 20
-253.78416775933511
 30
-0.0015258207003583
  9
$EXTMAX
 10
1612.8891113713471
 20
1402.2216886540659
 30
0.0000000349246037
  9
$LIMMIN
 10
-2970.0
 20
-2100.0
  9
$LIMMAX
 10
2970.0
 20
2100.0
  9
$ORTHOMODE
 70
     1
  9
$REGENMODE
 70
     1
  9
$FILLMODE
 70
     1
  9
$QTEXTMODE
 70
     0
  9
$MIRRTEXT
 70
     0
  9
$LTSCALE
 40
20.0
  9
$ATTMODE
 70
     1
  9
$TEXTSIZE
 40
64.0
  9
$TRACEWID
 40
0.05
  9
$TEXTSTYLE
  7
STANDARD
  9
$CLAYER
  8
SIZE
  9
$CELTYPE
  6
CONTINUOUS
  9
$CECOLOR
 62
     7
  9
$DIMSCALE
 40
1.0
  9
$DIMASZ
 40
12.0
  9
$DIMEXO
 40
20.0
  9
$DIMDLI
 40
200.0
  9
$DIMRND
 40
0.0
  9
$DIMDLE
 40
0.0
  9
$DIMEXE
 40
20.0
  9
$DIMTP
 40
0.0
  9
$DIMTM
 40
0.0
  9
$DIMTXT
 40
64.0
  9
$DIMCEN
 40
0.09
  9
$DIMTSZ
 40
0.0
  9
$DIMTOL
 70
     0
  9
$DIMLIM
 70
     0
  9
$DIMTIH
 70
     0
  9
$DIMTOH
 70
     0
  9
$DIMSE1
 70
     0
  9
$DIMSE2
 70
     0
  9
$DIMTAD
 70
     1
  9
$DIMZIN
 70
     8
  9
$DIMBLK
  1

  9
$DIMASO
 70
     1
  9
$DIMSHO
 70
     0
  9
$DIMPOST
  1

  9
$DIMAPOST
  1

  9
$DIMALT
 70
     0
  9
$DIMALTD
 70
     2
  9
$DIMALTF
 40
25.399999999999999
  9
$DIMLFAC
 40
1.0
  9
$DIMTOFL
 70
     1
  9
$DIMTVP
 40
0.0
  9
$DIMTIX
 70
     1
  9
$DIMSOXD
 70
     0
  9
$DIMSAH
 70
     0
  9
$DIMBLK1
  1

  9
$DIMBLK2
  1

  9
$DIMSTYLE
  2
STANDARD
  9
$DIMCLRD
 70
     7
  9
$DIMCLRE
 70
     7
  9
$DIMCLRT
 70
     7
  9
$DIMTFAC
 40
1.0
  9
$DIMGAP
 40
25.0
  9
$LUNITS
 70
     2
  9
$LUPREC
 70
     4
  9
$SKETCHINC
 40
0.1
  9
$FILLETRAD
 40
3.0
  9
$AUNITS
 70
     1
  9
$AUPREC
 70
     3
  9
$MENU
  1
ACAD
  9
$ELEVATION
 40
0.0
  9
$PELEVATION
 40
0.0
  9
$THICKNESS
 40
0.0
  9
$LIMCHECK
 70
     0
  9
$CHAMFERA
 40
0.0
  9
$CHAMFERB
 40
0.0
  9
$SKPOLY
 70
     0
  9
$TDCREATE
 40
2453019.62301037
  9
$TDUPDATE
 40
2459025.596480602
  9
$TDINDWG
 40
1.714738206
  9
$TDUSRTIMER
 40
1.714738206
  9
$USRTIMER
 70
     1
  9
$ANGBASE
 50
0.0
  9
$ANGDIR
 70
     0
  9
$PDMODE
 70
     3
  9
$PDSIZE
 40
-2.0
  9
$PLINEWID
 40
0.0
  9
$SPLFRAME
 70
     0
  9
$SPLINETYPE
 70
     6
  9
$SPLINESEGS
 70
     8
  9
$SURFTAB1
 70
     6
  9
$SURFTAB2
 70
     6
  9
$SURFTYPE
 70
     6
  9
$SURFU
 70
     6
  9
$SURFV
 70
     6
  9
$UCSNAME
  2

  9
$UCSORG
 10
0.0
 20
0.0
 30
0.0
  9
$UCSXDIR
 10
1.0
 20
0.0
 30
0.0
  9
$UCSYDIR
 10
0.0
 20
1.0
 30
0.0
  9
$PUCSNAME
  2

  9
$PUCSORG
 10
0.0
 20
0.0
 30
0.0
  9
$PUCSXDIR
 10
1.0
 20
0.0
 30
0.0
  9
$PUCSYDIR
 10
0.0
 20
1.0
 30
0.0
  9
$USERI1
 70
     0
  9
$USERI2
 70
     0
  9
$USERI3
 70
     0
  9
$USERI4
 70
     0
  9
$USERI5
 70
     0
  9
$USERR1
 40
20.0
  9
$USERR2
 40
0.0
  9
$USERR3
 40
0.0
  9
$USERR4
 40
0.0
  9
$USERR5
 40
0.0
  9
$WORLDVIEW
 70
     1
  9
$SHADEDGE
 70
     3
  9
$SHADEDIF
 70
    70
  9
$TILEMODE
 70
     1
  9
$MAXACTVP
 70
    48
  9
$PINSBASE
 10
0.0
 20
0.0
 30
0.0
  9
$PLIMCHECK
 70
     0
  9
$PEXTMIN
 10
-100000000000000000000.0
 20
-100000000000000000000.0
 30
-100000000000000000000.0
  9
$PEXTMAX
 10
100000000000000000000.0
 20
100000000000000000000.0
 30
100000000000000000000.0
  9
$PLIMMIN
 10
0.0
 20
0.0
  9
$PLIMMAX
 10
12.0
 20
9.0
  9
$UNITMODE
 70
     0
  9
$VISRETAIN
 70
     0
  9
$PLINEGEN
 70
     0
  9
$PSLTSCALE
 70
     0
  9
$TREEDEPTH
 70
  3020
  9
$ATTDIA
 70
     0
  9
$ATTREQ
 70
     1
  9
$BLIPMODE
 70
     1
  9
$COORDS
 70
     1
  9
$DRAGMODE
 70
     2
  9
$OSMODE
 70
     0
  9
$HANDLING
 70
     0
  9
$HANDSEED
  5
11496
  0
ENDSEC
  0
SECTION
  2
TABLES
  0
TABLE
  2
LTYPE
 70
     3
  0
LTYPE
  2
CONTINUOUS
 70
     0
  3
実線
 72
    65
 73
     0
 40
0.0
  0
LTYPE
  2
DASHDOT
 70
     0
  3
____ _ ____ _ ____ _ ____ _ ____ _ ____ _ ____
 72
    65
 73
     4
 40
5.5
 49
4.0
 49
-0.6
 49
0.3
 49
-0.6
  0
LTYPE
  2
DIVIDE
 70
     0
  3
Divide ____ . . ____ . . ____ . . ____ . . ____
 72
    65
 73
     6
 40
1.25
 49
0.5
 49
-0.25
 49
0.0
 49
-0.25
 49
0.0
 49
-0.25
  0
ENDTAB
  0
TABLE
  2
LAYER
 70
    12
  0
LAYER
  2
0
 70
     0
 62
     7
  6
CONTINUOUS
  0
LAYER
  2
BASIS
 70
     0
 62
     6
  6
DASHDOT
  0
LAYER
  2
OUTLINE
 70
     0
 62
     3
  6
CONTINUOUS
  0
LAYER
  2
DETAIL
 70
     0
 62
     5
  6
CONTINUOUS
  0
LAYER
  2
SIZE
 70
     0
 62
    30
  6
CONTINUOUS
  0
LAYER
  2
ARRANGE
 70
     0
 62
     1
  6
CONTINUOUS
  0
LAYER
  2
ETC
 70
     0
 62
    61
  6
CONTINUOUS
  0
LAYER
  2
FIX
 70
     0
 62
    11
  6
CONTINUOUS
  0
LAYER
  2
NOTE
 70
     0
 62
     4
  6
CONTINUOUS
  0
LAYER
  2
DEFPOINTS
 70
    64
 62
     7
  6
CONTINUOUS
  0
LAYER
  2
SERVICESPACE
 70
    64
 62
     2
  6
DASHDOT
  0
LAYER
  2
SYMBOLLINE
 70
    64
 62
    15
  6
CONTINUOUS
  0
ENDTAB
  0
TABLE
  2
STYLE
 70
     1
  0
STYLE
  2
STANDARD
 70
     0
 40
64.0
 41
0.9
 50
0.0
 71
     0
 42
64.0
  3
SIMPLEX.shx
  4
BIGFONT.shx
  0
ENDTAB
  0
TABLE
  2
APPID
 70
    19
  0
APPID
  2
ACAD
 70
     0
  0
APPID
  2
AUTOCAD_POSTSCRIPT_FIGURE
 70
     0
  0
APPID
  2
ACAD_EXEMPT_FROM_CAD_STANDARDS
 70
     0
  0
APPID
  2
ACAD_PSEXT
 70
     0
  0
APPID
  2
ACAUTHENVIRON
 70
     0
  0
APPID
  2
GENIUS_GENOENT_13
 70
     0
  0
APPID
  2
GENIUS_GENCFG_13
 70
     0
  0
APPID
  2
GENIUS_GENCFG0_13
 70
     0
  0
APPID
  2
GENIUS_GENCFG1_13
 70
     0
  0
APPID
  2
GENIUS_GENCFG2_13
 70
     0
  0
APPID
  2
GENIUS_GENCFG3_13
 70
     0
  0
APPID
  2
GENIUS_GENCFG4_13
 70
     0
  0
APPID
  2
GENIUS_GEVCFG0_13
 70
     0
  0
APPID
  2
CONTENTBLOCKICON
 70
     0
  0
APPID
  2
CONTENTBLOCKDESCRIPTION
 70
     0
  0
APPID
  2
ACAD_NAV_VCDISPLAY
 70
     0
  0
APPID
  2
ACAD_MLEADERVER
 70
     0
  0
APPID
  2
ACDBDYNAMICBLOCKTRUENAME
 70
     0
  0
APPID
  2
ACDBDYNAMICBLOCKGUID
 70
     0
  0
ENDTAB
  0
TABLE
  2
DIMSTYLE
 70
     1
  0
DIMSTYLE
  2
STANDARD
 70
     0
  3

  4

  5
_ORIGIN
  6

  7

 40
1.0
 41
12.0
 42
20.0
 43
200.0
 44
20.0
 45
0.0
 46
0.0
 47
0.0
 48
0.0
140
64.0
141
0.09
142
0.0
143
25.399999999999999
144
1.0
145
0.0
146
1.0
147
25.0
 71
     0
 72
     0
 73
     0
 74
     0
 75
     0
 76
     0
 77
     1
 78
     8
170
     0
171
     2
172
     1
173
     0
174
     1
175
     0
176
     7
177
     7
178
     7
  0
ENDTAB
  0
TABLE
  2
VIEW
 70
     1
  0
VIEW
  2
ALL
 70
     0
 40
4282.6198079999986
 10
0.0
 20
41.309904000000003
 41
5940.0
 11
0.0
 21
0.0
 31
1.0
 12
0.0
 22
0.0
 32
0.0
 42
50.0
 43
0.0
 44
0.0
 50
0.0
 71
     0
  0
ENDTAB
  0
TABLE
  2
UCS
 70
     0
  0
ENDTAB
  0
TABLE
  2
VPORT
 70
     1
  0
VPORT
  2
*ACTIVE
 70
     0
 10
0.0
 20
0.0
 11
1.0
 21
1.0
 12
440.95002655050303
 22
574.21876044736553
 13
0.0
 23
0.0
 14
1.0
 24
1.0
 15
0.0
 25
0.0
 16
0.0
 26
0.0
 36
1.0
 17
0.0
 27
0.0
 37
0.0
 40
1666.9849007653129
 41
1.747787610619469
 42
50.0
 43
0.0
 44
0.0
 50
0.0
 51
0.0
 71
     0
 72
  1000
 73
     1
 74
     3
 75
     0
 76
     0
 77
     0
 78
     0
  0
ENDTAB
  0
ENDSEC
  0
SECTION
  2
BLOCKS
  0
BLOCK
  8
0
  2
_ORIGIN
 70
     0
 10
0.0
 20
0.0
 30
0.0
  3
_ORIGIN
  1
_ORIGIN
  0
CIRCLE
  8
0
  6
CONTINUOUS
 62
     7
 10
0.0
 20
0.0
 30
0.0
 40
0.5
  0
LINE
  8
0
  6
CONTINUOUS
 62
     7
 10
0.0
 20
0.0
 30
0.0
 11
-1.0
 21
0.0
 31
0.0
  0
ENDBLK
  8
0
  0
ENDSEC
  0
SECTION
  2
ENTITIES
  0
TEXT
  8
ETC
  6
CONTINUOUS
 62
    61
 10
745.83382213238474
 20
1338.1160833243259
 30
0.0
 40
64.0
  1
V-904SHL3-R-S_5
 41
0.9
  0
TEXT
  8
ETC
  6
CONTINUOUS
 62
    61
 10
741.64782813238435
 20
1220.160773309495
 30
0.0
 40
64.0
  1
換気扇
 41
0.9
  0
TEXT
  8
ETC
  6
CONTINUOUS
 62
    61
 10
792.34922638094031
 20
1112.012000423269
 30
0.0
 40
40.0
  1
V-904SHL3-R-S
 41
0.9
  0
CIRCLE
  8
ARRANGE
  6
CONTINUOUS
 62
     1
 10
0.0
 20
0.0
 30
0.0
 40
40.0
  0
POINT
  8
ARRANGE
  6
CONTINUOUS
 62
     1
 10
0.0
 20
0.0
 30
0.0
 50
180.0
  0
LINE
  8
BASIS
  6
DASHDOT
 62
     6
 10
0.0
 20
-20.629391026564889
 30
0.0
 11
0.0
 21
376.95794989982278
 31
0.0
  0
LINE
  8
BASIS
  6
DASHDOT
 62
     6
 10
-125.4561247050906
 20
0.0
 30
0.0
 11
627.40493576999506
 21
0.0
 31
0.0
  0
ARC
  8
DETAIL
  6
CONTINUOUS
 62
     5
 10
1.601067375995626
 20
298.60240180700021
 30
0.0
 40
0.8005336880006405
 50
90.0
 51
180.0
  0
ARC
  8
DETAIL
  6
CONTINUOUS
 62
     5
 10
1.601067375995626
 20
298.60240180700021
 30
0.0
 40
1.6010673759999099
 50
90.0
 51
180.0
  0
ARC
  8
DETAIL
  6
CONTINUOUS
 62
     5
 10
70.246831121996365
 20
279.38959287299991
 30
0.0
 40
0.8005336879997199
 50
270.0
 51
0.0
  0
ARC
  8
DETAIL
  6
CONTINUOUS
 62
     5
 10
69.646430855998915
 20
276.98799180900011
 30
0.0
 40
1.60106737599945
 50
90.0
 51
180.0
  0
ARC
  8
DETAIL
  6
CONTINUOUS
 62
     5
 10
60.040026599999692
 20
272.38492310299989
 30
0.0
 40
8.0053368800000104
 50
317.52089603691599
 51
0.0
  0
ARC
  8
DETAIL
  6
CONTINUOUS
 62
     5
 10
1.601067375995626
 20
147.20146764199939
 30
0.0
 40
0.8005336879999501
 50
180.0
 51
270.0
  0
ARC
  8
DETAIL
  6
CONTINUOUS
 62
     5
 10
1.601067375995626
 20
147.20146764199939
 30
0.0
 40
1.6010673759998899
 50
180.0
 51
270.0
  0
ARC
  8
DETAIL
  6
DIVIDE
 62
     5
 10
449.09939896799921
 20
699.16944551799997
 30
0.0
 40
0.60040026599995
 50
0.0
 51
90.0
  0
ARC
  8
DETAIL
  6
DIVIDE
 62
     5
 10
449.09939896799921
 20
699.16944551799997
 30
0.0
 40
1.2008005320000501
 50
0.0
 51
90.0
  0
ARC
  8
DETAIL
  6
CONTINUOUS
 62
     5
 10
360.18160849150809
 20
300.40360218299969
 30
0.0
 40
300.20013300000011
 50
270.0
 51
285.21124574938602
  0
ARC
  8
DETAIL
  6
DIVIDE
 62
     5
 10
450.90059976599878
 20
150.40360239399979
 30
0.0
 40
0.6004002660000199
 50
180.0
 51
270.0
  0
ARC
  8
DETAIL
  6
DIVIDE
 62
     5
 10
450.90059976599878
 20
150.40360239399979
 30
0.0
 40
1.20080053199992
 50
180.0
 51
270.0
  0
ARC
  8
DETAIL
  6
CONTINUOUS
 62
     5
 10
607.40493576999506
 20
141.99799866999999
 30
0.0
 40
3.002001330000009
 50
0.0
 51
90.0
  0
ARC
  8
DETAIL
  6
CONTINUOUS
 62
     5
 10
604.40293444000054
 20
106.9746498199997
 30
0.0
 40
15.010006649999839
 50
335.37568164778651
 51
24.624318352213528
  0
ARC
  8
DETAIL
  6
CONTINUOUS
 62
     5
 10
595.39693044999876
 20
68.815243850162005
 30
0.0
 40
15.010006649999999
 50
285.21124574938602
 51
0.0
  0
LINE
  8
DETAIL
  6
DIVIDE
 62
     5
 10
401.46764453199648
 20
700.37024604999988
 30
0.0
 11
449.09939896799921
 21
700.37024604999988
 31
0.0
  0
LINE
  8
DETAIL
  6
DIVIDE
 62
     5
 10
449.69979923399842
 20
699.16944551799997
 30
0.0
 11
450.30019949999769
 21
699.16944551799997
 31
0.0
  0
LINE
  8
DETAIL
  6
DIVIDE
 62
     5
 10
400.26684399999772
 20
699.16944551799997
 30
0.0
 11
401.46764453199648
 21
699.16944551799997
 31
0.0
  0
LINE
  8
DETAIL
  6
CONTINUOUS
 62
     5
 10
0.0
 20
147.20146764199939
 30
0.0
 11
0.0
 21
298.20213496300039
 31
0.0
  0
LINE
  8
DETAIL
  6
CONTINUOUS
 62
     5
 10
0.0
 20
0.2034691829998962
 30
0.0
 11
0.0
 21
145.60040026600021
 31
0.0
  0
LINE
  8
DETAIL
  6
CONTINUOUS
 62
     5
 10
0.8005336879978131
 20
348.63609043999992
 30
0.0
 11
0.8005336879978131
 21
348.23582359599999
 31
0.0
  0
LINE
  8
DETAIL
  6
CONTINUOUS
 62
     5
 10
2.0013342199963522
 20
146.8012007979996
 30
0.0
 11
2.0013342199963522
 21
145.0
 31
0.0
  0
LINE
  8
DETAIL
  6
CONTINUOUS
 62
     5
 10
2.0113408910983712
 20
145.60040026600021
 30
0.0
 11
2.0113408910983712
 21
146.8112074690998
 31
0.0
  0
LINE
  8
DETAIL
  6
CONTINUOUS
 62
     5
 10
15.0100066499981
 20
298.20213496300039
 30
0.0
 11
15.0100066499981
 21
149.60306870600019
 31
0.0
  0
LINE
  8
DETAIL
  6
CONTINUOUS
 62
     5
 10
15.0100066499981
 20
300.20346918299992
 30
0.0
 11
15.0100066499981
 21
299.40293549499972
 31
0.0
  0
LINE
  8
DETAIL
  6
CONTINUOUS
 62
     5
 10
45.03001994999795
 20
263.57905253499968
 30
0.0
 11
45.03001994999795
 21
266.9813207090001
 31
0.0
  0
LINE
  8
DETAIL
  6
CONTINUOUS
 62
     5
 10
68.045363479999651
 20
272.38492310299989
 30
0.0
 11
68.045363479999651
 21
276.98799180900011
 31
0.0
  0
LINE
  8
DETAIL
  6
CONTINUOUS
 62
     5
 10
71.047364809997816
 20
279.38959287299991
 30
0.0
 11
71.047364809997816
 21
318.61574358500002
 31
0.0
  0
LINE
  8
DETAIL
  6
CONTINUOUS
 62
     5
 10
219.1460970899989
 20
279.38959287299991
 30
0.0
 11
219.14609709000069
 21
318.61574358500002
 31
0.0
  0
LINE
  8
DETAIL
  6
CONTINUOUS
 62
     5
 10
15.0100066499981
 20
149.60306870600019
 30
0.0
 11
13.00867243000175
 21
147.6017344860002
 31
0.0
  0
LINE
  8
DETAIL
  6
CONTINUOUS
 62
     5
 10
1.601067375995626
 20
300.20346918299992
 30
0.0
 11
15.0100066499981
 21
300.20346918299992
 31
0.0
  0
LINE
  8
DETAIL
  6
CONTINUOUS
 62
     5
 10
1.601067375995626
 20
299.40293549499972
 30
0.0
 11
15.0100066499981
 21
299.40293549499972
 31
0.0
  0
LINE
  8
DETAIL
  6
CONTINUOUS
 62
     5
 10
0.0
 20
298.20213496300039
 30
0.0
 11
15.0100066499981
 21
298.20213496300039
 31
0.0
  0
LINE
  8
DETAIL
  6
DIVIDE
 62
     5
 10
397.86524293600093
 20
146.2008005319999
 30
0.0
 11
397.86524293600093
 21
148.60240159600019
 31
0.0
  0
LINE
  8
DETAIL
  6
DIVIDE
 62
     5
 10
400.26684399999772
 20
147.40160106399981
 30
0.0
 11
400.26684399999772
 21
699.16944551799997
 31
0.0
  0
LINE
  8
DETAIL
  6
DIVIDE
 62
     5
 10
401.46764453199648
 20
146.2008005319999
 30
0.0
 11
401.46764453199648
 21
147.40160106399981
 31
0.0
  0
LINE
  8
DETAIL
  6
DIVIDE
 62
     5
 10
401.46764453199648
 20
700.37024604999988
 30
0.0
 11
401.46764453199648
 21
699.16944551799997
 31
0.0
  0
LINE
  8
DETAIL
  6
CONTINUOUS
 62
     5
 10
219.14609709000069
 20
318.61574358500002
 30
0.0
 11
71.047364809997816
 21
318.61574358500002
 31
0.0
  0
LINE
  8
DETAIL
  6
DIVIDE
 62
     5
 10
400.26684399999772
 20
296.30086703199959
 30
0.0
 11
390.260172899998
 21
296.30086703199959
 31
0.0
  0
LINE
  8
DETAIL
  6
DIVIDE
 62
     5
 10
200.133421999999
 20
156.20747163200031
 30
0.0
 11
390.260172899998
 21
296.30086703199959
 31
0.0
  0
LINE
  8
DETAIL
  6
CONTINUOUS
 62
     5
 10
15.0100066499981
 20
263.57905253499968
 30
0.0
 11
354.03602351799782
 21
263.57905253499968
 31
0.0
  0
LINE
  8
DETAIL
  6
DIVIDE
 62
     5
 10
449.09939896799921
 20
146.2008005319999
 30
0.0
 11
449.09939896799921
 21
150.40360239399979
 31
0.0
  0
LINE
  8
DETAIL
  6
DIVIDE
 62
     5
 10
449.09939896799921
 20
700.37024604999988
 30
0.0
 11
449.09939896799921
 21
699.76984578399993
 31
0.0
  0
LINE
  8
DETAIL
  6
DIVIDE
 62
     5
 10
450.30019949999769
 20
699.16944551799997
 30
0.0
 11
450.30019949999769
 21
150.40360239399979
 31
0.0
  0
LINE
  8
DETAIL
  6
DIVIDE
 62
     5
 10
463.30887192999938
 20
149.80320212799961
 30
0.0
 11
463.30887192999938
 21
149.20280186199989
 31
0.0
  0
LINE
  8
DETAIL
  6
DIVIDE
 62
     5
 10
465.31020614999937
 20
149.80320212799961
 30
0.0
 11
465.31020614999937
 21
149.20280186199989
 31
0.0
  0
LINE
  8
DETAIL
  6
DIVIDE
 62
     5
 10
449.09939896799921
 20
150.40360239399979
 30
0.0
 11
450.30019949999769
 21
150.40360239399979
 31
0.0
  0
LINE
  8
DETAIL
  6
DIVIDE
 62
     5
 10
465.31020614999937
 20
149.80320212799961
 30
0.0
 11
450.90059976599878
 21
149.80320212799961
 31
0.0
  0
LINE
  8
DETAIL
  6
DIVIDE
 62
     5
 10
465.31020614999937
 20
149.20280186199989
 30
0.0
 11
450.90059976599878
 21
149.20280186199989
 31
0.0
  0
LINE
  8
DETAIL
  6
DIVIDE
 62
     5
 10
400.26684399999772
 20
148.60240159600019
 30
0.0
 11
397.86524293600093
 21
148.60240159600019
 31
0.0
  0
LINE
  8
DETAIL
  6
CONTINUOUS
 62
     5
 10
0.0
 20
147.6017344860002
 30
0.0
 11
13.00867243000175
 21
147.6017344860002
 31
0.0
  0
LINE
  8
DETAIL
  6
DIVIDE
 62
     5
 10
400.26684399999772
 20
147.40160106399981
 30
0.0
 11
401.46764453199648
 21
147.40160106399981
 31
0.0
  0
LINE
  8
DETAIL
  6
CONTINUOUS
 62
     5
 10
1.601067375995626
 20
146.40093395399981
 30
0.0
 11
2.0113408910983712
 21
146.40093395399981
 31
0.0
  0
LINE
  8
DETAIL
  6
DIVIDE
 62
     5
 10
401.46764453199648
 20
146.2008005319999
 30
0.0
 11
449.09939896799921
 21
146.2008005319999
 31
0.0
  0
LINE
  8
DETAIL
  6
CONTINUOUS
 62
     5
 10
0.0
 20
145.0
 30
0.0
 11
607.40493576999506
 21
145.0
 31
0.0
  0
LINE
  8
DETAIL
  6
CONTINUOUS
 62
     5
 10
613.40893842999867
 20
121.9846564700001
 30
0.0
 11
610.40693709999687
 21
121.9846564700001
 31
0.0
  0
LINE
  8
DETAIL
  6
CONTINUOUS
 62
     5
 10
610.40693709999687
 20
141.99799866999999
 30
0.0
 11
610.40693709999687
 21
68.815243850162005
 31
0.0
  0
LINE
  8
DETAIL
  6
CONTINUOUS
 62
     5
 10
613.40893842999867
 20
91.964643169999817
 30
0.0
 11
613.40893842999867
 21
121.9846564700001
 31
0.0
  0
LINE
  8
DETAIL
  6
CONTINUOUS
 62
     5
 10
613.40893842999867
 20
113.22881925749969
 30
0.0
 11
618.04792122167419
 21
113.22881925749969
 31
0.0
  0
LINE
  8
DETAIL
  6
CONTINUOUS
 62
     5
 10
613.40893842999867
 20
100.7204803824998
 30
0.0
 11
618.04792122167419
 21
100.7204803824998
 31
0.0
  0
LINE
  8
DETAIL
  6
CONTINUOUS
 62
     5
 10
613.40893842999867
 20
91.964643169999817
 30
0.0
 11
610.40693709999687
 21
91.964643169999817
 31
0.0
  0
LINE
  8
DETAIL
  6
CONTINUOUS
 62
     5
 10
599.33523471873195
 20
54.331112564022987
 30
0.0
 11
438.9476938678672
 21
10.72097645673063
 31
0.0
  0
LINE
  8
DETAIL
  6
CONTINUOUS
 62
     5
 10
360.18160849150809
 20
0.2034691829998962
 30
0.0
 11
0.0
 21
0.2034691829998962
 31
0.0
  0
LINE
  8
DETAIL
  6
CONTINUOUS
 62
     5
 10
2.0013342199963522
 20
146.2008005319999
 30
0.0
 11
351.6344224539971
 21
146.2008005319999
 31
0.0
  0
LINE
  8
DETAIL
  6
DIVIDE
 62
     5
 10
401.46764453199648
 20
146.8012007979996
 30
0.0
 11
449.09939896799921
 21
146.8012007979996
 31
0.0
  0
LINE
  8
DETAIL
  6
CONTINUOUS
 62
     5
 10
2.0013342199963522
 20
146.8012007979996
 30
0.0
 11
0.8005336879978131
 21
146.8012007979996
 31
0.0
  0
LINE
  8
DETAIL
  6
CONTINUOUS
 62
     5
 10
2.0113408910983712
 20
146.8112074690998
 30
0.0
 11
0.8005336879978131
 21
146.8112074690998
 31
0.0
  0
LINE
  8
DETAIL
  6
DIVIDE
 62
     5
 10
200.133421999999
 20
147.40160106399981
 30
0.0
 11
397.86524293600093
 21
147.40160106399981
 31
0.0
  0
LINE
  8
DETAIL
  6
DIVIDE
 62
     5
 10
449.69979923400018
 20
699.16944551799997
 30
0.0
 11
449.69979923400018
 21
150.40360239399979
 31
0.0
  0
LINE
  8
DETAIL
  6
DIVIDE
 62
     5
 10
447.89859843600061
 20
700.37024604999988
 30
0.0
 11
447.89859843600061
 21
699.76984578399993
 31
0.0
  0
LINE
  8
DETAIL
  6
DIVIDE
 62
     5
 10
435.29019284999958
 20
700.37024604999988
 30
0.0
 11
435.29019284999958
 21
699.76984578399993
 31
0.0
  0
LINE
  8
DETAIL
  6
DIVIDE
 62
     5
 10
434.08939231800099
 20
700.37024604999988
 30
0.0
 11
434.08939231800099
 21
699.76984578399993
 31
0.0
  0
LINE
  8
DETAIL
  6
DIVIDE
 62
     5
 10
401.96797808699921
 20
648.13546226723918
 30
0.0
 11
401.96797808699921
 21
652.5383188322603
 31
0.0
  0
LINE
  8
DETAIL
  6
DIVIDE
 62
     5
 10
400.86724426599898
 20
699.16944551799997
 30
0.0
 11
400.86724426599898
 21
147.40160106399981
 31
0.0
  0
LINE
  8
DETAIL
  6
DIVIDE
 62
     5
 10
399.06604346799941
 20
296.30086703199959
 30
0.0
 11
399.06604346799941
 21
148.60240159600019
 31
0.0
  0
LINE
  8
DETAIL
  6
CONTINUOUS
 62
     5
 10
355.23682405
 20
146.8012007979996
 30
0.0
 11
355.23682405
 21
262.37825200299989
 31
0.0
  0
LINE
  8
DETAIL
  6
CONTINUOUS
 62
     5
 10
0.8005336879978131
 20
147.6017344860002
 30
0.0
 11
0.8005336879978131
 21
146.8012007979996
 31
0.0
  0
LINE
  8
DETAIL
  6
DIVIDE
 62
     5
 10
401.46764453199648
 20
648.13542290799978
 30
0.0
 11
401.96797808699921
 21
648.13542290799978
 31
0.0
  0
LINE
  8
DETAIL
  6
DIVIDE
 62
     5
 10
401.46764453199648
 20
648.73582317399996
 30
0.0
 11
401.96797808699921
 21
648.73582317399996
 31
0.0
  0
LINE
  8
DETAIL
  6
DIVIDE
 62
     5
 10
401.46764453199648
 20
651.93795792600008
 30
0.0
 11
401.96797808699921
 21
651.93795792600008
 31
0.0
  0
LINE
  8
DETAIL
  6
DIVIDE
 62
     5
 10
401.46764453199648
 20
652.53835819199992
 30
0.0
 11
401.96797808699921
 21
652.53835819199992
 31
0.0
  0
LINE
  8
DETAIL
  6
DIVIDE
 62
     5
 10
401.46764453199648
 20
699.76984578399993
 30
0.0
 11
449.09939896799921
 21
699.76984578399993
 31
0.0
  0
ARC
  8
DETAIL
  6
CONTINUOUS
 62
     5
 10
355.83722431599739
 20
146.8012007979996
 30
0.0
 40
0.6004002660000199
 50
180.0
 51
270.0
  0
ARC
  8
DETAIL
  6
CONTINUOUS
 62
     5
 10
354.03602351799782
 20
262.37825200299989
 30
0.0
 40
1.2008005320000501
 50
0.0
 51
90.0
  0
ARC
  8
DETAIL
  6
DIVIDE
 62
     5
 10
401.46764453199648
 20
653.1387584580001
 30
0.0
 40
1.2008005320000501
 50
180.0
 51
270.0
  0
ARC
  8
DETAIL
  6
DIVIDE
 62
     5
 10
401.46764453199648
 20
647.53502264200017
 30
0.0
 40
1.2008005319997599
 50
90.0
 51
180.0
  0
ARC
  8
DETAIL
  6
DIVIDE
 62
     5
 10
401.46764453199648
 20
653.1387584580001
 30
0.0
 40
0.6004002660000199
 50
180.0
 51
270.0
  0
ARC
  8
DETAIL
  6
DIVIDE
 62
     5
 10
401.46764453199648
 20
647.53502264200017
 30
0.0
 40
0.6004002659998798
 50
90.0
 51
180.0
  0
LINE
  8
NOTE
  6
CONTINUOUS
 62
     4
 10
289.99999999999818
 20
256.05982334656483
 30
0.0
 11
289.99999999999818
 21
410.25047365852561
 31
0.0
  0
ARC
  8
DETAIL
  6
DIVIDE
 62
     5
 10
185.12341534999359
 20
293.39893241299978
 30
0.0
 40
110.3869629630544
 50
92.597845335861479
 51
166.79474747027771
  0
LINE
  8
DETAIL
  6
CONTINUOUS
 62
     5
 10
180.12007979999541
 20
369.89221095827622
 30
0.0
 11
175.37644671668019
 21
358.80945258801057
 31
0.0
  0
LINE
  8
DETAIL
  6
CONTINUOUS
 62
     5
 10
175.37644671668019
 20
358.80945258801057
 30
0.0
 11
171.59850891759561
 21
348.03535661899969
 31
0.0
  0
LINE
  8
DETAIL
  6
CONTINUOUS
 62
     5
 10
171.59850891759561
 20
348.03535661899969
 30
0.0
 11
171.59850891759561
 21
348.03535661899969
 31
0.0
  0
LINE
  8
DETAIL
  6
CONTINUOUS
 62
     5
 10
171.59850891759561
 20
348.03535661899969
 30
0.0
 11
169.5437048912718
 21
337.76283705202877
 31
0.0
  0
LINE
  8
DETAIL
  6
CONTINUOUS
 62
     5
 10
169.5437048912718
 20
337.76283705202877
 30
0.0
 11
169.1364459434335
 21
327.72181428600021
 31
0.0
  0
LINE
  8
DETAIL
  6
CONTINUOUS
 62
     5
 10
169.1364459434335
 20
327.72181428600021
 30
0.0
 11
169.1364459434335
 21
327.72181428600021
 31
0.0
  0
LINE
  8
DETAIL
  6
CONTINUOUS
 62
     5
 10
169.1364459434335
 20
327.72181428600021
 30
0.0
 11
169.9070400344535
 21
318.61574358500002
 31
0.0
  0
LINE
  8
DETAIL
  6
CONTINUOUS
 62
     5
 10
169.9070400344535
 20
318.61574358500002
 30
0.0
 11
169.9070400344535
 21
318.61574358500002
 31
0.0
  0
LINE
  8
DETAIL
  6
CONTINUOUS
 62
     5
 10
180.12007979999541
 20
403.67244793499958
 30
0.0
 11
180.12007979999541
 21
369.89221095824541
 31
0.0
  0
LINE
  8
DETAIL
  6
DIVIDE
 62
     5
 10
180.42027993300141
 20
403.67244793499958
 30
0.0
 11
180.12007979999541
 21
403.67244793499958
 31
0.0
  0
LINE
  8
DETAIL
  6
CONTINUOUS
 62
     5
 10
180.42027993300141
 20
403.67244793499958
 30
0.0
 11
180.42027993300141
 21
318.61574358500002
 31
0.0
  0
LINE
  8
BASIS
  6
DASHDOT
 62
     6
 10
145.09673094999741
 20
229.8126208491752
 30
0.0
 11
145.09673094999741
 21
360.2873729934272
 31
0.0
  0
ARC
  8
OUTLINE
  6
CONTINUOUS
 62
     3
 10
1.601067375995626
 20
298.60240180700021
 30
0.0
 40
0.8005336880006405
 50
90.0
 51
180.0
  0
ARC
  8
OUTLINE
  6
CONTINUOUS
 62
     3
 10
1.601067375995626
 20
298.60240180700021
 30
0.0
 40
1.6010673759999099
 50
90.0
 51
180.0
  0
ARC
  8
OUTLINE
  6
CONTINUOUS
 62
     3
 10
70.246831121996365
 20
279.38959287299991
 30
0.0
 40
0.8005336879997199
 50
270.0
 51
0.0
  0
ARC
  8
OUTLINE
  6
CONTINUOUS
 62
     3
 10
69.646430855998915
 20
276.98799180900011
 30
0.0
 40
1.60106737599945
 50
90.0
 51
180.0
  0
ARC
  8
OUTLINE
  6
CONTINUOUS
 62
     3
 10
60.040026599999692
 20
272.38492310299989
 30
0.0
 40
8.0053368800000104
 50
317.52089603691599
 51
0.0
  0
ARC
  8
OUTLINE
  6
CONTINUOUS
 62
     3
 10
1.601067375995626
 20
147.20146764199939
 30
0.0
 40
0.8005336879999501
 50
180.0
 51
270.0
  0
ARC
  8
OUTLINE
  6
CONTINUOUS
 62
     3
 10
1.601067375995626
 20
147.20146764199939
 30
0.0
 40
1.6010673759998899
 50
180.0
 51
270.0
  0
ARC
  8
OUTLINE
  6
CONTINUOUS
 62
     3
 10
360.18160849150809
 20
300.40360218299969
 30
0.0
 40
300.20013300000011
 50
270.0
 51
285.21124574941291
  0
ARC
  8
OUTLINE
  6
CONTINUOUS
 62
     3
 10
607.40493576999506
 20
141.99799866999999
 30
0.0
 40
3.002001330000009
 50
0.0
 51
90.0
  0
ARC
  8
OUTLINE
  6
CONTINUOUS
 62
     3
 10
595.39693044999876
 20
68.815243850162005
 30
0.0
 40
15.010006649999999
 50
285.21124574938602
 51
0.0
  0
LINE
  8
OUTLINE
  6
CONTINUOUS
 62
     3
 10
0.0
 20
147.20146764199939
 30
0.0
 11
0.0
 21
298.20213496300039
 31
0.0
  0
LINE
  8
OUTLINE
  6
CONTINUOUS
 62
     3
 10
0.0
 20
0.2034691829998962
 30
0.0
 11
0.0
 21
145.60040026600021
 31
0.0
  0
LINE
  8
OUTLINE
  6
CONTINUOUS
 62
     3
 10
2.0013342199963522
 20
146.8012007979996
 30
0.0
 11
2.0013342199963522
 21
145.0
 31
0.0
  0
LINE
  8
OUTLINE
  6
CONTINUOUS
 62
     3
 10
2.0113408910983712
 20
145.60040026600021
 30
0.0
 11
2.0113408910983712
 21
146.8112074690998
 31
0.0
  0
LINE
  8
OUTLINE
  6
CONTINUOUS
 62
     3
 10
15.0100066499981
 20
298.20213496300039
 30
0.0
 11
15.0100066499981
 21
149.60306870600019
 31
0.0
  0
LINE
  8
OUTLINE
  6
CONTINUOUS
 62
     3
 10
15.0100066499981
 20
300.20346918299992
 30
0.0
 11
15.0100066499981
 21
299.40293549499972
 31
0.0
  0
LINE
  8
OUTLINE
  6
CONTINUOUS
 62
     3
 10
45.03001994999795
 20
263.57905253499968
 30
0.0
 11
45.03001994999795
 21
266.9813207090001
 31
0.0
  0
LINE
  8
OUTLINE
  6
CONTINUOUS
 62
     3
 10
68.045363479999651
 20
272.38492310299989
 30
0.0
 11
68.045363479999651
 21
276.98799180900011
 31
0.0
  0
LINE
  8
OUTLINE
  6
CONTINUOUS
 62
     3
 10
71.047364809997816
 20
279.38959287299991
 30
0.0
 11
71.047364809997816
 21
318.61574358500002
 31
0.0
  0
LINE
  8
OUTLINE
  6
CONTINUOUS
 62
     3
 10
219.1460970899989
 20
279.38959287299991
 30
0.0
 11
219.14609709000069
 21
318.61574358500002
 31
0.0
  0
LINE
  8
OUTLINE
  6
CONTINUOUS
 62
     3
 10
15.0100066499981
 20
149.60306870600019
 30
0.0
 11
13.00867243000175
 21
147.6017344860002
 31
0.0
  0
LINE
  8
OUTLINE
  6
CONTINUOUS
 62
     3
 10
1.601067375995626
 20
300.20346918299992
 30
0.0
 11
15.0100066499981
 21
300.20346918299992
 31
0.0
  0
LINE
  8
OUTLINE
  6
CONTINUOUS
 62
     3
 10
1.601067375995626
 20
299.40293549499972
 30
0.0
 11
15.0100066499981
 21
299.40293549499972
 31
0.0
  0
LINE
  8
OUTLINE
  6
CONTINUOUS
 62
     3
 10
0.0
 20
298.20213496300039
 30
0.0
 11
15.0100066499981
 21
298.20213496300039
 31
0.0
  0
LINE
  8
OUTLINE
  6
CONTINUOUS
 62
     3
 10
219.14609709000069
 20
318.61574358500002
 30
0.0
 11
71.047364809997816
 21
318.61574358500002
 31
0.0
  0
LINE
  8
OUTLINE
  6
CONTINUOUS
 62
     3
 10
15.0100066499981
 20
263.57905253499968
 30
0.0
 11
354.03602351799782
 21
263.57905253499968
 31
0.0
  0
LINE
  8
OUTLINE
  6
CONTINUOUS
 62
     3
 10
0.0
 20
147.6017344860002
 30
0.0
 11
13.00867243000175
 21
147.6017344860002
 31
0.0
  0
LINE
  8
OUTLINE
  6
CONTINUOUS
 62
     3
 10
1.601067375995626
 20
146.40093395399981
 30
0.0
 11
2.0113408910983712
 21
146.40093395399981
 31
0.0
  0
LINE
  8
OUTLINE
  6
CONTINUOUS
 62
     3
 10
368.64576332399878
 20
145.0
 30
0.0
 11
607.40493576999506
 21
145.0
 31
0.0
  0
LINE
  8
OUTLINE
  6
CONTINUOUS
 62
     3
 10
0.0
 20
145.0
 30
0.0
 11
1.0006671099981761
 21
145.0
 31
0.0
  0
LINE
  8
OUTLINE
  6
CONTINUOUS
 62
     3
 10
610.40693709999687
 20
141.99799866999999
 30
0.0
 11
610.40693709999687
 21
68.815243850162005
 31
0.0
  0
LINE
  8
OUTLINE
  6
CONTINUOUS
 62
     3
 10
599.33523471873195
 20
54.331112564022987
 30
0.0
 11
438.9476938678672
 21
10.72097645673063
 31
0.0
  0
LINE
  8
OUTLINE
  6
CONTINUOUS
 62
     3
 10
360.18160849150809
 20
0.2034691829998962
 30
0.0
 11
0.0
 21
0.2034691829998962
 31
0.0
  0
LINE
  8
OUTLINE
  6
CONTINUOUS
 62
     3
 10
2.0013342199963522
 20
146.2008005319999
 30
0.0
 11
351.6344224539971
 21
146.2008005319999
 31
0.0
  0
LINE
  8
OUTLINE
  6
CONTINUOUS
 62
     3
 10
2.0013342199963522
 20
146.8012007979996
 30
0.0
 11
0.8005336879978131
 21
146.8012007979996
 31
0.0
  0
LINE
  8
OUTLINE
  6
CONTINUOUS
 62
     3
 10
2.0113408910983712
 20
146.8112074690998
 30
0.0
 11
0.8005336879978131
 21
146.8112074690998
 31
0.0
  0
LINE
  8
OUTLINE
  6
CONTINUOUS
 62
     3
 10
355.23682405
 20
146.8012007979996
 30
0.0
 11
355.23682405
 21
262.37825200299989
 31
0.0
  0
LINE
  8
OUTLINE
  6
CONTINUOUS
 62
     3
 10
0.8005336879978131
 20
147.6017344860002
 30
0.0
 11
0.8005336879978131
 21
146.8012007979996
 31
0.0
  0
ARC
  8
OUTLINE
  6
CONTINUOUS
 62
     3
 10
355.83722431599739
 20
146.8012007979996
 30
0.0
 40
0.6004002660000199
 50
180.0
 51
270.0
  0
ARC
  8
OUTLINE
  6
CONTINUOUS
 62
     3
 10
354.03602351799782
 20
262.37825200299989
 30
0.0
 40
1.2008005320000501
 50
0.0
 51
90.0
  0
LINE
  8
DETAIL
  6
DIVIDE
 62
     5
 10
200.133421999999
 20
146.2008005319999
 30
0.0
 11
200.133421999999
 21
156.20747163200031
 31
0.0
  0
LINE
  8
NOTE
  6
CONTINUOUS
 62
     4
 10
-24.016010640001699
 20
283.20346918299992
 30
0.0
 11
24.016010640001699
 21
283.20346918299992
 31
0.0
  0
LINE
  8
NOTE
  6
CONTINUOUS
 62
     4
 10
0.000000000001819
 20
307.2194798229998
 30
0.0
 11
0.000000000001819
 21
259.18745854299959
 31
0.0
  0
LINE
  8
NOTE
  6
CONTINUOUS
 62
     4
 10
-23.51567708499897
 20
101.2034691829999
 30
0.0
 11
23.51567708499897
 21
101.2034691829999
 31
0.0
  0
LINE
  8
NOTE
  6
CONTINUOUS
 62
     4
 10
-0.000000000001819
 20
124.7191462679998
 30
0.0
 11
-0.000000000001819
 21
77.687792097999591
 31
0.0
  0
CIRCLE
  8
FIX
  6
CONTINUOUS
 62
    11
 10
0.0
 20
101.2034691829999
 30
0.0
 40
5.0
  0
CIRCLE
  8
FIX
  6
CONTINUOUS
 62
    11
 10
0.0
 20
283.20346918299992
 30
0.0
 40
5.0
  0
LINE
  8
NOTE
  6
CONTINUOUS
 62
     4
 10
284.1105776382102
 20
302.17815992700571
 30
0.0
 11
289.99999999999909
 21
300.20346918300078
 31
0.0
  0
LINE
  8
NOTE
  6
CONTINUOUS
 62
     4
 10
289.99999999999909
 20
300.20346918300078
 30
0.0
 11
285.88696300766821
 21
304.85831891094222
 31
0.0
  0
LINE
  8
NOTE
  6
CONTINUOUS
 62
     4
 10
289.99999999999909
 20
300.20346918300078
 30
0.0
 11
279.99754064587933
 21
306.83300965494709
 31
0.0
  0
LINE
  8
NOTE
  6
CONTINUOUS
 62
     4
 10
279.99754064587893
 20
306.83300965494709
 30
0.0
 11
-95.309016076186708
 21
552.9582507922446
 31
0.0
  0
LINE
  8
NOTE
  6
CONTINUOUS
 62
     4
 10
-95.309016076186708
 20
552.9582507922446
 30
0.0
 11
-730.76897488934253
 21
552.9582507922446
 31
0.0
  0
TEXT
  8
NOTE
  6
CONTINUOUS
 62
     4
 10
-729.03094751498543
 20
601.43054982859121
 30
0.0
 40
64.0
  1
AH 2-Φ12×47
 41
0.9
 72
     2
 11
-117.3738046578428
 21
601.43054982859121
 31
0.0
  0
CIRCLE
  8
FIX
  6
CONTINUOUS
 62
    11
 10
290.0
 20
300.20346918299992
 30
0.0
 40
5.0
  0
LINE
  8
SIZE
  6
CONTINUOUS
 62
    30
 10
219.14609709000069
 20
338.61574358500002
 30
0.0
 11
219.14609709000069
 21
668.3705397010126
 31
0.0
  0
LINE
  8
SIZE
  6
CONTINUOUS
 62
    30
 10
71.047364809997816
 20
338.61574358500002
 30
0.0
 11
71.047364809997816
 21
668.3705397010126
 31
0.0
  0
LINE
  8
SIZE
  6
CONTINUOUS
 62
    30
 10
207.14609709000069
 20
648.3705397010126
 30
0.0
 11
83.047364809997816
 21
648.3705397010126
 31
0.0
  0
CIRCLE
  8
SIZE
  6
CONTINUOUS
 62
    30
 10
219.14609709000069
 20
648.3705397010126
 30
0.0
 40
6.0
  0
LINE
  8
SIZE
  6
CONTINUOUS
 62
    30
 10
219.14609709000069
 20
648.3705397010126
 30
0.0
 11
207.14609709000069
 21
648.3705397010126
 31
0.0
  0
CIRCLE
  8
SIZE
  6
CONTINUOUS
 62
    30
 10
71.047364809997816
 20
648.3705397010126
 30
0.0
 40
6.0
  0
LINE
  8
SIZE
  6
CONTINUOUS
 62
    30
 10
71.047364809997816
 20
648.3705397010126
 30
0.0
 11
83.047364809997816
 21
648.3705397010126
 31
0.0
  0
TEXT
  8
SIZE
  6
CONTINUOUS
 62
    30
 10
36.205302378570693
 20
684.03720636767923
 30
0.0
 40
64.0
  1
φ148
 41
0.9
 72
     1
 11
145.09673094999931
 21
684.03720636767923
 31
0.0
  0
LINE
  8
SIZE
  6
CONTINUOUS
 62
    30
 10
400.26684399999772
 20
719.16944551799997
 30
0.0
 11
400.26684399999772
 21
847.30693536908257
 31
0.0
  0
LINE
  8
SIZE
  6
CONTINUOUS
 62
    30
 10
388.26684399999772
 20
827.30693536908257
 30
0.0
 11
376.26684399999772
 21
827.30693536908257
 31
0.0
  0
LINE
  8
SIZE
  6
CONTINUOUS
 62
    30
 10
462.30019949999769
 20
827.30693536908257
 30
0.0
 11
617.55734235714044
 21
827.30693536908257
 31
0.0
  0
LINE
  8
SIZE
  6
CONTINUOUS
 62
    30
 10
400.26684399999772
 20
827.30693536908257
 30
0.0
 11
450.30019949999769
 21
827.30693536908257
 31
0.0
  0
CIRCLE
  8
SIZE
  6
CONTINUOUS
 62
    30
 10
400.26684399999772
 20
827.30693536908257
 30
0.0
 40
6.0
  0
LINE
  8
SIZE
  6
CONTINUOUS
 62
    30
 10
400.26684399999772
 20
827.30693536908257
 30
0.0
 11
388.26684399999772
 21
827.30693536908257
 31
0.0
  0
CIRCLE
  8
SIZE
  6
CONTINUOUS
 62
    30
 10
450.30019949999769
 20
827.30693536908257
 30
0.0
 40
6.0
  0
LINE
  8
SIZE
  6
CONTINUOUS
 62
    30
 10
450.30019949999769
 20
827.30693536908257
 30
0.0
 11
462.30019949999769
 21
827.30693536908257
 31
0.0
  0
TEXT
  8
SIZE
  6
CONTINUOUS
 62
    30
 10
499.30019949999758
 20
852.30693536908257
 30
0.0
 40
64.0
  1
50
 41
0.9
 72
     1
 11
545.92877092856907
 21
852.30693536908257
 31
0.0
  0
LINE
  8
SIZE
  6
CONTINUOUS
 62
    30
 10
610.40693709999687
 20
48.815243850162013
 30
0.0
 11
610.40693709999687
 21
-253.5557871736564
 31
0.0
  0
LINE
  8
SIZE
  6
CONTINUOUS
 62
    30
 10
0.0
 20
-40.629391026564889
 30
0.0
 11
0.0
 21
-253.5557871736564
 31
0.0
  0
LINE
  8
SIZE
  6
CONTINUOUS
 62
    30
 10
598.40693709999687
 20
-233.5557871736564
 30
0.0
 11
12.0
 21
-233.5557871736564
 31
0.0
  0
CIRCLE
  8
SIZE
  6
CONTINUOUS
 62
    30
 10
610.40693709999687
 20
-233.5557871736564
 30
0.0
 40
6.0
  0
LINE
  8
SIZE
  6
CONTINUOUS
 62
    30
 10
610.40693709999687
 20
-233.5557871736564
 30
0.0
 11
598.40693709999687
 21
-233.5557871736564
 31
0.0
  0
CIRCLE
  8
SIZE
  6
CONTINUOUS
 62
    30
 10
0.0
 20
-233.5557871736564
 30
0.0
 40
6.0
  0
LINE
  8
SIZE
  6
CONTINUOUS
 62
    30
 10
0.0
 20
-233.5557871736564
 30
0.0
 11
12.0
 21
-233.5557871736564
 31
0.0
  0
TEXT
  8
SIZE
  6
CONTINUOUS
 62
    30
 10
236.63203997856991
 20
-208.5557871736564
 30
0.0
 40
64.0
  1
610
 41
0.9
 72
     1
 11
305.20346854999838
 21
-208.5557871736564
 31
0.0
  0
LINE
  8
SIZE
  6
CONTINUOUS
 62
    30
 10
647.40493576999506
 20
145.0
 30
0.0
 11
899.72322502177576
 21
144.99999999999989
 31
0.0
  0
LINE
  8
SIZE
  6
CONTINUOUS
 62
    30
 10
624.65437677143382
 20
57.0
 30
0.0
 11
899.72322502177576
 21
56.999999999999893
 31
0.0
  0
LINE
  8
SIZE
  6
CONTINUOUS
 62
    30
 10
879.72322502177576
 20
132.99999999999989
 30
0.0
 11
879.72322502177576
 21
68.999999999999886
 31
0.0
  0
LINE
  8
SIZE
  6
CONTINUOUS
 62
    30
 10
879.72322502177576
 20
56.999999999999893
 30
0.0
 11
879.72322502177576
 21
-235.2483097490298
 31
0.0
  0
CIRCLE
  8
SIZE
  6
CONTINUOUS
 62
    30
 10
879.72322502177576
 20
144.99999999999989
 30
0.0
 40
6.0
  0
LINE
  8
SIZE
  6
CONTINUOUS
 62
    30
 10
879.72322502177576
 20
144.99999999999989
 30
0.0
 11
879.72322502177576
 21
132.99999999999989
 31
0.0
  0
CIRCLE
  8
SIZE
  6
CONTINUOUS
 62
    30
 10
879.72322502177576
 20
56.999999999999893
 30
0.0
 40
6.0
  0
LINE
  8
SIZE
  6
CONTINUOUS
 62
    30
 10
879.72322502177576
 20
56.999999999999893
 30
0.0
 11
879.72322502177576
 21
68.999999999999886
 31
0.0
  0
TEXT
  8
SIZE
  6
CONTINUOUS
 62
    30
 10
854.72322502177576
 20
-237.12830974902971
 30
0.0
 40
64.0
  1
（88）
 50
90.0
 41
0.9
 72
     1
 11
854.72322502177576
 21
-122.7511668918869
 31
0.0
  0
LINE
  8
SIZE
  6
CONTINUOUS
 62
    30
 10
647.40493576999506
 20
145.0
 30
0.0
 11
1033.351484760746
 21
144.99999999999989
 31
0.0
  0
LINE
  8
SIZE
  6
CONTINUOUS
 62
    30
 10
647.40493576999506
 20
0.0
 30
0.0
 11
1033.351484760746
 21
-0.0000000000001137
 31
0.0
  0
LINE
  8
SIZE
  6
CONTINUOUS
 62
    30
 10
1013.351484760746
 20
132.99999999999989
 30
0.0
 11
1013.351484760746
 21
11.99999999999989
 31
0.0
  0
LINE
  8
SIZE
  6
CONTINUOUS
 62
    30
 10
1013.351484760746
 20
-0.0000000000001137
 30
0.0
 11
1013.351484760746
 21
-199.1428571428572
 31
0.0
  0
CIRCLE
  8
SIZE
  6
CONTINUOUS
 62
    30
 10
1013.351484760746
 20
144.99999999999989
 30
0.0
 40
6.0
  0
LINE
  8
SIZE
  6
CONTINUOUS
 62
    30
 10
1013.351484760746
 20
144.99999999999989
 30
0.0
 11
1013.351484760746
 21
132.99999999999989
 31
0.0
  0
CIRCLE
  8
SIZE
  6
CONTINUOUS
 62
    30
 10
1013.351484760746
 20
-0.0000000000001137
 30
0.0
 40
6.0
  0
LINE
  8
SIZE
  6
CONTINUOUS
 62
    30
 10
1013.351484760746
 20
-0.0000000000001137
 30
0.0
 11
1013.351484760746
 21
11.99999999999989
 31
0.0
  0
TEXT
  8
SIZE
  6
CONTINUOUS
 62
    30
 10
988.35148476074573
 20
-174.14285714285711
 30
0.0
 40
64.0
  1
145
 50
90.0
 41
0.9
 72
     1
 11
988.35148476074573
 21
-105.5714285714285
 31
0.0
  0
LINE
  8
SIZE
  6
CONTINUOUS
 62
    30
 10
469.09939896799921
 20
700.37024604999988
 30
0.0
 11
899.72322502177576
 21
700.37024604999965
 31
0.0
  0
LINE
  8
SIZE
  6
CONTINUOUS
 62
    30
 10
647.40493576999506
 20
145.0
 30
0.0
 11
899.72322502177576
 21
144.99999999999989
 31
0.0
  0
LINE
  8
SIZE
  6
CONTINUOUS
 62
    30
 10
879.72322502177576
 20
688.37024604999965
 30
0.0
 11
879.72322502177576
 21
156.99999999999989
 31
0.0
  0
CIRCLE
  8
SIZE
  6
CONTINUOUS
 62
    30
 10
879.72322502177576
 20
700.37024604999965
 30
0.0
 40
6.0
  0
LINE
  8
SIZE
  6
CONTINUOUS
 62
    30
 10
879.72322502177576
 20
700.37024604999965
 30
0.0
 11
879.72322502177576
 21
688.37024604999965
 31
0.0
  0
CIRCLE
  8
SIZE
  6
CONTINUOUS
 62
    30
 10
879.72322502177576
 20
144.99999999999989
 30
0.0
 40
6.0
  0
LINE
  8
SIZE
  6
CONTINUOUS
 62
    30
 10
879.72322502177576
 20
144.99999999999989
 30
0.0
 11
879.72322502177576
 21
156.99999999999989
 31
0.0
  0
TEXT
  8
SIZE
  6
CONTINUOUS
 62
    30
 10
854.72322502177576
 20
280.87940873928551
 30
0.0
 40
64.0
  1
（555）
 50
90.0
 41
0.9
 72
     1
 11
854.72322502177576
 21
422.68512302499983
 31
0.0
  0
LINE
  8
SIZE
  6
CONTINUOUS
 62
    30
 10
145.09673094999741
 20
380.2873729934272
 30
0.0
 11
145.09673094999741
 21
819.09923610617534
 31
0.0
  0
LINE
  8
SIZE
  6
CONTINUOUS
 62
    30
 10
133.09673094999741
 20
799.09923610617534
 30
0.0
 11
12.0
 21
799.09923610617534
 31
0.0
  0
LINE
  8
SIZE
  6
CONTINUOUS
 62
    30
 10
0.0
 20
799.09923610617534
 30
0.0
 11
-199.14285714285711
 21
799.09923610617534
 31
0.0
  0
CIRCLE
  8
SIZE
  6
CONTINUOUS
 62
    30
 10
145.09673094999741
 20
799.09923610617534
 30
0.0
 40
6.0
  0
LINE
  8
SIZE
  6
CONTINUOUS
 62
    30
 10
145.09673094999741
 20
799.09923610617534
 30
0.0
 11
133.09673094999741
 21
799.09923610617534
 31
0.0
  0
CIRCLE
  8
SIZE
  6
CONTINUOUS
 62
    30
 10
0.0
 20
799.09923610617534
 30
0.0
 40
6.0
  0
LINE
  8
SIZE
  6
CONTINUOUS
 62
    30
 10
0.0
 20
799.09923610617534
 30
0.0
 11
12.0
 21
799.09923610617534
 31
0.0
  0
TEXT
  8
SIZE
  6
CONTINUOUS
 62
    30
 10
-174.1428571428572
 20
824.09923610617534
 30
0.0
 40
64.0
  1
145
 41
0.9
 72
     1
 11
-105.5714285714287
 21
824.09923610617534
 31
0.0
  0
LINE
  8
SIZE
  6
CONTINUOUS
 62
    30
 10
450.30019949999769
 20
719.16944551799997
 30
0.0
 11
450.30019949999769
 21
1090.273867523523
 31
0.0
  0
LINE
  8
SIZE
  6
CONTINUOUS
 62
    30
 10
0.0
 20
396.95794989982278
 30
0.0
 11
0.0
 21
1090.273867523523
 31
0.0
  0
LINE
  8
SIZE
  6
CONTINUOUS
 62
    30
 10
438.30019949999769
 20
1070.273867523523
 30
0.0
 11
12.0
 21
1070.273867523523
 31
0.0
  0
CIRCLE
  8
SIZE
  6
CONTINUOUS
 62
    30
 10
450.30019949999769
 20
1070.273867523523
 30
0.0
 40
6.0
  0
LINE
  8
SIZE
  6
CONTINUOUS
 62
    30
 10
450.30019949999769
 20
1070.273867523523
 30
0.0
 11
438.30019949999769
 21
1070.273867523523
 31
0.0
  0
CIRCLE
  8
SIZE
  6
CONTINUOUS
 62
    30
 10
0.0
 20
1070.273867523523
 30
0.0
 40
6.0
  0
LINE
  8
SIZE
  6
CONTINUOUS
 62
    30
 10
0.0
 20
1070.273867523523
 30
0.0
 11
12.0
 21
1070.273867523523
 31
0.0
  0
TEXT
  8
SIZE
  6
CONTINUOUS
 62
    30
 10
34.247242607141693
 20
1095.273867523523
 30
0.0
 40
64.0
  1
360～450
 41
0.9
 72
     1
 11
225.15009974999879
 21
1095.273867523523
 31
0.0
  0
LINE
  8
DETAIL
  6
CONTINUOUS
 62
     5
 10
306.79099000000309
 20
251.81247918299641
 30
0.0
 11
303.60901000000013
 21
254.99445918299759
 31
0.0
  0
LINE
  8
DETAIL
  6
CONTINUOUS
 62
     5
 10
276.79099000000309
 20
251.81247918299641
 30
0.0
 11
273.60901000000013
 21
254.99445918299759
 31
0.0
  0
LINE
  8
DETAIL
  6
CONTINUOUS
 62
     5
 10
315.20000000000073
 20
149.70346918299629
 30
0.0
 11
315.20000000000073
 21
300.20346918299992
 31
0.0
  0
LINE
  8
DETAIL
  6
CONTINUOUS
 62
     5
 10
315.20000000000073
 20
149.70346918299629
 30
0.0
 11
313.20000000000249
 21
147.7034691829999
 31
0.0
  0
LINE
  8
DETAIL
  6
CONTINUOUS
 62
     5
 10
299.95000000000249
 20
251.15346918299699
 30
0.0
 11
299.95000000000249
 21
155.65346918300071
 31
0.0
  0
LINE
  8
DETAIL
  6
CONTINUOUS
 62
     5
 10
295.45000000000073
 20
153.40346918299699
 30
0.0
 11
295.45000000000073
 21
253.40346918299699
 31
0.0
  0
LINE
  8
DETAIL
  6
CONTINUOUS
 62
     5
 10
313.20000000000249
 20
147.7034691829999
 30
0.0
 11
257.20000000000073
 21
147.7034691829999
 31
0.0
  0
LINE
  8
DETAIL
  6
CONTINUOUS
 62
     5
 10
305.20000000000073
 20
151.15346918299699
 30
0.0
 11
297.70000000000073
 21
151.15346918299699
 31
0.0
  0
LINE
  8
DETAIL
  6
CONTINUOUS
 62
     5
 10
275.20000000000073
 20
151.15346918299699
 30
0.0
 11
267.70000000000073
 21
151.15346918299699
 31
0.0
  0
LINE
  8
DETAIL
  6
CONTINUOUS
 62
     5
 10
269.95000000000249
 20
155.65346918300071
 30
0.0
 11
275.20000000000073
 21
155.65346918300071
 31
0.0
  0
LINE
  8
DETAIL
  6
CONTINUOUS
 62
     5
 10
299.95000000000249
 20
155.65346918300071
 30
0.0
 11
305.20000000000073
 21
155.65346918300071
 31
0.0
  0
LINE
  8
DETAIL
  6
CONTINUOUS
 62
     5
 10
269.95000000000249
 20
251.15346918299699
 30
0.0
 11
269.95000000000249
 21
155.65346918300071
 31
0.0
  0
LINE
  8
DETAIL
  6
CONTINUOUS
 62
     5
 10
265.45000000000073
 20
153.40346918299699
 30
0.0
 11
265.45000000000073
 21
253.40346918299699
 31
0.0
  0
LINE
  8
DETAIL
  6
CONTINUOUS
 62
     5
 10
255.2000000000007
 20
149.70346918299629
 30
0.0
 11
255.2000000000007
 21
300.20346918299992
 31
0.0
  0
LINE
  8
DETAIL
  6
CONTINUOUS
 62
     5
 10
257.20000000000073
 20
147.7034691829999
 30
0.0
 11
255.2000000000007
 21
149.70346918299629
 31
0.0
  0
LINE
  8
DETAIL
  6
CONTINUOUS
 62
     5
 10
226.80000000000109
 20
290.20346918299992
 30
0.0
 11
226.80000000000109
 21
297.0034691829992
 31
0.0
  0
LINE
  8
DETAIL
  6
CONTINUOUS
 62
     5
 10
225.20000000000249
 20
297.0034691829992
 30
0.0
 11
225.20000000000249
 21
290.20346918299992
 31
0.0
  0
LINE
  8
DETAIL
  6
CONTINUOUS
 62
     5
 10
306.79099000000309
 20
254.99445918299759
 30
0.0
 11
303.60901000000013
 21
251.81247918299641
 31
0.0
  0
LINE
  8
DETAIL
  6
CONTINUOUS
 62
     5
 10
301.08305000000291
 20
251.15346918299699
 30
0.0
 11
299.95000000000249
 21
251.15346918299699
 31
0.0
  0
LINE
  8
DETAIL
  6
CONTINUOUS
 62
     5
 10
271.08305000000291
 20
251.15346918299699
 30
0.0
 11
269.95000000000249
 21
251.15346918299699
 31
0.0
  0
LINE
  8
DETAIL
  6
CONTINUOUS
 62
     5
 10
276.79099000000309
 20
254.99445918299759
 30
0.0
 11
273.60901000000013
 21
251.81247918299641
 31
0.0
  0
LINE
  8
DETAIL
  6
CONTINUOUS
 62
     5
 10
267.70000000000073
 20
255.65346918300071
 30
0.0
 11
271.08305000000291
 21
255.65346918300071
 31
0.0
  0
LINE
  8
DETAIL
  6
CONTINUOUS
 62
     5
 10
297.70000000000073
 20
255.65346918300071
 30
0.0
 11
301.08305000000291
 21
255.65346918300071
 31
0.0
  0
LINE
  8
DETAIL
  6
CONTINUOUS
 62
     5
 10
226.80000000000109
 20
290.20346918299992
 30
0.0
 11
225.20000000000249
 21
290.20346918299992
 31
0.0
  0
LINE
  8
DETAIL
  6
CONTINUOUS
 62
     5
 10
225.20000000000249
 20
292.20346918299629
 30
0.0
 11
226.80000000000109
 21
292.20346918299629
 31
0.0
  0
LINE
  8
DETAIL
  6
CONTINUOUS
 62
     5
 10
228.40000000000151
 20
298.60346918299769
 30
0.0
 11
255.2000000000007
 21
298.60346918299769
 31
0.0
  0
LINE
  8
DETAIL
  6
CONTINUOUS
 62
     5
 10
228.40000000000151
 20
300.20346918299992
 30
0.0
 11
315.20000000000073
 21
300.20346918299992
 31
0.0
  0
ARC
  8
DETAIL
  6
CONTINUOUS
 62
     5
 10
305.20000000000073
 20
153.40346918299699
 30
0.0
 40
2.25
 50
270.0
 51
90.0
  0
ARC
  8
DETAIL
  6
CONTINUOUS
 62
     5
 10
297.70000000000073
 20
153.40346918299699
 30
0.0
 40
2.25
 50
180.0
 51
270.0
  0
CIRCLE
  8
DETAIL
  6
CONTINUOUS
 62
     5
 10
305.20000000000073
 20
253.40346918299699
 30
0.0
 40
4.6999999999999984
  0
ARC
  8
DETAIL
  6
CONTINUOUS
 62
     5
 10
297.70000000000073
 20
253.40346918299699
 30
0.0
 40
2.25
 50
278.47778795522561
 51
180.0
  0
ARC
  8
DETAIL
  6
CONTINUOUS
 62
     5
 10
275.20000000000073
 20
153.40346918299699
 30
0.0
 40
2.25
 50
270.0
 51
90.0
  0
ARC
  8
DETAIL
  6
CONTINUOUS
 62
     5
 10
267.70000000000073
 20
153.40346918299699
 30
0.0
 40
2.25
 50
180.0
 51
270.0
  0
CIRCLE
  8
DETAIL
  6
CONTINUOUS
 62
     5
 10
276.79099000000309
 20
251.81247918299641
 30
0.0
 40
4.6999999999999984
  0
ARC
  8
DETAIL
  6
CONTINUOUS
 62
     5
 10
228.40000000000151
 20
297.0034691829992
 30
0.0
 40
3.2000000000000002
 50
90.0
 51
180.0
  0
ARC
  8
DETAIL
  6
CONTINUOUS
 62
     5
 10
267.70000000000073
 20
253.40346918299699
 30
0.0
 40
2.25
 50
90.0
 51
180.0
  0
ARC
  8
DETAIL
  6
CONTINUOUS
 62
     5
 10
228.40000000000151
 20
297.0034691829992
 30
0.0
 40
1.6000000000000001
 50
90.0
 51
180.0
  0
LINE
  8
DETAIL
  6
DASHDOT
 62
     5
 10
293.40000000000151
 20
284.90346918299701
 30
0.0
 11
293.40000000000151
 21
429.64482918300058
 31
0.0
  0
LINE
  8
DETAIL
  6
DASHDOT
 62
     5
 10
286.60000000000218
 20
284.90346918299701
 30
0.0
 11
286.60000000000218
 21
430.26313918299871
 31
0.0
  0
LINE
  8
DETAIL
  6
DASHDOT
 62
     5
 10
293.40000000000151
 20
284.90346918299701
 30
0.0
 11
286.60000000000218
 21
284.90346918299701
 31
0.0
  0
LINE
  8
DETAIL
  6
CONTINUOUS
 62
     5
 10
290.0
 20
276.73840918299402
 30
0.0
 11
290.0
 21
454.37710918299717
 31
0.0
  0
LINE
  8
SIZE
  6
CONTINUOUS
 62
    30
 10
290.0
 20
474.37710918299717
 30
0.0
 11
290.0
 21
971.55500823843886
 31
0.0
  0
LINE
  8
SIZE
  6
CONTINUOUS
 62
    30
 10
278.0
 20
951.55500823843886
 30
0.0
 11
12.0
 21
951.55500823843886
 31
0.0
  0
LINE
  8
SIZE
  6
CONTINUOUS
 62
    30
 10
0.0
 20
951.55500823843886
 30
0.0
 11
-455.09949160401078
 21
951.55500823843886
 31
0.0
  0
CIRCLE
  8
SIZE
  6
CONTINUOUS
 62
    30
 10
290.0
 20
951.55500823843886
 30
0.0
 40
6.0
  0
LINE
  8
SIZE
  6
CONTINUOUS
 62
    30
 10
290.0
 20
951.55500823843886
 30
0.0
 11
278.0
 21
951.55500823843886
 31
0.0
  0
CIRCLE
  8
SIZE
  6
CONTINUOUS
 62
    30
 10
0.0
 20
951.55500823843886
 30
0.0
 40
6.0
  0
LINE
  8
SIZE
  6
CONTINUOUS
 62
    30
 10
0.0
 20
951.55500823843886
 30
0.0
 11
12.0
 21
951.55500823843886
 31
0.0
  0
TEXT
  8
SIZE
  6
CONTINUOUS
 62
    30
 10
-430.09949160401078
 20
976.55500823843886
 30
0.0
 40
64.0
  1
255~290
 41
0.9
 72
     1
 11
-238.09949160401081
 21
976.55500823843886
 31
0.0
  0
LINE
  8
SIZE
  6
CONTINUOUS
 62
    30
 10
647.40493576999506
 20
0.0
 30
0.0
 11
1137.272342555756
 21
-0.0000000000001137
 31
0.0
  0
LINE
  8
SIZE
  6
CONTINUOUS
 62
    30
 10
335.20000000000073
 20
300.20346918299992
 30
0.0
 11
1137.272342555756
 21
300.2034691829997
 31
0.0
  0
LINE
  8
SIZE
  6
CONTINUOUS
 62
    30
 10
1117.272342555756
 20
11.99999999999989
 30
0.0
 11
1117.272342555756
 21
288.2034691829997
 31
0.0
  0
LINE
  8
SIZE
  6
CONTINUOUS
 62
    30
 10
1117.272342555756
 20
300.2034691829997
 30
0.0
 11
1117.272342555756
 21
1059.9863263258569
 31
0.0
  0
CIRCLE
  8
SIZE
  6
CONTINUOUS
 62
    30
 10
1117.272342555756
 20
-0.0000000000001137
 30
0.0
 40
6.0
  0
LINE
  8
SIZE
  6
CONTINUOUS
 62
    30
 10
1117.272342555756
 20
-0.0000000000001137
 30
0.0
 11
1117.272342555756
 21
11.99999999999989
 31
0.0
  0
CIRCLE
  8
SIZE
  6
CONTINUOUS
 62
    30
 10
1117.272342555756
 20
300.2034691829997
 30
0.0
 40
6.0
  0
LINE
  8
SIZE
  6
CONTINUOUS
 62
    30
 10
1117.272342555756
 20
300.2034691829997
 30
0.0
 11
1117.272342555756
 21
288.2034691829997
 31
0.0
  0
TEXT
  8
SIZE
  6
CONTINUOUS
 62
    30
 10
1092.272342555756
 20
337.20346918300021
 30
0.0
 40
64.0
  1
300（400に変更可）
 50
90.0
 41
0.9
 72
     1
 11
1092.272342555756
 21
686.09489775442853
 31
0.0
  0
LINE
  8
SIZE
  6
CONTINUOUS
 62
    30
 10
-18.39893262400437
 20
300.20346918299992
 30
0.0
 11
-573.50009138842518
 21
300.20346918300021
 31
0.0
  0
LINE
  8
SIZE
  6
CONTINUOUS
 62
    30
 10
-145.45612470509059
 20
0.0
 30
0.0
 11
-573.50009138842518
 21
0.0000000000001137
 31
0.0
  0
LINE
  8
SIZE
  6
CONTINUOUS
 62
    30
 10
-553.50009138842518
 20
288.20346918300021
 30
0.0
 11
-553.50009138842518
 21
12.00000000000011
 31
0.0
  0
CIRCLE
  8
SIZE
  6
CONTINUOUS
 62
    30
 10
-553.50009138842518
 20
300.20346918300021
 30
0.0
 40
6.0
  0
LINE
  8
SIZE
  6
CONTINUOUS
 62
    30
 10
-553.50009138842518
 20
300.20346918300021
 30
0.0
 11
-553.50009138842518
 21
288.20346918300021
 31
0.0
  0
CIRCLE
  8
SIZE
  6
CONTINUOUS
 62
    30
 10
-553.50009138842518
 20
0.0000000000001137
 30
0.0
 40
6.0
  0
LINE
  8
SIZE
  6
CONTINUOUS
 62
    30
 10
-553.50009138842518
 20
0.0000000000001137
 30
0.0
 11
-553.50009138842518
 21
12.00000000000011
 31
0.0
  0
TEXT
  8
SIZE
  6
CONTINUOUS
 62
    30
 10
-578.50009138842518
 20
76.146326325857132
 30
0.0
 40
64.0
  1
300
 50
90.0
 41
0.9
 72
     1
 11
-578.50009138842518
 21
150.20346918300001
 31
0.0
  0
LINE
  8
SIZE
  6
CONTINUOUS
 62
    30
 10
-43.51567708499897
 20
101.2034691829999
 30
0.0
 11
-196.65679308704239
 21
101.203469183
 31
0.0
  0
LINE
  8
SIZE
  6
CONTINUOUS
 62
    30
 10
-145.45612470509059
 20
0.0
 30
0.0
 11
-196.65679308704239
 21
0.0
 31
0.0
  0
LINE
  8
SIZE
  6
CONTINUOUS
 62
    30
 10
-176.65679308704239
 20
89.203469182999982
 30
0.0
 11
-176.65679308704239
 21
12.0
 31
0.0
  0
LINE
  8
SIZE
  6
CONTINUOUS
 62
    30
 10
-176.65679308704239
 20
0.0
 30
0.0
 11
-176.65679308704239
 21
-181.10079652168369
 31
0.0
  0
CIRCLE
  8
SIZE
  6
CONTINUOUS
 62
    30
 10
-176.65679308704239
 20
101.203469183
 30
0.0
 40
6.0
  0
LINE
  8
SIZE
  6
CONTINUOUS
 62
    30
 10
-176.65679308704239
 20
101.203469183
 30
0.0
 11
-176.65679308704239
 21
89.203469182999982
 31
0.0
  0
CIRCLE
  8
SIZE
  6
CONTINUOUS
 62
    30
 10
-176.65679308704239
 20
0.0
 30
0.0
 40
6.0
  0
LINE
  8
SIZE
  6
CONTINUOUS
 62
    30
 10
-176.65679308704239
 20
0.0
 30
0.0
 11
-176.65679308704239
 21
12.0
 31
0.0
  0
TEXT
  8
SIZE
  6
CONTINUOUS
 62
    30
 10
-201.65679308704239
 20
-156.10079652168369
 30
0.0
 40
64.0
  1
101
 50
90.0
 41
0.9
 72
     1
 11
-201.65679308704239
 21
-99.872225093112263
 31
0.0
  0
LINE
  8
SIZE
  6
CONTINUOUS
 62
    30
 10
-44.016010640001703
 20
283.20346918299992
 30
0.0
 11
-448.86844892147019
 21
283.20346918300021
 31
0.0
  0
LINE
  8
SIZE
  6
CONTINUOUS
 62
    30
 10
-145.45612470509059
 20
0.0
 30
0.0
 11
-448.86844892147019
 21
0.0000000000001137
 31
0.0
  0
LINE
  8
SIZE
  6
CONTINUOUS
 62
    30
 10
-428.86844892147019
 20
271.20346918300021
 30
0.0
 11
-428.86844892147019
 21
12.00000000000011
 31
0.0
  0
CIRCLE
  8
SIZE
  6
CONTINUOUS
 62
    30
 10
-428.86844892147019
 20
283.20346918299992
 30
0.0
 40
6.0
  0
LINE
  8
SIZE
  6
CONTINUOUS
 62
    30
 10
-428.86844892147019
 20
283.20346918299992
 30
0.0
 11
-428.86844892147019
 21
271.20346918299992
 31
0.0
  0
CIRCLE
  8
SIZE
  6
CONTINUOUS
 62
    30
 10
-428.86844892147019
 20
0.0000000000001137
 30
0.0
 40
6.0
  0
LINE
  8
SIZE
  6
CONTINUOUS
 62
    30
 10
-428.86844892147019
 20
0.0000000000001137
 30
0.0
 11
-428.86844892147019
 21
12.00000000000011
 31
0.0
  0
TEXT
  8
SIZE
  6
CONTINUOUS
 62
    30
 10
-453.86844892147019
 20
67.646326325856634
 30
0.0
 40
64.0
  1
283
 50
90.0
 41
0.9
 72
     1
 11
-453.86844892147019
 21
141.7034691829995
 31
0.0
  0
LINE
  8
SIZE
  6
CONTINUOUS
 62
    30
 10
-4.989993350001896
 20
263.57905253499968
 30
0.0
 11
-344.60652802283948
 21
263.57905253499968
 31
0.0
  0
LINE
  8
SIZE
  6
CONTINUOUS
 62
    30
 10
-145.45612470509059
 20
0.0
 30
0.0
 11
-344.60652802283948
 21
0.0000000000001137
 31
0.0
  0
LINE
  8
SIZE
  6
CONTINUOUS
 62
    30
 10
-324.60652802283948
 20
251.57905253499999
 30
0.0
 11
-324.60652802283948
 21
12.00000000000011
 31
0.0
  0
CIRCLE
  8
SIZE
  6
CONTINUOUS
 62
    30
 10
-324.60652802283948
 20
263.57905253499968
 30
0.0
 40
6.0
  0
LINE
  8
SIZE
  6
CONTINUOUS
 62
    30
 10
-324.60652802283948
 20
263.57905253499968
 30
0.0
 11
-324.60652802283948
 21
251.57905253499999
 31
0.0
  0
CIRCLE
  8
SIZE
  6
CONTINUOUS
 62
    30
 10
-324.60652802283948
 20
0.0000000000001137
 30
0.0
 40
6.0
  0
LINE
  8
SIZE
  6
CONTINUOUS
 62
    30
 10
-324.60652802283948
 20
0.0000000000001137
 30
0.0
 11
-324.60652802283948
 21
12.00000000000011
 31
0.0
  0
TEXT
  8
SIZE
  6
CONTINUOUS
 62
    30
 10
-349.60652802283948
 20
57.834118001857163
 30
0.0
 40
64.0
  1
263
 50
90.0
 41
0.9
 72
     1
 11
-349.60652802283948
 21
131.891260859
 31
0.0
  0
LINE
  8
SIZE
  6
CONTINUOUS
 62
    30
 10
35.010006649998097
 20
263.57905253499968
 30
0.0
 11
773.56408039588541
 21
263.57905253499962
 31
0.0
  0
LINE
  8
SIZE
  6
CONTINUOUS
 62
    30
 10
753.56408039588541
 20
330.61574358499979
 30
0.0
 11
753.56408039588541
 21
342.61574358499979
 31
0.0
  0
LINE
  8
SIZE
  6
CONTINUOUS
 62
    30
 10
753.56408039588541
 20
251.57905253499959
 30
0.0
 11
753.56408039588541
 21
73.371428571428396
 31
0.0
  0
LINE
  8
SIZE
  6
CONTINUOUS
 62
    30
 10
753.56408039588541
 20
318.61574358499979
 30
0.0
 11
753.56408039588541
 21
263.57905253499962
 31
0.0
  0
CIRCLE
  8
SIZE
  6
CONTINUOUS
 62
    30
 10
753.56408039588541
 20
318.61574358499979
 30
0.0
 40
6.0
  0
LINE
  8
SIZE
  6
CONTINUOUS
 62
    30
 10
753.56408039588541
 20
318.61574358499979
 30
0.0
 11
753.56408039588541
 21
330.61574358499979
 31
0.0
  0
CIRCLE
  8
SIZE
  6
CONTINUOUS
 62
    30
 10
753.56408039588541
 20
263.57905253499962
 30
0.0
 40
6.0
  0
LINE
  8
SIZE
  6
CONTINUOUS
 62
    30
 10
753.56408039588541
 20
263.57905253499962
 30
0.0
 11
753.56408039588541
 21
251.57905253499959
 31
0.0
  0
TEXT
  8
SIZE
  6
CONTINUOUS
 62
    30
 10
728.56408039588541
 20
98.371428571428467
 30
0.0
 40
64.0
  1
55
 50
90.0
 41
0.9
 72
     1
 11
728.56408039588541
 21
144.99999999999989
 31
0.0
  0
LINE
  8
SIZE
  6
CONTINUOUS
 62
    30
 10
91.047364809997816
 20
318.61574358500002
 30
0.0
 11
773.56408039588541
 21
318.61574358499979
 31
0.0
  0
LINE
  8
SIZE
  6
CONTINUOUS
 62
    30
 10
200.1200797999422
 20
403.67244793499782
 30
0.0
 11
773.56408039588541
 21
403.67244793499759
 31
0.0
  0
LINE
  8
SIZE
  6
CONTINUOUS
 62
    30
 10
753.56408039588541
 20
330.61574358499979
 30
0.0
 11
753.56408039588541
 21
391.67244793499759
 31
0.0
  0
LINE
  8
SIZE
  6
CONTINUOUS
 62
    30
 10
753.56408039588541
 20
403.67244793499759
 30
0.0
 11
753.56408039588541
 21
558.92959079214108
 31
0.0
  0
CIRCLE
  8
SIZE
  6
CONTINUOUS
 62
    30
 10
753.56408039588541
 20
318.61574358499979
 30
0.0
 40
6.0
  0
LINE
  8
SIZE
  6
CONTINUOUS
 62
    30
 10
753.56408039588541
 20
318.61574358499979
 30
0.0
 11
753.56408039588541
 21
330.61574358499979
 31
0.0
  0
CIRCLE
  8
SIZE
  6
CONTINUOUS
 62
    30
 10
753.56408039588541
 20
403.67244793499759
 30
0.0
 40
6.0
  0
LINE
  8
SIZE
  6
CONTINUOUS
 62
    30
 10
753.56408039588541
 20
403.67244793499759
 30
0.0
 11
753.56408039588541
 21
391.67244793499759
 31
0.0
  0
TEXT
  8
SIZE
  6
CONTINUOUS
 62
    30
 10
728.56408039588541
 20
440.67244793499822
 30
0.0
 40
64.0
  1
85
 50
90.0
 41
0.9
 72
     1
 11
728.56408039588541
 21
487.30101936356959
 31
0.0
  0
LINE
  8
DETAIL
  6
CONTINUOUS
 62
     5
 10
103.69999999999889
 20
266.9813207090001
 30
0.0
 11
45.03001994999795
 21
266.9813207090001
 31
0.0
  0
LINE
  8
DETAIL
  6
CONTINUOUS
 62
     5
 10
103.69999999999889
 20
278.58905918500022
 30
0.0
 11
69.646430857999803
 21
278.58905918500022
 31
0.0
  0
LINE
  8
OUTLINE
  6
CONTINUOUS
 62
     3
 10
103.69999999999889
 20
266.9813207090001
 30
0.0
 11
45.03001994999795
 21
266.9813207090001
 31
0.0
  0
LINE
  8
OUTLINE
  6
CONTINUOUS
 62
     3
 10
103.69999999999889
 20
278.58905918500022
 30
0.0
 11
69.646430857999803
 21
278.58905918500022
 31
0.0
  0
LINE
  8
DETAIL
  6
CONTINUOUS
 62
     5
 10
108.69999999999889
 20
290.60346918299769
 30
0.0
 11
191.6999999999997
 21
290.60346918299769
 31
0.0
  0
LINE
  8
DETAIL
  6
CONTINUOUS
 62
     5
 10
196.6999999999997
 20
285.60346918299769
 30
0.0
 11
196.6999999999997
 21
263.57905253499968
 31
0.0
  0
LINE
  8
DETAIL
  6
CONTINUOUS
 62
     5
 10
103.69999999999889
 20
285.60346918299769
 30
0.0
 11
103.69999999999889
 21
263.57905253499968
 31
0.0
  0
ARC
  8
DETAIL
  6
CONTINUOUS
 62
     5
 10
191.6999999999997
 20
285.60346918299769
 30
0.0
 40
5.0
 50
0.0
 51
90.0
  0
ARC
  8
DETAIL
  6
CONTINUOUS
 62
     5
 10
108.69999999999889
 20
285.60346918299769
 30
0.0
 40
5.0
 50
90.0
 51
180.0
  0
LINE
  8
OUTLINE
  6
CONTINUOUS
 62
     3
 10
108.69999999999889
 20
290.60346918299769
 30
0.0
 11
191.6999999999997
 21
290.60346918299769
 31
0.0
  0
LINE
  8
OUTLINE
  6
CONTINUOUS
 62
     3
 10
196.6999999999997
 20
285.60346918299769
 30
0.0
 11
196.6999999999997
 21
263.57905253499968
 31
0.0
  0
LINE
  8
OUTLINE
  6
CONTINUOUS
 62
     3
 10
103.69999999999889
 20
285.60346918299769
 30
0.0
 11
103.69999999999889
 21
263.57905253499968
 31
0.0
  0
ARC
  8
OUTLINE
  6
CONTINUOUS
 62
     3
 10
191.6999999999997
 20
285.60346918299769
 30
0.0
 40
5.0
 50
0.0
 51
90.0
  0
ARC
  8
OUTLINE
  6
CONTINUOUS
 62
     3
 10
108.69999999999889
 20
285.60346918299769
 30
0.0
 40
5.0
 50
90.0
 51
180.0
  0
ARC
  8
DETAIL
  6
CONTINUOUS
 62
     5
 10
219.94663077799851
 20
279.38959287299991
 30
0.0
 40
0.8005336879997199
 50
180.0
 51
270.0
  0
ARC
  8
DETAIL
  6
CONTINUOUS
 62
     5
 10
220.54703104399599
 20
276.98799180900011
 30
0.0
 40
1.60106737599945
 50
0.0
 51
90.0
  0
ARC
  8
DETAIL
  6
CONTINUOUS
 62
     5
 10
230.15343529999521
 20
272.38492310299989
 30
0.0
 40
8.0053368800000104
 50
180.0
 51
222.4791039630926
  0
LINE
  8
DETAIL
  6
CONTINUOUS
 62
     5
 10
245.16344194999689
 20
263.57905253499968
 30
0.0
 11
245.16344194999689
 21
266.9813207090001
 31
0.0
  0
LINE
  8
DETAIL
  6
CONTINUOUS
 62
     5
 10
222.14809841999519
 20
272.38492310299989
 30
0.0
 11
222.14809841999519
 21
276.98799180900011
 31
0.0
  0
LINE
  8
DETAIL
  6
CONTINUOUS
 62
     5
 10
196.6999999999997
 20
278.58905918500022
 30
0.0
 11
220.5470310419951
 21
278.58905918500022
 31
0.0
  0
ARC
  8
OUTLINE
  6
CONTINUOUS
 62
     3
 10
219.94663077799851
 20
279.38959287299991
 30
0.0
 40
0.8005336879997199
 50
180.0
 51
270.0
  0
ARC
  8
OUTLINE
  6
CONTINUOUS
 62
     3
 10
220.54703104399599
 20
276.98799180900011
 30
0.0
 40
1.60106737599945
 50
0.0
 51
90.0
  0
ARC
  8
OUTLINE
  6
CONTINUOUS
 62
     3
 10
230.15343529999521
 20
272.38492310299989
 30
0.0
 40
8.0053368800000104
 50
180.0
 51
222.4791039630926
  0
LINE
  8
OUTLINE
  6
CONTINUOUS
 62
     3
 10
245.16344194999689
 20
263.57905253499968
 30
0.0
 11
245.16344194999689
 21
266.9813207090001
 31
0.0
  0
LINE
  8
OUTLINE
  6
CONTINUOUS
 62
     3
 10
222.14809841999519
 20
272.38492310299989
 30
0.0
 11
222.14809841999519
 21
276.98799180900011
 31
0.0
  0
LINE
  8
OUTLINE
  6
CONTINUOUS
 62
     3
 10
196.6999999999997
 20
278.58905918500022
 30
0.0
 11
220.5470310419951
 21
278.58905918500022
 31
0.0
  0
LINE
  8
SIZE
  6
CONTINUOUS
 62
    30
 10
240.5470310419951
 20
278.58905918500022
 30
0.0
 11
673.52494457386092
 21
278.589059185
 31
0.0
  0
LINE
  8
SIZE
  6
CONTINUOUS
 62
    30
 10
653.52494457386092
 20
266.589059185
 30
0.0
 11
653.52494457386092
 21
254.58905918500011
 31
0.0
  0
LINE
  8
SIZE
  6
CONTINUOUS
 62
    30
 10
653.52494457386092
 20
330.6157435849999
 30
0.0
 11
653.52494457386092
 21
537.24436315132516
 31
0.0
  0
LINE
  8
SIZE
  6
CONTINUOUS
 62
    30
 10
653.52494457386092
 20
278.589059185
 30
0.0
 11
653.52494457386092
 21
318.6157435849999
 31
0.0
  0
CIRCLE
  8
SIZE
  6
CONTINUOUS
 62
    30
 10
653.52494457386092
 20
278.589059185
 30
0.0
 40
6.0
  0
LINE
  8
SIZE
  6
CONTINUOUS
 62
    30
 10
653.52494457386092
 20
278.589059185
 30
0.0
 11
653.52494457386092
 21
266.589059185
 31
0.0
  0
CIRCLE
  8
SIZE
  6
CONTINUOUS
 62
    30
 10
653.52494457386092
 20
318.6157435849999
 30
0.0
 40
6.0
  0
LINE
  8
SIZE
  6
CONTINUOUS
 62
    30
 10
653.52494457386092
 20
318.6157435849999
 30
0.0
 11
653.52494457386092
 21
330.6157435849999
 31
0.0
  0
TEXT
  8
SIZE
  6
CONTINUOUS
 62
    30
 10
628.52494457386092
 20
418.98722029418241
 30
0.0
 40
64.0
  1
40
 50
90.0
 41
0.9
 72
     1
 11
628.52494457386092
 21
465.61579172275378
 31
0.0
  0
LINE
  8
DETAIL
  6
CONTINUOUS
 62
     5
 10
196.6999999999997
 20
266.9813207090001
 30
0.0
 11
245.16344194999689
 21
266.9813207090001
 31
0.0
  0
LINE
  8
OUTLINE
  6
CONTINUOUS
 62
     3
 10
196.6999999999997
 20
266.9813207090001
 30
0.0
 11
245.16344194999689
 21
266.9813207090001
 31
0.0
  0
ENDSEC
  0
EOF
