  0
SECTION
  2
HEADER
  9
$ACADVER
  1
AC1009
  9
$DWGCODEPAGE
  3
dos932
  9
$INSBASE
 10
0.0
 20
0.0
 30
0.0
  9
$EXTMIN
 10
-342.15543965361582
 20
-858.12376807225337
 30
-0.0015258207003583
  9
$EXTMAX
 10
1477.839672737568
 20
690.21607259080702
 30
0.0000000349246037
  9
$LIMMIN
 10
-2970.0
 20
-2100.0
  9
$LIMMAX
 10
2970.0
 20
2100.0
  9
$ORTHOMODE
 70
     1
  9
$REGENMODE
 70
     1
  9
$FILLMODE
 70
     1
  9
$QTEXTMODE
 70
     0
  9
$MIRRTEXT
 70
     0
  9
$LTSCALE
 40
20.0
  9
$ATTMODE
 70
     1
  9
$TEXTSIZE
 40
64.0
  9
$TRACEWID
 40
0.05
  9
$TEXTSTYLE
  7
STANDARD
  9
$CLAYER
  8
SIZE
  9
$CELTYPE
  6
CONTINUOUS
  9
$CECOLOR
 62
     7
  9
$DIMSCALE
 40
1.0
  9
$DIMASZ
 40
12.0
  9
$DIMEXO
 40
20.0
  9
$DIMDLI
 40
200.0
  9
$DIMRND
 40
0.0
  9
$DIMDLE
 40
0.0
  9
$DIMEXE
 40
20.0
  9
$DIMTP
 40
0.0
  9
$DIMTM
 40
0.0
  9
$DIMTXT
 40
64.0
  9
$DIMCEN
 40
0.09
  9
$DIMTSZ
 40
0.0
  9
$DIMTOL
 70
     0
  9
$DIMLIM
 70
     0
  9
$DIMTIH
 70
     0
  9
$DIMTOH
 70
     0
  9
$DIMSE1
 70
     0
  9
$DIMSE2
 70
     0
  9
$DIMTAD
 70
     1
  9
$DIMZIN
 70
     8
  9
$DIMBLK
  1

  9
$DIMASO
 70
     1
  9
$DIMSHO
 70
     0
  9
$DIMPOST
  1

  9
$DIMAPOST
  1

  9
$DIMALT
 70
     0
  9
$DIMALTD
 70
     2
  9
$DIMALTF
 40
25.399999999999999
  9
$DIMLFAC
 40
1.0
  9
$DIMTOFL
 70
     1
  9
$DIMTVP
 40
0.0
  9
$DIMTIX
 70
     1
  9
$DIMSOXD
 70
     0
  9
$DIMSAH
 70
     0
  9
$DIMBLK1
  1

  9
$DIMBLK2
  1

  9
$DIMSTYLE
  2
STANDARD
  9
$DIMCLRD
 70
     7
  9
$DIMCLRE
 70
     7
  9
$DIMCLRT
 70
     7
  9
$DIMTFAC
 40
1.0
  9
$DIMGAP
 40
25.0
  9
$LUNITS
 70
     2
  9
$LUPREC
 70
     4
  9
$SKETCHINC
 40
0.1
  9
$FILLETRAD
 40
3.0
  9
$AUNITS
 70
     1
  9
$AUPREC
 70
     3
  9
$MENU
  1
ACAD
  9
$ELEVATION
 40
0.0
  9
$PELEVATION
 40
0.0
  9
$THICKNESS
 40
0.0
  9
$LIMCHECK
 70
     0
  9
$CHAMFERA
 40
0.0
  9
$CHAMFERB
 40
0.0
  9
$SKPOLY
 70
     0
  9
$TDCREATE
 40
2453019.62301037
  9
$TDUPDATE
 40
2459025.478508646
  9
$TDINDWG
 40
1.7129210764
  9
$TDUSRTIMER
 40
1.7129210764
  9
$USRTIMER
 70
     1
  9
$ANGBASE
 50
0.0
  9
$ANGDIR
 70
     0
  9
$PDMODE
 70
     3
  9
$PDSIZE
 40
-2.0
  9
$PLINEWID
 40
0.0
  9
$SPLFRAME
 70
     0
  9
$SPLINETYPE
 70
     6
  9
$SPLINESEGS
 70
     8
  9
$SURFTAB1
 70
     6
  9
$SURFTAB2
 70
     6
  9
$SURFTYPE
 70
     6
  9
$SURFU
 70
     6
  9
$SURFV
 70
     6
  9
$UCSNAME
  2

  9
$UCSORG
 10
0.0
 20
0.0
 30
0.0
  9
$UCSXDIR
 10
1.0
 20
0.0
 30
0.0
  9
$UCSYDIR
 10
0.0
 20
1.0
 30
0.0
  9
$PUCSNAME
  2

  9
$PUCSORG
 10
0.0
 20
0.0
 30
0.0
  9
$PUCSXDIR
 10
1.0
 20
0.0
 30
0.0
  9
$PUCSYDIR
 10
0.0
 20
1.0
 30
0.0
  9
$USERI1
 70
     0
  9
$USERI2
 70
     0
  9
$USERI3
 70
     0
  9
$USERI4
 70
     0
  9
$USERI5
 70
     0
  9
$USERR1
 40
20.0
  9
$USERR2
 40
0.0
  9
$USERR3
 40
0.0
  9
$USERR4
 40
0.0
  9
$USERR5
 40
0.0
  9
$WORLDVIEW
 70
     1
  9
$SHADEDGE
 70
     3
  9
$SHADEDIF
 70
    70
  9
$TILEMODE
 70
     1
  9
$MAXACTVP
 70
    48
  9
$PINSBASE
 10
0.0
 20
0.0
 30
0.0
  9
$PLIMCHECK
 70
     0
  9
$PEXTMIN
 10
-100000000000000000000.0
 20
-100000000000000000000.0
 30
-100000000000000000000.0
  9
$PEXTMAX
 10
100000000000000000000.0
 20
100000000000000000000.0
 30
100000000000000000000.0
  9
$PLIMMIN
 10
0.0
 20
0.0
  9
$PLIMMAX
 10
12.0
 20
9.0
  9
$UNITMODE
 70
     0
  9
$VISRETAIN
 70
     0
  9
$PLINEGEN
 70
     0
  9
$PSLTSCALE
 70
     0
  9
$TREEDEPTH
 70
  3020
  9
$ATTDIA
 70
     0
  9
$ATTREQ
 70
     1
  9
$BLIPMODE
 70
     1
  9
$COORDS
 70
     1
  9
$DRAGMODE
 70
     2
  9
$OSMODE
 70
     0
  9
$HANDLING
 70
     0
  9
$HANDSEED
  5
EE0C
  0
ENDSEC
  0
SECTION
  2
TABLES
  0
TABLE
  2
LTYPE
 70
     3
  0
LTYPE
  2
CONTINUOUS
 70
     0
  3
実線
 72
    65
 73
     0
 40
0.0
  0
LTYPE
  2
DASHDOT
 70
     0
  3
____ _ ____ _ ____ _ ____ _ ____ _ ____ _ ____
 72
    65
 73
     4
 40
5.5
 49
4.0
 49
-0.6
 49
0.3
 49
-0.6
  0
LTYPE
  2
CENTER
 70
     0
  3
Center ____ _ ____ _ ____ _ ____ _ ____ _ ____
 72
    65
 73
     4
 40
1.0
 49
0.5
 49
-0.25
 49
0.0
 49
-0.25
  0
ENDTAB
  0
TABLE
  2
LAYER
 70
    12
  0
LAYER
  2
0
 70
     0
 62
     7
  6
CONTINUOUS
  0
LAYER
  2
BASIS
 70
     0
 62
     6
  6
DASHDOT
  0
LAYER
  2
OUTLINE
 70
     0
 62
     3
  6
CONTINUOUS
  0
LAYER
  2
DETAIL
 70
     0
 62
     5
  6
CONTINUOUS
  0
LAYER
  2
SIZE
 70
     0
 62
    30
  6
CONTINUOUS
  0
LAYER
  2
ARRANGE
 70
     0
 62
     1
  6
CONTINUOUS
  0
LAYER
  2
DEFPOINTS
 70
     0
 62
     7
  6
CONTINUOUS
  0
LAYER
  2
ETC
 70
     0
 62
    61
  6
CONTINUOUS
  0
LAYER
  2
FIX
 70
     0
 62
    11
  6
CONTINUOUS
  0
LAYER
  2
NOTE
 70
     0
 62
     4
  6
CONTINUOUS
  0
LAYER
  2
SERVICESPACE
 70
    64
 62
     2
  6
DASHDOT
  0
LAYER
  2
SYMBOLLINE
 70
    64
 62
    15
  6
CONTINUOUS
  0
ENDTAB
  0
TABLE
  2
STYLE
 70
     1
  0
STYLE
  2
STANDARD
 70
     0
 40
64.0
 41
0.9
 50
0.0
 71
     0
 42
64.0
  3
SIMPLEX.shx
  4
BIGFONT.shx
  0
ENDTAB
  0
TABLE
  2
APPID
 70
    19
  0
APPID
  2
ACAD
 70
     0
  0
APPID
  2
AUTOCAD_POSTSCRIPT_FIGURE
 70
     0
  0
APPID
  2
ACAD_EXEMPT_FROM_CAD_STANDARDS
 70
     0
  0
APPID
  2
ACAD_PSEXT
 70
     0
  0
APPID
  2
ACAUTHENVIRON
 70
     0
  0
APPID
  2
GENIUS_GENOENT_13
 70
     0
  0
APPID
  2
GENIUS_GENCFG_13
 70
     0
  0
APPID
  2
GENIUS_GENCFG0_13
 70
     0
  0
APPID
  2
GENIUS_GENCFG1_13
 70
     0
  0
APPID
  2
GENIUS_GENCFG2_13
 70
     0
  0
APPID
  2
GENIUS_GENCFG3_13
 70
     0
  0
APPID
  2
GENIUS_GENCFG4_13
 70
     0
  0
APPID
  2
GENIUS_GEVCFG0_13
 70
     0
  0
APPID
  2
CONTENTBLOCKICON
 70
     0
  0
APPID
  2
CONTENTBLOCKDESCRIPTION
 70
     0
  0
APPID
  2
ACAD_NAV_VCDISPLAY
 70
     0
  0
APPID
  2
ACAD_MLEADERVER
 70
     0
  0
APPID
  2
ACDBDYNAMICBLOCKTRUENAME
 70
     0
  0
APPID
  2
ACDBDYNAMICBLOCKGUID
 70
     0
  0
ENDTAB
  0
TABLE
  2
DIMSTYLE
 70
     1
  0
DIMSTYLE
  2
STANDARD
 70
     0
  3

  4

  5
_ORIGIN
  6

  7

 40
1.0
 41
12.0
 42
20.0
 43
200.0
 44
20.0
 45
0.0
 46
0.0
 47
0.0
 48
0.0
140
64.0
141
0.09
142
0.0
143
25.399999999999999
144
1.0
145
0.0
146
1.0
147
25.0
 71
     0
 72
     0
 73
     0
 74
     0
 75
     0
 76
     0
 77
     1
 78
     8
170
     0
171
     2
172
     1
173
     0
174
     1
175
     0
176
     7
177
     7
178
     7
  0
ENDTAB
  0
TABLE
  2
VIEW
 70
     1
  0
VIEW
  2
ALL
 70
     0
 40
4282.6198079999986
 10
0.0
 20
41.309904000000003
 41
5940.0
 11
0.0
 21
0.0
 31
1.0
 12
0.0
 22
0.0
 32
0.0
 42
50.0
 43
0.0
 44
0.0
 50
0.0
 71
     0
  0
ENDTAB
  0
TABLE
  2
UCS
 70
     0
  0
ENDTAB
  0
TABLE
  2
VPORT
 70
     1
  0
VPORT
  2
*ACTIVE
 70
     0
 10
0.0
 20
0.0
 11
1.0
 21
1.0
 12
567.84211654197588
 22
-83.953847740723177
 13
0.0
 23
0.0
 14
1.0
 24
1.0
 15
0.0
 25
0.0
 16
0.0
 26
0.0
 36
1.0
 17
0.0
 27
0.0
 37
0.0
 40
1558.6050771757441
 41
1.747787610619469
 42
50.0
 43
0.0
 44
0.0
 50
0.0
 51
0.0
 71
     0
 72
  1000
 73
     1
 74
     3
 75
     0
 76
     0
 77
     0
 78
     0
  0
ENDTAB
  0
ENDSEC
  0
SECTION
  2
BLOCKS
  0
BLOCK
  8
0
  2
_ORIGIN
 70
     0
 10
0.0
 20
0.0
 30
0.0
  3
_ORIGIN
  1
_ORIGIN
  0
CIRCLE
  8
0
  6
CONTINUOUS
 62
     7
 10
0.0
 20
0.0
 30
0.0
 40
0.5
  0
LINE
  8
0
  6
CONTINUOUS
 62
     7
 10
0.0
 20
0.0
 30
0.0
 11
-1.0
 21
0.0
 31
0.0
  0
ENDBLK
  8
0
  0
ENDSEC
  0
SECTION
  2
ENTITIES
  0
TEXT
  8
ETC
  6
CONTINUOUS
 62
    61
 10
893.46144511949342
 20
626.1201180033554
 30
0.0
 40
64.0
  1
VD-07ZC13_1
 41
0.9
  0
TEXT
  8
ETC
  6
CONTINUOUS
 62
    61
 10
889.27545111949303
 20
508.16480798852422
 30
0.0
 40
64.0
  1
換気扇
 41
0.9
  0
TEXT
  8
ETC
  6
CONTINUOUS
 62
    61
 10
939.97684936804899
 20
400.01603510229887
 30
0.0
 40
40.0
  1
VD-07ZC13
 41
0.9
  0
TEXT
  8
NOTE
  6
CONTINUOUS
 62
     4
 10
-44.726985934042197
 20
-287.11926013663259
 30
0.0
 40
64.0
  1
EA
 41
0.9
  0
TEXT
  8
NOTE
  6
CONTINUOUS
 62
     4
 10
326.59223730099438
 20
554.0097081014153
 30
0.0
 40
64.0
  1
EL
 41
0.9
  0
LINE
  8
NOTE
  6
CONTINUOUS
 62
     4
 10
457.11739665482168
 20
538.80990760288819
 30
0.0
 11
316.5433901357037
 21
538.80990760285295
 31
0.0
  0
LINE
  8
NOTE
  6
CONTINUOUS
 62
     4
 10
54.0
 20
54.0
 30
0.0
 11
316.5433901357037
 21
538.80990760285295
 31
0.0
  0
LINE
  8
NOTE
  6
CONTINUOUS
 62
     4
 10
54.0
 20
54.0
 30
0.0
 11
82.073374044112825
 21
80.643949187450062
 31
0.0
  0
LINE
  8
NOTE
  6
CONTINUOUS
 62
     4
 10
61.302562394578672
 20
93.258049703845472
 30
0.0
 11
54.0
 21
54.0
 31
0.0
  0
CIRCLE
  8
ARRANGE
  6
CONTINUOUS
 62
     1
 10
0.0
 20
0.0
 30
0.0
 40
40.0
  0
POINT
  8
ARRANGE
  6
CONTINUOUS
 62
     1
 10
0.0
 20
0.0
 30
0.0
 50
90.0
  0
LINE
  8
BASIS
  6
DASHDOT
 62
     6
 10
-140.68038700000031
 20
0.0
 30
0.0
 11
131.94946399999981
 21
0.0
 31
0.0
  0
LINE
  8
BASIS
  6
DASHDOT
 62
     6
 10
0.0
 20
-208.1727470000001
 30
0.0
 11
0.0
 21
136.680791
 31
0.0
  0
CIRCLE
  8
FIX
  6
CONTINUOUS
 62
    11
 10
-50.0
 20
81.0
 30
0.0
 40
10.0
  0
CIRCLE
  8
FIX
  6
CONTINUOUS
 62
    11
 10
-50.0
 20
-81.0
 30
0.0
 40
10.0
  0
CIRCLE
  8
FIX
  6
CONTINUOUS
 62
    11
 10
-81.0
 20
-50.0
 30
0.0
 40
10.0
  0
CIRCLE
  8
FIX
  6
CONTINUOUS
 62
    11
 10
-81.0
 20
50.0
 30
0.0
 40
10.0
  0
TEXT
  8
NOTE
  6
CONTINUOUS
 62
     4
 10
404.41387842925178
 20
427.66182814357398
 30
0.0
 40
63.999999999999993
  1
8-φ5
 41
0.9
  0
LINE
  8
NOTE
  6
CONTINUOUS
 62
     4
 10
662.02976971188946
 20
394.83339999999998
 30
0.0
 11
387.38239036227702
 21
394.83335523665158
 31
0.0
  0
LINE
  8
NOTE
  6
CONTINUOUS
 62
     4
 10
81.0
 20
50.0
 30
0.0
 11
387.38239036227702
 21
394.83335523665158
 31
0.0
  0
LINE
  8
NOTE
  6
CONTINUOUS
 62
     4
 10
81.0
 20
50.0
 30
0.0
 11
112.312745347579
 21
72.683422418883424
 31
0.0
  0
LINE
  8
NOTE
  6
CONTINUOUS
 62
     4
 10
99.995274694023465
 20
85.19929633376114
 30
0.0
 11
81.0
 21
50.0
 31
0.0
  0
ARC
  8
DETAIL
  6
CONTINUOUS
 62
     5
 10
-70.000305000000026
 20
-70.0
 30
0.0
 40
2.0
 50
180.0
 51
270.0
  0
LINE
  8
DETAIL
  6
CONTINUOUS
 62
     5
 10
-47.412565000000093
 20
-72.0
 30
0.0
 11
-70.000305000000026
 21
-72.0
 31
0.0
  0
ARC
  8
DETAIL
  6
CONTINUOUS
 62
     5
 10
70.000304000000142
 20
-70.0
 30
0.0
 40
2.0
 50
270.0
 51
0.0
  0
LINE
  8
DETAIL
  6
CONTINUOUS
 62
     5
 10
70.000304000000142
 20
-72.0
 30
0.0
 11
47.412564999999631
 21
-72.0
 31
0.0
  0
LINE
  8
NOTE
  6
CENTER
 62
     4
 10
71.999998999999661
 20
54.0
 30
0.0
 11
36.0
 21
54.0
 31
0.0
  0
LINE
  8
NOTE
  6
CENTER
 62
     4
 10
54.0
 20
72.0
 30
0.0
 11
54.0
 21
36.000000999999877
 31
0.0
  0
LINE
  8
NOTE
  6
CENTER
 62
     4
 10
57.5
 20
81.0
 30
0.0
 11
42.5
 21
81.0
 31
0.0
  0
LINE
  8
NOTE
  6
CENTER
 62
     4
 10
50.0
 20
88.5
 30
0.0
 11
50.0
 21
73.5
 31
0.0
  0
LINE
  8
NOTE
  6
CENTER
 62
     4
 10
-42.5
 20
81.0
 30
0.0
 11
-57.5
 21
81.0
 31
0.0
  0
LINE
  8
NOTE
  6
CENTER
 62
     4
 10
-50.0
 20
88.5
 30
0.0
 11
-50.0
 21
73.5
 31
0.0
  0
LINE
  8
NOTE
  6
CENTER
 62
     4
 10
-73.5
 20
50.0
 30
0.0
 11
-88.5
 21
50.0
 31
0.0
  0
LINE
  8
NOTE
  6
CENTER
 62
     4
 10
-81.0
 20
57.5
 30
0.0
 11
-81.0
 21
42.5
 31
0.0
  0
LINE
  8
NOTE
  6
CENTER
 62
     4
 10
-73.5
 20
-50.0
 30
0.0
 11
-88.5
 21
-50.0
 31
0.0
  0
LINE
  8
NOTE
  6
CENTER
 62
     4
 10
-81.0
 20
-42.5
 30
0.0
 11
-81.0
 21
-57.5
 31
0.0
  0
LINE
  8
NOTE
  6
CENTER
 62
     4
 10
-42.5
 20
-81.0
 30
0.0
 11
-57.5
 21
-81.0
 31
0.0
  0
LINE
  8
NOTE
  6
CENTER
 62
     4
 10
-50.0
 20
-73.5
 30
0.0
 11
-50.0
 21
-88.5
 31
0.0
  0
LINE
  8
NOTE
  6
CENTER
 62
     4
 10
57.5
 20
-81.0
 30
0.0
 11
42.5
 21
-81.0
 31
0.0
  0
LINE
  8
NOTE
  6
CENTER
 62
     4
 10
50.0
 20
-73.5
 30
0.0
 11
50.0
 21
-88.5
 31
0.0
  0
LINE
  8
NOTE
  6
CENTER
 62
     4
 10
88.5
 20
-50.0
 30
0.0
 11
73.5
 21
-50.0
 31
0.0
  0
LINE
  8
NOTE
  6
CENTER
 62
     4
 10
81.0
 20
-42.5
 30
0.0
 11
81.0
 21
-57.5
 31
0.0
  0
LINE
  8
NOTE
  6
CENTER
 62
     4
 10
88.5
 20
50.0
 30
0.0
 11
73.5
 21
50.0
 31
0.0
  0
LINE
  8
NOTE
  6
CENTER
 62
     4
 10
81.0
 20
57.5
 30
0.0
 11
81.0
 21
42.5
 31
0.0
  0
ARC
  8
DETAIL
  6
CONTINUOUS
 62
     5
 10
54.0
 20
54.0
 30
0.0
 40
13.0
 50
270.0
 51
90.0
  0
ARC
  8
DETAIL
  6
CONTINUOUS
 62
     5
 10
54.0
 20
54.0
 30
0.0
 40
13.0
 50
90.0
 51
270.0
  0
LINE
  8
DETAIL
  6
CONTINUOUS
 62
     5
 10
-105.0
 20
104.0
 30
0.0
 11
-105.0
 21
0.0
 31
0.0
  0
LINE
  8
OUTLINE
  6
CONTINUOUS
 62
     3
 10
-105.0
 20
104.0
 30
0.0
 11
-105.0
 21
0.0
 31
0.0
  0
LINE
  8
DETAIL
  6
CONTINUOUS
 62
     5
 10
105.0
 20
104.0
 30
0.0
 11
105.0
 21
0.0
 31
0.0
  0
LINE
  8
OUTLINE
  6
CONTINUOUS
 62
     3
 10
105.0
 20
104.0
 30
0.0
 11
105.0
 21
0.0
 31
0.0
  0
LINE
  8
DETAIL
  6
CONTINUOUS
 62
     5
 10
105.0
 20
-104.0
 30
0.0
 11
105.0
 21
0.0
 31
0.0
  0
LINE
  8
OUTLINE
  6
CONTINUOUS
 62
     3
 10
105.0
 20
-104.0
 30
0.0
 11
105.0
 21
0.0
 31
0.0
  0
LINE
  8
DETAIL
  6
CONTINUOUS
 62
     5
 10
-105.0
 20
-104.0
 30
0.0
 11
-105.0
 21
0.0
 31
0.0
  0
LINE
  8
OUTLINE
  6
CONTINUOUS
 62
     3
 10
-105.0
 20
-104.0
 30
0.0
 11
-105.0
 21
0.0
 31
0.0
  0
ARC
  8
DETAIL
  6
CONTINUOUS
 62
     5
 10
-104.0
 20
104.0
 30
0.0
 40
1.0
 50
90.0
 51
180.0
  0
ARC
  8
OUTLINE
  6
CONTINUOUS
 62
     3
 10
-104.0
 20
104.0
 30
0.0
 40
1.0
 50
90.0
 51
180.0
  0
ARC
  8
DETAIL
  6
CONTINUOUS
 62
     5
 10
104.0
 20
104.0
 30
0.0
 40
1.0
 50
0.0
 51
90.0
  0
ARC
  8
OUTLINE
  6
CONTINUOUS
 62
     3
 10
104.0
 20
104.0
 30
0.0
 40
1.0
 50
0.0
 51
90.0
  0
ARC
  8
DETAIL
  6
CONTINUOUS
 62
     5
 10
104.0
 20
-104.0
 30
0.0
 40
1.0
 50
270.0
 51
0.0
  0
ARC
  8
OUTLINE
  6
CONTINUOUS
 62
     3
 10
104.0
 20
-104.0
 30
0.0
 40
1.0
 50
270.0
 51
0.0
  0
ARC
  8
DETAIL
  6
CONTINUOUS
 62
     5
 10
-104.0
 20
-104.0
 30
0.0
 40
1.0
 50
180.0
 51
270.0
  0
ARC
  8
OUTLINE
  6
CONTINUOUS
 62
     3
 10
-104.0
 20
-104.0
 30
0.0
 40
1.0
 50
180.0
 51
270.0
  0
LINE
  8
DETAIL
  6
CONTINUOUS
 62
     5
 10
-104.0
 20
105.0
 30
0.0
 11
0.0
 21
105.0
 31
0.0
  0
LINE
  8
OUTLINE
  6
CONTINUOUS
 62
     3
 10
-104.0
 20
105.0
 30
0.0
 11
0.0
 21
105.0
 31
0.0
  0
LINE
  8
DETAIL
  6
CONTINUOUS
 62
     5
 10
104.0
 20
105.0
 30
0.0
 11
0.0
 21
105.0
 31
0.0
  0
LINE
  8
OUTLINE
  6
CONTINUOUS
 62
     3
 10
104.0
 20
105.0
 30
0.0
 11
0.0
 21
105.0
 31
0.0
  0
LINE
  8
DETAIL
  6
CONTINUOUS
 62
     5
 10
104.0
 20
-105.0
 30
0.0
 11
41.310526999999638
 21
-105.0
 31
0.0
  0
LINE
  8
OUTLINE
  6
CONTINUOUS
 62
     3
 10
104.0
 20
-105.0
 30
0.0
 11
41.310526999999638
 21
-105.0
 31
0.0
  0
LINE
  8
DETAIL
  6
CONTINUOUS
 62
     5
 10
-104.0
 20
-105.0
 30
0.0
 11
-41.310527999999977
 21
-105.0
 31
0.0
  0
LINE
  8
OUTLINE
  6
CONTINUOUS
 62
     3
 10
-104.0
 20
-105.0
 30
0.0
 11
-41.310527999999977
 21
-105.0
 31
0.0
  0
ARC
  8
DETAIL
  6
CONTINUOUS
 62
     5
 10
-67.741637999999966
 20
-51.270158000000038
 30
0.0
 40
1.6666669999999999
 50
90.0
 51
180.0
  0
ARC
  8
DETAIL
  6
CONTINUOUS
 62
     5
 10
67.741637999999966
 20
-51.270158000000038
 30
0.0
 40
1.6666669999999999
 50
0.0
 51
90.0
  0
ARC
  8
DETAIL
  6
CONTINUOUS
 62
     5
 10
-17.5
 20
-124.2
 30
0.0
 40
2.0
 50
180.0
 51
270.0
  0
LINE
  8
DETAIL
  6
CONTINUOUS
 62
     5
 10
0.0
 20
-126.2
 30
0.0
 11
-17.5
 21
-126.2
 31
0.0
  0
LINE
  8
DETAIL
  6
CONTINUOUS
 62
     5
 10
-40.49743000000035
 20
-109.3972550000001
 30
0.0
 11
-19.5
 21
-109.3972550000001
 31
0.0
  0
LINE
  8
DETAIL
  6
CONTINUOUS
 62
     5
 10
-19.5
 20
-124.2
 30
0.0
 11
-19.5
 21
-85.996657000000027
 31
0.0
  0
ARC
  8
DETAIL
  6
CONTINUOUS
 62
     5
 10
-25.7895980000003
 20
-65.440790000000106
 30
0.0
 40
21.496575
 50
287.01284300001498
 51
335.4621379999964
  0
ARC
  8
DETAIL
  6
CONTINUOUS
 62
     5
 10
0.1333669999999074
 20
-77.275259000000005
 30
0.0
 40
7.0
 50
90.0
 51
155.46213799999649
  0
ARC
  8
DETAIL
  6
CONTINUOUS
 62
     5
 10
-0.1333669999999074
 20
-77.275259000000005
 30
0.0
 40
7.0
 50
24.53786200000355
 51
90.0
  0
LINE
  8
DETAIL
  6
CONTINUOUS
 62
     5
 10
0.0
 20
-126.2
 30
0.0
 11
17.5
 21
-126.2
 31
0.0
  0
ARC
  8
DETAIL
  6
CONTINUOUS
 62
     5
 10
25.789597999999842
 20
-65.440790000000106
 30
0.0
 40
21.496575
 50
204.53786199999459
 51
252.98715699998499
  0
LINE
  8
DETAIL
  6
CONTINUOUS
 62
     5
 10
-66.364550000000236
 20
-87.19969500000002
 30
0.0
 11
-44.601986000000117
 21
-87.19969500000002
 31
0.0
  0
LINE
  8
DETAIL
  6
CONTINUOUS
 62
     5
 10
-40.49743000000035
 20
-109.3972550000001
 30
0.0
 11
-47.85327099999995
 21
-69.61665000000005
 31
0.0
  0
LINE
  8
OUTLINE
  6
CONTINUOUS
 62
     3
 10
-40.49743000000035
 20
-109.3972550000001
 30
0.0
 11
-41.310527999999977
 21
-105.0
 31
0.0
  0
LINE
  8
DETAIL
  6
CONTINUOUS
 62
     5
 10
-67.408304999999928
 20
-69.61665000000005
 30
0.0
 11
0.0
 21
-69.61665000000005
 31
0.0
  0
LINE
  8
DETAIL
  6
CONTINUOUS
 62
     5
 10
-69.408304999999928
 20
-59.11665000000005
 30
0.0
 11
-72.000305000000026
 21
-61.708650000000027
 31
0.0
  0
LINE
  8
DETAIL
  6
CONTINUOUS
 62
     5
 10
-72.000305000000026
 20
-70.19969500000002
 30
0.0
 11
-71.357698000000255
 21
-82.461375000000089
 31
0.0
  0
ARC
  8
DETAIL
  6
CONTINUOUS
 62
     5
 10
-67.408304999999928
 20
-67.61665000000005
 30
0.0
 40
2.0
 50
180.0
 51
270.0
  0
ARC
  8
DETAIL
  6
CONTINUOUS
 62
     5
 10
-66.364550000000236
 20
-82.19969500000002
 30
0.0
 40
5.0
 50
182.99999999999309
 51
270.0
  0
LINE
  8
DETAIL
  6
CONTINUOUS
 62
     5
 10
-69.408304999999928
 20
-51.270158000000038
 30
0.0
 11
-69.408304999999928
 21
-67.61665000000005
 31
0.0
  0
LINE
  8
DETAIL
  6
CONTINUOUS
 62
     5
 10
-44.0
 20
-49.603491000000083
 30
0.0
 11
-67.741637999999966
 21
-49.603491000000083
 31
0.0
  0
ARC
  8
DETAIL
  6
CONTINUOUS
 62
     5
 10
-41.0
 20
-55.400491000000102
 30
0.0
 40
1.0
 50
180.0
 51
270.0
  0
ARC
  8
DETAIL
  6
CONTINUOUS
 62
     5
 10
-44.0
 20
-51.603491000000083
 30
0.0
 40
2.0
 50
0.0
 51
90.0
  0
LINE
  8
DETAIL
  6
CONTINUOUS
 62
     5
 10
-42.0
 20
-51.603491000000083
 30
0.0
 11
-42.0
 21
-55.400491000000102
 31
0.0
  0
LINE
  8
DETAIL
  6
CONTINUOUS
 62
     5
 10
41.0
 20
-56.400491000000102
 30
0.0
 11
-41.0
 21
-56.400491000000102
 31
0.0
  0
ARC
  8
DETAIL
  6
CONTINUOUS
 62
     5
 10
41.0
 20
-55.400491000000102
 30
0.0
 40
1.0
 50
270.0
 51
0.0
  0
ARC
  8
DETAIL
  6
CONTINUOUS
 62
     5
 10
44.0
 20
-51.603491000000083
 30
0.0
 40
2.0
 50
90.0
 51
180.0
  0
LINE
  8
DETAIL
  6
CONTINUOUS
 62
     5
 10
42.0
 20
-51.603491000000083
 30
0.0
 11
42.0
 21
-55.400491000000102
 31
0.0
  0
LINE
  8
DETAIL
  6
CONTINUOUS
 62
     5
 10
44.0
 20
-49.603491000000083
 30
0.0
 11
67.741637999999966
 21
-49.603491000000083
 31
0.0
  0
LINE
  8
DETAIL
  6
CONTINUOUS
 62
     5
 10
40.497429000000011
 20
-109.3972550000001
 30
0.0
 11
47.853269999999611
 21
-69.61665000000005
 31
0.0
  0
LINE
  8
OUTLINE
  6
CONTINUOUS
 62
     3
 10
40.497429000000011
 20
-109.3972550000001
 30
0.0
 11
41.310526999999638
 21
-105.0
 31
0.0
  0
LINE
  8
DETAIL
  6
CONTINUOUS
 62
     5
 10
67.408303999999589
 20
-69.61665000000005
 30
0.0
 11
0.0
 21
-69.61665000000005
 31
0.0
  0
LINE
  8
DETAIL
  6
CONTINUOUS
 62
     5
 10
69.408303999999589
 20
-59.11665000000005
 30
0.0
 11
72.000304000000142
 21
-61.708650000000027
 31
0.0
  0
ARC
  8
DETAIL
  6
CONTINUOUS
 62
     5
 10
67.408303999999589
 20
-67.61665000000005
 30
0.0
 40
2.0
 50
270.0
 51
0.0
  0
LINE
  8
DETAIL
  6
CONTINUOUS
 62
     5
 10
69.408303999999589
 20
-51.270158000000038
 30
0.0
 11
69.408303999999589
 21
-67.61665000000005
 31
0.0
  0
LINE
  8
DETAIL
  6
CONTINUOUS
 62
     5
 10
72.000304000000142
 20
-70.19969500000002
 30
0.0
 11
71.357696999999916
 21
-82.461375000000089
 31
0.0
  0
ARC
  8
DETAIL
  6
CONTINUOUS
 62
     5
 10
66.364548999999897
 20
-82.19969500000002
 30
0.0
 40
5.0
 50
270.0
 51
356.99999999999392
  0
LINE
  8
DETAIL
  6
CONTINUOUS
 62
     5
 10
66.364548999999897
 20
-87.19969500000002
 30
0.0
 11
44.601984999999793
 21
-87.19969500000002
 31
0.0
  0
LINE
  8
DETAIL
  6
CONTINUOUS
 62
     5
 10
19.5
 20
-124.2
 30
0.0
 11
19.5
 21
-85.996657000000027
 31
0.0
  0
ARC
  8
DETAIL
  6
CONTINUOUS
 62
     5
 10
17.5
 20
-124.2
 30
0.0
 40
2.0
 50
270.0
 51
0.0
  0
LINE
  8
DETAIL
  6
CONTINUOUS
 62
     5
 10
40.497429000000011
 20
-109.3972550000001
 30
0.0
 11
19.5
 21
-109.3972550000001
 31
0.0
  0
LINE
  8
DETAIL
  6
CONTINUOUS
 62
     5
 10
-40.49743000000035
 20
-109.3972550000001
 30
0.0
 11
-40.025265000000218
 21
-143.0586340000001
 31
0.0
  0
LINE
  8
OUTLINE
  6
CONTINUOUS
 62
     3
 10
-40.49743000000035
 20
-109.3972550000001
 30
0.0
 11
-40.025265000000218
 21
-143.0586340000001
 31
0.0
  0
LINE
  8
DETAIL
  6
CONTINUOUS
 62
     5
 10
-39.4365600000001
 20
-144.44790400000011
 30
0.0
 11
-36.5
 21
-147.37157199999999
 31
0.0
  0
LINE
  8
OUTLINE
  6
CONTINUOUS
 62
     3
 10
-39.4365600000001
 20
-144.44790400000011
 30
0.0
 11
-36.5
 21
-147.37157199999999
 31
0.0
  0
LINE
  8
DETAIL
  6
CONTINUOUS
 62
     5
 10
39.839313999999831
 20
-143.8731600000001
 30
0.0
 11
-39.83931500000017
 21
-143.8731600000001
 31
0.0
  0
LINE
  8
DETAIL
  6
CONTINUOUS
 62
     5
 10
36.5
 20
-147.37157199999999
 30
0.0
 11
-36.5
 21
-147.37157199999999
 31
0.0
  0
LINE
  8
DETAIL
  6
CONTINUOUS
 62
     5
 10
-36.5
 20
-147.37157199999999
 30
0.0
 11
-36.5
 21
-178.19999999999999
 31
0.0
  0
LINE
  8
OUTLINE
  6
CONTINUOUS
 62
     3
 10
-36.5
 20
-147.37157199999999
 30
0.0
 11
-36.5
 21
-178.19999999999999
 31
0.0
  0
ARC
  8
DETAIL
  6
CONTINUOUS
 62
     5
 10
-38.025461000000178
 20
-143.03058300000009
 30
0.0
 40
2.0
 50
180.80363099999181
 51
225.12604500000501
  0
ARC
  8
OUTLINE
  6
CONTINUOUS
 62
     3
 10
-38.025461000000178
 20
-143.03058300000001
 30
0.0
 40
2.0
 50
180.80363099999181
 51
225.12604500000501
  0
LINE
  8
DETAIL
  6
CONTINUOUS
 62
     5
 10
-36.5
 20
-178.19999999999999
 30
0.0
 11
36.5
 21
-178.19999999999999
 31
0.0
  0
LINE
  8
OUTLINE
  6
CONTINUOUS
 62
     3
 10
-36.5
 20
-178.19999999999999
 30
0.0
 11
36.5
 21
-178.19999999999999
 31
0.0
  0
LINE
  8
DETAIL
  6
CONTINUOUS
 62
     5
 10
36.5
 20
-147.37157199999999
 30
0.0
 11
36.5
 21
-178.19999999999999
 31
0.0
  0
LINE
  8
OUTLINE
  6
CONTINUOUS
 62
     3
 10
36.5
 20
-147.37157199999999
 30
0.0
 11
36.5
 21
-178.19999999999999
 31
0.0
  0
LINE
  8
DETAIL
  6
CONTINUOUS
 62
     5
 10
40.497429000000011
 20
-109.3972550000001
 30
0.0
 11
40.025263999999879
 21
-143.0586340000001
 31
0.0
  0
LINE
  8
OUTLINE
  6
CONTINUOUS
 62
     3
 10
40.497429000000011
 20
-109.3972550000001
 30
0.0
 11
40.025263999999879
 21
-143.0586340000001
 31
0.0
  0
LINE
  8
DETAIL
  6
CONTINUOUS
 62
     5
 10
39.4365600000001
 20
-144.44790400000011
 30
0.0
 11
36.5
 21
-147.37157199999999
 31
0.0
  0
LINE
  8
OUTLINE
  6
CONTINUOUS
 62
     3
 10
39.4365600000001
 20
-144.44790400000011
 30
0.0
 11
36.5
 21
-147.37157199999999
 31
0.0
  0
ARC
  8
DETAIL
  6
CONTINUOUS
 62
     5
 10
38.025461000000178
 20
-143.03058300000009
 30
0.0
 40
2.0
 50
314.87395499999502
 51
359.19636899999512
  0
ARC
  8
OUTLINE
  6
CONTINUOUS
 62
     3
 10
38.025461000000178
 20
-143.03058300000001
 30
0.0
 40
2.0
 50
314.87395499999502
 51
359.19636899999512
  0
LINE
  8
DETAIL
  6
CONTINUOUS
 62
     5
 10
92.0
 20
0.0
 30
0.0
 11
92.0
 21
82.0
 31
0.0
  0
LINE
  8
DETAIL
  6
CONTINUOUS
 62
     5
 10
-92.0
 20
0.0
 30
0.0
 11
-92.0
 21
82.0
 31
0.0
  0
LINE
  8
DETAIL
  6
CONTINUOUS
 62
     5
 10
-92.0
 20
0.0
 30
0.0
 11
-92.0
 21
-82.0
 31
0.0
  0
LINE
  8
DETAIL
  6
CONTINUOUS
 62
     5
 10
92.0
 20
0.0
 30
0.0
 11
92.0
 21
-82.0
 31
0.0
  0
LINE
  8
DETAIL
  6
CONTINUOUS
 62
     5
 10
0.0
 20
92.0
 30
0.0
 11
82.0
 21
92.0
 31
0.0
  0
LINE
  8
DETAIL
  6
CONTINUOUS
 62
     5
 10
0.0
 20
92.0
 30
0.0
 11
-82.0
 21
92.0
 31
0.0
  0
LINE
  8
DETAIL
  6
CONTINUOUS
 62
     5
 10
-43.714361000000281
 20
-92.0
 30
0.0
 11
-82.0
 21
-92.0
 31
0.0
  0
LINE
  8
DETAIL
  6
CONTINUOUS
 62
     5
 10
43.714359999999942
 20
-92.0
 30
0.0
 11
82.0
 21
-92.0
 31
0.0
  0
ARC
  8
DETAIL
  6
CONTINUOUS
 62
     5
 10
82.0
 20
82.0
 30
0.0
 40
10.0
 50
0.0
 51
90.0
  0
ARC
  8
DETAIL
  6
CONTINUOUS
 62
     5
 10
-82.0
 20
82.0
 30
0.0
 40
10.0
 50
90.0
 51
180.0
  0
ARC
  8
DETAIL
  6
CONTINUOUS
 62
     5
 10
-82.0
 20
-82.0
 30
0.0
 40
10.0
 50
180.0
 51
270.0
  0
ARC
  8
DETAIL
  6
CONTINUOUS
 62
     5
 10
82.0
 20
-82.0
 30
0.0
 40
10.0
 50
270.0
 51
0.0
  0
CIRCLE
  8
DETAIL
  6
CONTINUOUS
 62
     5
 10
50.0
 20
81.0
 30
0.0
 40
2.5
  0
CIRCLE
  8
DETAIL
  6
CONTINUOUS
 62
     5
 10
-50.0
 20
81.0
 30
0.0
 40
2.5
  0
CIRCLE
  8
DETAIL
  6
CONTINUOUS
 62
     5
 10
-50.0
 20
-81.0
 30
0.0
 40
2.5
  0
CIRCLE
  8
DETAIL
  6
CONTINUOUS
 62
     5
 10
50.0
 20
-81.0
 30
0.0
 40
2.5
  0
CIRCLE
  8
DETAIL
  6
CONTINUOUS
 62
     5
 10
81.0
 20
50.0
 30
0.0
 40
2.5
  0
CIRCLE
  8
DETAIL
  6
CONTINUOUS
 62
     5
 10
-81.0
 20
50.0
 30
0.0
 40
2.5
  0
CIRCLE
  8
DETAIL
  6
CONTINUOUS
 62
     5
 10
-81.0
 20
-50.0
 30
0.0
 40
2.5
  0
CIRCLE
  8
DETAIL
  6
CONTINUOUS
 62
     5
 10
81.0
 20
-50.0
 30
0.0
 40
2.5
  0
ARC
  8
DETAIL
  6
CONTINUOUS
 62
     5
 10
64.5
 20
64.5
 30
0.0
 40
7.5
 50
0.0
 51
90.0
  0
LINE
  8
DETAIL
  6
CONTINUOUS
 62
     5
 10
-64.5
 20
72.0
 30
0.0
 11
64.5
 21
72.0
 31
0.0
  0
ARC
  8
DETAIL
  6
CONTINUOUS
 62
     5
 10
-64.5
 20
64.5
 30
0.0
 40
7.5
 50
90.0
 51
180.0
  0
LINE
  8
DETAIL
  6
CONTINUOUS
 62
     5
 10
72.0
 20
-70.205508000000009
 30
0.0
 11
72.0
 21
64.5
 31
0.0
  0
LINE
  8
DETAIL
  6
CONTINUOUS
 62
     5
 10
-72.0
 20
-59.998629000000051
 30
0.0
 11
-72.0
 21
64.5
 31
0.0
  0
LINE
  8
DETAIL
  6
CONTINUOUS
 62
     5
 10
-72.0
 20
-50.75
 30
0.0
 11
-72.0
 21
-70.205508000000009
 31
0.0
  0
CIRCLE
  8
DETAIL
  6
CONTINUOUS
 62
     5
 10
9.0
 20
-8.0
 30
0.0
 40
31.5
  0
CIRCLE
  8
FIX
  6
CONTINUOUS
 62
    11
 10
50.0
 20
81.0
 30
0.0
 40
10.0
  0
CIRCLE
  8
FIX
  6
CONTINUOUS
 62
    11
 10
50.0
 20
-81.0
 30
0.0
 40
10.0
  0
CIRCLE
  8
FIX
  6
CONTINUOUS
 62
    11
 10
81.0
 20
-50.0
 30
0.0
 40
10.0
  0
CIRCLE
  8
FIX
  6
CONTINUOUS
 62
    11
 10
81.0
 20
50.0
 30
0.0
 40
10.0
  0
LINE
  8
SIZE
  6
CONTINUOUS
 62
    30
 10
-36.5
 20
-198.19999999999999
 30
0.0
 11
-36.5
 21
-346.14145363995522
 31
0.0
  0
LINE
  8
SIZE
  6
CONTINUOUS
 62
    30
 10
36.5
 20
-198.19999999999999
 30
0.0
 11
36.5
 21
-346.14145363995522
 31
0.0
  0
LINE
  8
SIZE
  6
CONTINUOUS
 62
    30
 10
48.5
 20
-326.14145363995522
 30
0.0
 11
60.5
 21
-326.14145363995522
 31
0.0
  0
LINE
  8
SIZE
  6
CONTINUOUS
 62
    30
 10
-48.5
 20
-326.14145363995522
 30
0.0
 11
-342.07676774585588
 21
-326.14145363995522
 31
0.0
  0
LINE
  8
SIZE
  6
CONTINUOUS
 62
    30
 10
36.5
 20
-326.14145363995522
 30
0.0
 11
-36.5
 21
-326.14145363995522
 31
0.0
  0
CIRCLE
  8
SIZE
  6
CONTINUOUS
 62
    30
 10
36.5
 20
-326.14145363995522
 30
0.0
 40
6.0
  0
LINE
  8
SIZE
  6
CONTINUOUS
 62
    30
 10
36.5
 20
-326.14145363995522
 30
0.0
 11
48.5
 21
-326.14145363995522
 31
0.0
  0
CIRCLE
  8
SIZE
  6
CONTINUOUS
 62
    30
 10
-36.5
 20
-326.14145363995522
 30
0.0
 40
6.0
  0
LINE
  8
SIZE
  6
CONTINUOUS
 62
    30
 10
-36.5
 20
-326.14145363995522
 30
0.0
 11
-48.5
 21
-326.14145363995522
 31
0.0
  0
TEXT
  8
SIZE
  6
CONTINUOUS
 62
    30
 10
-327.2253391744274
 20
-290.47478697328859
 30
0.0
 40
64.0
  1
φ73
 41
0.9
 72
     1
 11
-240.27676774585601
 21
-290.47478697328859
 31
0.0
  0
POINT
  8
DEFPOINTS
  6
CONTINUOUS
 62
    30
 10
-36.5
 20
-178.19999999999999
 30
0.0
  0
POINT
  8
DEFPOINTS
  6
CONTINUOUS
 62
    30
 10
36.5
 20
-178.19999999999999
 30
0.0
  0
POINT
  8
DEFPOINTS
  6
CONTINUOUS
 62
    30
 10
36.5
 20
-326.14145363995522
 30
0.0
  0
LINE
  8
SIZE
  6
CONTINUOUS
 62
    30
 10
-40.025265000000218
 20
-163.0586340000001
 30
0.0
 11
-40.025265000000218
 21
-473.02815385513622
 31
0.0
  0
LINE
  8
SIZE
  6
CONTINUOUS
 62
    30
 10
40.025264274354868
 20
-163.0586340940778
 30
0.0
 11
40.025264274354868
 21
-473.02815385513622
 31
0.0
  0
LINE
  8
SIZE
  6
CONTINUOUS
 62
    30
 10
28.025264274354871
 20
-453.02815385513622
 30
0.0
 11
-28.025265000000221
 21
-453.02815385513622
 31
0.0
  0
LINE
  8
SIZE
  6
CONTINUOUS
 62
    30
 10
-40.025265000000218
 20
-453.02815385513622
 30
0.0
 11
-336.47723147608008
 21
-453.02815385513622
 31
0.0
  0
CIRCLE
  8
SIZE
  6
CONTINUOUS
 62
    30
 10
40.025264274354868
 20
-453.02815385513622
 30
0.0
 40
6.0
  0
LINE
  8
SIZE
  6
CONTINUOUS
 62
    30
 10
40.025264274354868
 20
-453.02815385513622
 30
0.0
 11
28.025264274354871
 21
-453.02815385513622
 31
0.0
  0
CIRCLE
  8
SIZE
  6
CONTINUOUS
 62
    30
 10
-40.025265000000218
 20
-453.02815385513622
 30
0.0
 40
6.0
  0
LINE
  8
SIZE
  6
CONTINUOUS
 62
    30
 10
-40.025265000000218
 20
-453.02815385513622
 30
0.0
 11
-28.025265000000221
 21
-453.02815385513622
 31
0.0
  0
TEXT
  8
SIZE
  6
CONTINUOUS
 62
    30
 10
-321.62580290465161
 20
-417.3614871884696
 30
0.0
 40
64.0
  1
φ80
 41
0.9
 72
     1
 11
-234.6772314760801
 21
-417.3614871884696
 31
0.0
  0
POINT
  8
DEFPOINTS
  6
CONTINUOUS
 62
    30
 10
-40.025265000000218
 20
-143.0586340000001
 30
0.0
  0
POINT
  8
DEFPOINTS
  6
CONTINUOUS
 62
    30
 10
40.025264274354868
 20
-143.0586340940778
 30
0.0
  0
POINT
  8
DEFPOINTS
  6
CONTINUOUS
 62
    30
 10
40.025264274354868
 20
-453.02815385513622
 30
0.0
  0
LINE
  8
SIZE
  6
CONTINUOUS
 62
    30
 10
-50.0
 20
-108.5
 30
0.0
 11
-50.0
 21
-619.78363542406271
 31
0.0
  0
LINE
  8
SIZE
  6
CONTINUOUS
 62
    30
 10
50.0
 20
-108.5
 30
0.0
 11
50.0
 21
-619.78363542406271
 31
0.0
  0
LINE
  8
SIZE
  6
CONTINUOUS
 62
    30
 10
38.0
 20
-599.78363542406271
 30
0.0
 11
-38.0
 21
-599.78363542406271
 31
0.0
  0
LINE
  8
SIZE
  6
CONTINUOUS
 62
    30
 10
-50.0
 20
-599.78363542406271
 30
0.0
 11
-320.71508103865563
 21
-599.78363542406271
 31
0.0
  0
CIRCLE
  8
SIZE
  6
CONTINUOUS
 62
    30
 10
50.0
 20
-599.78363542406271
 30
0.0
 40
6.0
  0
LINE
  8
SIZE
  6
CONTINUOUS
 62
    30
 10
50.0
 20
-599.78363542406271
 30
0.0
 11
38.0
 21
-599.78363542406271
 31
0.0
  0
CIRCLE
  8
SIZE
  6
CONTINUOUS
 62
    30
 10
-50.0
 20
-599.78363542406271
 30
0.0
 40
6.0
  0
LINE
  8
SIZE
  6
CONTINUOUS
 62
    30
 10
-50.0
 20
-599.78363542406271
 30
0.0
 11
-38.0
 21
-599.78363542406271
 31
0.0
  0
TEXT
  8
SIZE
  6
CONTINUOUS
 62
    30
 10
-295.71508103865568
 20
-574.78363542406271
 30
0.0
 40
64.0
  1
100
 41
0.9
 72
     1
 11
-227.14365246722721
 21
-574.78363542406271
 31
0.0
  0
POINT
  8
DEFPOINTS
  6
CONTINUOUS
 62
    30
 10
-50.0
 20
-88.5
 30
0.0
  0
POINT
  8
DEFPOINTS
  6
CONTINUOUS
 62
    30
 10
50.0
 20
-88.5
 30
0.0
  0
POINT
  8
DEFPOINTS
  6
CONTINUOUS
 62
    30
 10
50.0
 20
-599.78363542406271
 30
0.0
  0
LINE
  8
SIZE
  6
CONTINUOUS
 62
    30
 10
-81.0
 20
-77.5
 30
0.0
 11
-81.0
 21
-744.19396544564165
 31
0.0
  0
LINE
  8
SIZE
  6
CONTINUOUS
 62
    30
 10
81.0
 20
-77.5
 30
0.0
 11
81.0
 21
-744.19396544564165
 31
0.0
  0
LINE
  8
SIZE
  6
CONTINUOUS
 62
    30
 10
-93.0
 20
-724.19396544564165
 30
0.0
 11
-105.0
 21
-724.19396544564165
 31
0.0
  0
LINE
  8
SIZE
  6
CONTINUOUS
 62
    30
 10
93.0
 20
-724.19396544564165
 30
0.0
 11
105.0
 21
-724.19396544564165
 31
0.0
  0
LINE
  8
SIZE
  6
CONTINUOUS
 62
    30
 10
-81.0
 20
-724.19396544564165
 30
0.0
 11
81.0
 21
-724.19396544564165
 31
0.0
  0
CIRCLE
  8
SIZE
  6
CONTINUOUS
 62
    30
 10
-81.0
 20
-724.19396544564165
 30
0.0
 40
6.0
  0
LINE
  8
SIZE
  6
CONTINUOUS
 62
    30
 10
-81.0
 20
-724.19396544564165
 30
0.0
 11
-93.0
 21
-724.19396544564165
 31
0.0
  0
CIRCLE
  8
SIZE
  6
CONTINUOUS
 62
    30
 10
81.0
 20
-724.19396544564165
 30
0.0
 40
6.0
  0
LINE
  8
SIZE
  6
CONTINUOUS
 62
    30
 10
81.0
 20
-724.19396544564165
 30
0.0
 11
93.0
 21
-724.19396544564165
 31
0.0
  0
TEXT
  8
SIZE
  6
CONTINUOUS
 62
    30
 10
-68.571428571428569
 20
-699.19396544564165
 30
0.0
 40
64.0
  1
162
 41
0.9
 72
     1
 11
0.0
 21
-699.19396544564165
 31
0.0
  0
POINT
  8
DEFPOINTS
  6
CONTINUOUS
 62
    30
 10
-81.0
 20
-57.5
 30
0.0
  0
POINT
  8
DEFPOINTS
  6
CONTINUOUS
 62
    30
 10
81.0
 20
-57.5
 30
0.0
  0
POINT
  8
DEFPOINTS
  6
CONTINUOUS
 62
    30
 10
81.0
 20
-724.19396544564165
 30
0.0
  0
LINE
  8
SIZE
  6
CONTINUOUS
 62
    30
 10
-92.0
 20
-102.0
 30
0.0
 11
-92.0
 21
-858.085675764592
 31
0.0
  0
LINE
  8
SIZE
  6
CONTINUOUS
 62
    30
 10
92.0
 20
-102.0
 30
0.0
 11
92.0
 21
-858.085675764592
 31
0.0
  0
LINE
  8
SIZE
  6
CONTINUOUS
 62
    30
 10
-104.0
 20
-838.085675764592
 30
0.0
 11
-116.0
 21
-838.085675764592
 31
0.0
  0
LINE
  8
SIZE
  6
CONTINUOUS
 62
    30
 10
104.0
 20
-838.085675764592
 30
0.0
 11
116.0
 21
-838.085675764592
 31
0.0
  0
LINE
  8
SIZE
  6
CONTINUOUS
 62
    30
 10
-92.0
 20
-838.085675764592
 30
0.0
 11
92.0
 21
-838.085675764592
 31
0.0
  0
CIRCLE
  8
SIZE
  6
CONTINUOUS
 62
    30
 10
-92.0
 20
-838.085675764592
 30
0.0
 40
6.0
  0
LINE
  8
SIZE
  6
CONTINUOUS
 62
    30
 10
-92.0
 20
-838.085675764592
 30
0.0
 11
-104.0
 21
-838.085675764592
 31
0.0
  0
CIRCLE
  8
SIZE
  6
CONTINUOUS
 62
    30
 10
92.0
 20
-838.085675764592
 30
0.0
 40
6.0
  0
LINE
  8
SIZE
  6
CONTINUOUS
 62
    30
 10
92.0
 20
-838.085675764592
 30
0.0
 11
104.0
 21
-838.085675764592
 31
0.0
  0
TEXT
  8
SIZE
  6
CONTINUOUS
 62
    30
 10
-69.942857142857122
 20
-813.08567576459211
 30
0.0
 40
64.0
  1
184
 41
0.9
 72
     1
 11
0.0
 21
-813.08567576459211
 31
0.0
  0
POINT
  8
DEFPOINTS
  6
CONTINUOUS
 62
    30
 10
-92.0
 20
-82.0
 30
0.0
  0
POINT
  8
DEFPOINTS
  6
CONTINUOUS
 62
    30
 10
92.0
 20
-82.0
 30
0.0
  0
POINT
  8
DEFPOINTS
  6
CONTINUOUS
 62
    30
 10
92.0
 20
-838.085675764592
 30
0.0
  0
LINE
  8
SIZE
  6
CONTINUOUS
 62
    30
 10
56.5
 20
-178.19999999999999
 30
0.0
 11
280.55393352817742
 21
-178.19999999999999
 31
0.0
  0
LINE
  8
SIZE
  6
CONTINUOUS
 62
    30
 10
56.5
 20
-147.37157199999999
 30
0.0
 11
280.55393352817742
 21
-147.3715720000001
 31
0.0
  0
LINE
  8
SIZE
  6
CONTINUOUS
 62
    30
 10
260.55393352817742
 20
-135.3715720000001
 30
0.0
 11
260.55393352817742
 21
-123.3715720000001
 31
0.0
  0
LINE
  8
SIZE
  6
CONTINUOUS
 62
    30
 10
260.55393352817742
 20
-190.19999999999999
 30
0.0
 11
260.55393352817742
 21
-345.72458868173828
 31
0.0
  0
LINE
  8
SIZE
  6
CONTINUOUS
 62
    30
 10
260.55393352817742
 20
-147.3715720000001
 30
0.0
 11
260.55393352817742
 21
-178.19999999999999
 31
0.0
  0
CIRCLE
  8
SIZE
  6
CONTINUOUS
 62
    30
 10
260.55393352817742
 20
-147.3715720000001
 30
0.0
 40
6.0
  0
LINE
  8
SIZE
  6
CONTINUOUS
 62
    30
 10
260.55393352817742
 20
-147.3715720000001
 30
0.0
 11
260.55393352817742
 21
-135.3715720000001
 31
0.0
  0
CIRCLE
  8
SIZE
  6
CONTINUOUS
 62
    30
 10
260.55393352817742
 20
-178.19999999999999
 30
0.0
 40
6.0
  0
LINE
  8
SIZE
  6
CONTINUOUS
 62
    30
 10
260.55393352817742
 20
-178.19999999999999
 30
0.0
 11
260.55393352817742
 21
-190.19999999999999
 31
0.0
  0
TEXT
  8
SIZE
  6
CONTINUOUS
 62
    30
 10
235.5539335281774
 20
-320.72458868173823
 30
0.0
 40
64.0
  1
30
 50
90.0
 41
0.9
 72
     1
 11
235.5539335281774
 21
-274.09601725316679
 31
0.0
  0
POINT
  8
DEFPOINTS
  6
CONTINUOUS
 62
    30
 10
36.5
 20
-178.19999999999999
 30
0.0
  0
POINT
  8
DEFPOINTS
  6
CONTINUOUS
 62
    30
 10
36.5
 20
-147.37157199999999
 30
0.0
  0
POINT
  8
DEFPOINTS
  6
CONTINUOUS
 62
    30
 10
260.55393352817742
 20
-147.3715720000001
 30
0.0
  0
LINE
  8
SIZE
  6
CONTINUOUS
 62
    30
 10
56.5
 20
-178.19999999999999
 30
0.0
 11
387.77838163204069
 21
-178.20000000000019
 31
0.0
  0
LINE
  8
SIZE
  6
CONTINUOUS
 62
    30
 10
37.5
 20
-126.2
 30
0.0
 11
387.77838163204069
 21
-126.2000000000003
 31
0.0
  0
LINE
  8
SIZE
  6
CONTINUOUS
 62
    30
 10
367.77838163204069
 20
-114.2000000000003
 30
0.0
 11
367.77838163204069
 21
-102.2000000000003
 31
0.0
  0
LINE
  8
SIZE
  6
CONTINUOUS
 62
    30
 10
367.77838163204069
 20
-190.20000000000019
 30
0.0
 11
367.77838163204069
 21
-345.45714285714303
 31
0.0
  0
LINE
  8
SIZE
  6
CONTINUOUS
 62
    30
 10
367.77838163204069
 20
-126.2000000000003
 30
0.0
 11
367.77838163204069
 21
-178.20000000000019
 31
0.0
  0
CIRCLE
  8
SIZE
  6
CONTINUOUS
 62
    30
 10
367.77838163204069
 20
-126.2000000000003
 30
0.0
 40
6.0
  0
LINE
  8
SIZE
  6
CONTINUOUS
 62
    30
 10
367.77838163204069
 20
-126.2000000000003
 30
0.0
 11
367.77838163204069
 21
-114.2000000000003
 31
0.0
  0
CIRCLE
  8
SIZE
  6
CONTINUOUS
 62
    30
 10
367.77838163204069
 20
-178.20000000000019
 30
0.0
 40
6.0
  0
LINE
  8
SIZE
  6
CONTINUOUS
 62
    30
 10
367.77838163204069
 20
-178.20000000000019
 30
0.0
 11
367.77838163204069
 21
-190.20000000000019
 31
0.0
  0
TEXT
  8
SIZE
  6
CONTINUOUS
 62
    30
 10
342.77838163204069
 20
-320.45714285714291
 30
0.0
 40
64.0
  1
52
 50
90.0
 41
0.9
 72
     1
 11
342.77838163204069
 21
-273.82857142857142
 31
0.0
  0
POINT
  8
DEFPOINTS
  6
CONTINUOUS
 62
    30
 10
36.5
 20
-178.19999999999999
 30
0.0
  0
POINT
  8
DEFPOINTS
  6
CONTINUOUS
 62
    30
 10
17.5
 20
-126.2
 30
0.0
  0
POINT
  8
DEFPOINTS
  6
CONTINUOUS
 62
    30
 10
367.77838163204069
 20
-126.2000000000003
 30
0.0
  0
LINE
  8
SIZE
  6
CONTINUOUS
 62
    30
 10
90.000304000000142
 20
-72.0
 30
0.0
 11
591.089146406277
 21
-72.000000000000114
 31
0.0
  0
LINE
  8
SIZE
  6
CONTINUOUS
 62
    30
 10
56.5
 20
-178.19999999999999
 30
0.0
 11
591.089146406277
 21
-178.20000000000019
 31
0.0
  0
LINE
  8
SIZE
  6
CONTINUOUS
 62
    30
 10
571.089146406277
 20
-84.000000000000114
 30
0.0
 11
571.089146406277
 21
-166.20000000000019
 31
0.0
  0
LINE
  8
SIZE
  6
CONTINUOUS
 62
    30
 10
571.089146406277
 20
-178.20000000000019
 30
0.0
 11
571.089146406277
 21
-374.60000000000042
 31
0.0
  0
CIRCLE
  8
SIZE
  6
CONTINUOUS
 62
    30
 10
571.089146406277
 20
-72.000000000000114
 30
0.0
 40
6.0
  0
LINE
  8
SIZE
  6
CONTINUOUS
 62
    30
 10
571.089146406277
 20
-72.000000000000114
 30
0.0
 11
571.089146406277
 21
-84.000000000000114
 31
0.0
  0
CIRCLE
  8
SIZE
  6
CONTINUOUS
 62
    30
 10
571.089146406277
 20
-178.20000000000019
 30
0.0
 40
6.0
  0
LINE
  8
SIZE
  6
CONTINUOUS
 62
    30
 10
571.089146406277
 20
-178.20000000000019
 30
0.0
 11
571.089146406277
 21
-166.20000000000019
 31
0.0
  0
TEXT
  8
SIZE
  6
CONTINUOUS
 62
    30
 10
546.089146406277
 20
-349.60000000000008
 30
0.0
 40
64.0
  1
106
 50
90.0
 41
0.9
 72
     1
 11
546.089146406277
 21
-282.40000000000009
 31
0.0
  0
POINT
  8
DEFPOINTS
  6
CONTINUOUS
 62
    30
 10
70.000304000000142
 20
-72.0
 30
0.0
  0
POINT
  8
DEFPOINTS
  6
CONTINUOUS
 62
    30
 10
36.5
 20
-178.19999999999999
 30
0.0
  0
POINT
  8
DEFPOINTS
  6
CONTINUOUS
 62
    30
 10
571.089146406277
 20
-178.20000000000019
 30
0.0
  0
LINE
  8
SIZE
  6
CONTINUOUS
 62
    30
 10
90.000304000000142
 20
-72.0
 30
0.0
 11
591.089146406277
 21
-72.000000000000114
 31
0.0
  0
LINE
  8
SIZE
  6
CONTINUOUS
 62
    30
 10
84.5
 20
72.0
 30
0.0
 11
591.089146406277
 21
71.999999999999886
 31
0.0
  0
LINE
  8
SIZE
  6
CONTINUOUS
 62
    30
 10
571.089146406277
 20
-60.000000000000107
 30
0.0
 11
571.089146406277
 21
59.999999999999893
 31
0.0
  0
LINE
  8
SIZE
  6
CONTINUOUS
 62
    30
 10
571.089146406277
 20
71.999999999999886
 30
0.0
 11
571.089146406277
 21
375.33416018760499
 31
0.0
  0
CIRCLE
  8
SIZE
  6
CONTINUOUS
 62
    30
 10
571.089146406277
 20
-72.000000000000114
 30
0.0
 40
6.0
  0
LINE
  8
SIZE
  6
CONTINUOUS
 62
    30
 10
571.089146406277
 20
-72.000000000000114
 30
0.0
 11
571.089146406277
 21
-60.000000000000107
 31
0.0
  0
CIRCLE
  8
SIZE
  6
CONTINUOUS
 62
    30
 10
571.089146406277
 20
71.999999999999886
 30
0.0
 40
6.0
  0
LINE
  8
SIZE
  6
CONTINUOUS
 62
    30
 10
571.089146406277
 20
71.999999999999886
 30
0.0
 11
571.089146406277
 21
59.999999999999893
 31
0.0
  0
TEXT
  8
SIZE
  6
CONTINUOUS
 62
    30
 10
546.089146406277
 20
141.32844590189089
 30
0.0
 40
64.0
  1
□144
 50
90.0
 41
0.9
 72
     1
 11
546.089146406277
 21
247.75130304474811
 31
0.0
  0
POINT
  8
DEFPOINTS
  6
CONTINUOUS
 62
    30
 10
70.000304000000142
 20
-72.0
 30
0.0
  0
POINT
  8
DEFPOINTS
  6
CONTINUOUS
 62
    30
 10
64.5
 20
72.0
 30
0.0
  0
POINT
  8
DEFPOINTS
  6
CONTINUOUS
 62
    30
 10
571.089146406277
 20
71.999999999999886
 30
0.0
  0
LINE
  8
SIZE
  6
CONTINUOUS
 62
    30
 10
108.5
 20
50.0
 30
0.0
 11
476.7996066344449
 21
49.999999999999893
 31
0.0
  0
LINE
  8
SIZE
  6
CONTINUOUS
 62
    30
 10
108.5
 20
-50.0
 30
0.0
 11
476.7996066344449
 21
-50.000000000000107
 31
0.0
  0
LINE
  8
SIZE
  6
CONTINUOUS
 62
    30
 10
456.7996066344449
 20
-38.000000000000107
 30
0.0
 11
456.7996066344449
 21
37.999999999999893
 31
0.0
  0
LINE
  8
SIZE
  6
CONTINUOUS
 62
    30
 10
456.7996066344449
 20
49.999999999999893
 30
0.0
 11
456.7996066344449
 21
311.25518758321408
 31
0.0
  0
CIRCLE
  8
SIZE
  6
CONTINUOUS
 62
    30
 10
456.7996066344449
 20
-50.000000000000107
 30
0.0
 40
6.0
  0
LINE
  8
SIZE
  6
CONTINUOUS
 62
    30
 10
456.7996066344449
 20
-50.000000000000107
 30
0.0
 11
456.7996066344449
 21
-38.000000000000107
 31
0.0
  0
CIRCLE
  8
SIZE
  6
CONTINUOUS
 62
    30
 10
456.7996066344449
 20
49.999999999999893
 30
0.0
 40
6.0
  0
LINE
  8
SIZE
  6
CONTINUOUS
 62
    30
 10
456.7996066344449
 20
49.999999999999893
 30
0.0
 11
456.7996066344449
 21
37.999999999999893
 31
0.0
  0
TEXT
  8
SIZE
  6
CONTINUOUS
 62
    30
 10
431.7996066344449
 20
149.11233044035711
 30
0.0
 40
64.0
  1
100
 50
90.0
 41
0.9
 72
     1
 11
431.7996066344449
 21
217.6837590117857
 31
0.0
  0
POINT
  8
DEFPOINTS
  6
CONTINUOUS
 62
    30
 10
88.5
 20
50.0
 30
0.0
  0
POINT
  8
DEFPOINTS
  6
CONTINUOUS
 62
    30
 10
88.5
 20
-50.0
 30
0.0
  0
POINT
  8
DEFPOINTS
  6
CONTINUOUS
 62
    30
 10
456.7996066344449
 20
-50.000000000000107
 30
0.0
  0
LINE
  8
SIZE
  6
CONTINUOUS
 62
    30
 10
77.5
 20
81.0
 30
0.0
 11
726.4117397356481
 21
80.999999999999773
 31
0.0
  0
LINE
  8
SIZE
  6
CONTINUOUS
 62
    30
 10
77.5
 20
-81.0
 30
0.0
 11
726.4117397356481
 21
-81.000000000000227
 31
0.0
  0
LINE
  8
SIZE
  6
CONTINUOUS
 62
    30
 10
706.4117397356481
 20
92.999999999999773
 30
0.0
 11
706.4117397356481
 21
104.9999999999998
 31
0.0
  0
LINE
  8
SIZE
  6
CONTINUOUS
 62
    30
 10
706.4117397356481
 20
-93.000000000000227
 30
0.0
 11
706.4117397356481
 21
-105.0000000000002
 31
0.0
  0
LINE
  8
SIZE
  6
CONTINUOUS
 62
    30
 10
706.4117397356481
 20
80.999999999999773
 30
0.0
 11
706.4117397356481
 21
-81.000000000000227
 31
0.0
  0
CIRCLE
  8
SIZE
  6
CONTINUOUS
 62
    30
 10
706.4117397356481
 20
80.999999999999773
 30
0.0
 40
6.0
  0
LINE
  8
SIZE
  6
CONTINUOUS
 62
    30
 10
706.4117397356481
 20
80.999999999999773
 30
0.0
 11
706.4117397356481
 21
92.999999999999773
 31
0.0
  0
CIRCLE
  8
SIZE
  6
CONTINUOUS
 62
    30
 10
706.4117397356481
 20
-81.000000000000227
 30
0.0
 40
6.0
  0
LINE
  8
SIZE
  6
CONTINUOUS
 62
    30
 10
706.4117397356481
 20
-81.000000000000227
 30
0.0
 11
706.4117397356481
 21
-93.000000000000227
 31
0.0
  0
TEXT
  8
SIZE
  6
CONTINUOUS
 62
    30
 10
681.4117397356481
 20
-68.571428571428683
 30
0.0
 40
64.0
  1
162
 50
90.0
 41
0.9
 72
     1
 11
681.4117397356481
 21
-0.0000000000001137
 31
0.0
  0
POINT
  8
DEFPOINTS
  6
CONTINUOUS
 62
    30
 10
57.5
 20
81.0
 30
0.0
  0
POINT
  8
DEFPOINTS
  6
CONTINUOUS
 62
    30
 10
57.5
 20
-81.0
 30
0.0
  0
POINT
  8
DEFPOINTS
  6
CONTINUOUS
 62
    30
 10
706.4117397356481
 20
-81.000000000000227
 30
0.0
  0
LINE
  8
SIZE
  6
CONTINUOUS
 62
    30
 10
102.0
 20
92.0
 30
0.0
 11
840.21786758307553
 21
91.999999999999773
 31
0.0
  0
LINE
  8
SIZE
  6
CONTINUOUS
 62
    30
 10
102.0
 20
-92.0
 30
0.0
 11
840.21786758307553
 21
-92.000000000000227
 31
0.0
  0
LINE
  8
SIZE
  6
CONTINUOUS
 62
    30
 10
820.21786758307553
 20
103.9999999999998
 30
0.0
 11
820.21786758307553
 21
115.9999999999998
 31
0.0
  0
LINE
  8
SIZE
  6
CONTINUOUS
 62
    30
 10
820.21786758307553
 20
-104.0000000000002
 30
0.0
 11
820.21786758307553
 21
-116.0000000000002
 31
0.0
  0
LINE
  8
SIZE
  6
CONTINUOUS
 62
    30
 10
820.21786758307553
 20
91.999999999999773
 30
0.0
 11
820.21786758307553
 21
-92.000000000000227
 31
0.0
  0
CIRCLE
  8
SIZE
  6
CONTINUOUS
 62
    30
 10
820.21786758307553
 20
91.999999999999773
 30
0.0
 40
6.0
  0
LINE
  8
SIZE
  6
CONTINUOUS
 62
    30
 10
820.21786758307553
 20
91.999999999999773
 30
0.0
 11
820.21786758307553
 21
103.9999999999998
 31
0.0
  0
CIRCLE
  8
SIZE
  6
CONTINUOUS
 62
    30
 10
820.21786758307553
 20
-92.000000000000227
 30
0.0
 40
6.0
  0
LINE
  8
SIZE
  6
CONTINUOUS
 62
    30
 10
820.21786758307553
 20
-92.000000000000227
 30
0.0
 11
820.21786758307553
 21
-104.0000000000002
 31
0.0
  0
TEXT
  8
SIZE
  6
CONTINUOUS
 62
    30
 10
795.21786758307553
 20
-69.942857142857235
 30
0.0
 40
64.0
  1
184
 50
90.0
 41
0.9
 72
     1
 11
795.21786758307553
 21
-0.0000000000001137
 31
0.0
  0
POINT
  8
DEFPOINTS
  6
CONTINUOUS
 62
    30
 10
82.0
 20
92.0
 30
0.0
  0
POINT
  8
DEFPOINTS
  6
CONTINUOUS
 62
    30
 10
82.0
 20
-92.0
 30
0.0
  0
POINT
  8
DEFPOINTS
  6
CONTINUOUS
 62
    30
 10
820.21786758307553
 20
-92.000000000000227
 30
0.0
  0
LINE
  8
SIZE
  6
CONTINUOUS
 62
    30
 10
124.0
 20
105.0
 30
0.0
 11
964.71655210018571
 21
104.9999999999998
 31
0.0
  0
LINE
  8
SIZE
  6
CONTINUOUS
 62
    30
 10
124.0
 20
-105.0
 30
0.0
 11
964.71655210018571
 21
-105.0000000000002
 31
0.0
  0
LINE
  8
SIZE
  6
CONTINUOUS
 62
    30
 10
944.71655210018571
 20
116.9999999999998
 30
0.0
 11
944.71655210018571
 21
128.9999999999998
 31
0.0
  0
LINE
  8
SIZE
  6
CONTINUOUS
 62
    30
 10
944.71655210018571
 20
-117.0000000000002
 30
0.0
 11
944.71655210018571
 21
-129.0000000000002
 31
0.0
  0
LINE
  8
SIZE
  6
CONTINUOUS
 62
    30
 10
944.71655210018571
 20
104.9999999999998
 30
0.0
 11
944.71655210018571
 21
-105.0000000000002
 31
0.0
  0
CIRCLE
  8
SIZE
  6
CONTINUOUS
 62
    30
 10
944.71655210018571
 20
104.9999999999998
 30
0.0
 40
6.0
  0
LINE
  8
SIZE
  6
CONTINUOUS
 62
    30
 10
944.71655210018571
 20
104.9999999999998
 30
0.0
 11
944.71655210018571
 21
116.9999999999998
 31
0.0
  0
CIRCLE
  8
SIZE
  6
CONTINUOUS
 62
    30
 10
944.71655210018571
 20
-105.0000000000002
 30
0.0
 40
6.0
  0
LINE
  8
SIZE
  6
CONTINUOUS
 62
    30
 10
944.71655210018571
 20
-105.0000000000002
 30
0.0
 11
944.71655210018571
 21
-117.0000000000002
 31
0.0
  0
TEXT
  8
SIZE
  6
CONTINUOUS
 62
    30
 10
919.71655210018571
 20
-105.0514285714287
 30
0.0
 40
64.0
  1
□210
 50
90.0
 41
0.9
 72
     1
 11
919.71655210018571
 21
-0.0000000000001137
 31
0.0
  0
POINT
  8
DEFPOINTS
  6
CONTINUOUS
 62
    30
 10
104.0
 20
105.0
 30
0.0
  0
POINT
  8
DEFPOINTS
  6
CONTINUOUS
 62
    30
 10
104.0
 20
-105.0
 30
0.0
  0
POINT
  8
DEFPOINTS
  6
CONTINUOUS
 62
    30
 10
944.71655210018571
 20
-105.0000000000002
 30
0.0
  0
ENDSEC
  0
EOF
