  0
SECTION
  2
HEADER
  9
$ACADVER
  1
AC1009
  9
$DWGCODEPAGE
  3
dos932
  9
$INSBASE
 10
0.0
 20
0.0
 30
0.0
  9
$EXTMIN
 10
-684.31089659490681
 20
-481.61314751675133
 30
-0.0015258207003583
  9
$EXTMAX
 10
924.95270920329676
 20
690.21607259080702
 30
0.0000000349246037
  9
$LIMMIN
 10
-2970.0
 20
-2100.0
  9
$LIMMAX
 10
2970.0
 20
2100.0
  9
$ORTHOMODE
 70
     1
  9
$REGENMODE
 70
     1
  9
$FILLMODE
 70
     1
  9
$QTEXTMODE
 70
     0
  9
$MIRRTEXT
 70
     0
  9
$LTSCALE
 40
20.0
  9
$ATTMODE
 70
     1
  9
$TEXTSIZE
 40
64.0
  9
$TRACEWID
 40
0.05
  9
$TEXTSTYLE
  7
STANDARD
  9
$CLAYER
  8
SIZE
  9
$CELTYPE
  6
CONTINUOUS
  9
$CECOLOR
 62
     7
  9
$DIMSCALE
 40
1.0
  9
$DIMASZ
 40
12.0
  9
$DIMEXO
 40
20.0
  9
$DIMDLI
 40
200.0
  9
$DIMRND
 40
0.0
  9
$DIMDLE
 40
0.0
  9
$DIMEXE
 40
20.0
  9
$DIMTP
 40
0.0
  9
$DIMTM
 40
0.0
  9
$DIMTXT
 40
64.0
  9
$DIMCEN
 40
0.09
  9
$DIMTSZ
 40
0.0
  9
$DIMTOL
 70
     0
  9
$DIMLIM
 70
     0
  9
$DIMTIH
 70
     0
  9
$DIMTOH
 70
     0
  9
$DIMSE1
 70
     0
  9
$DIMSE2
 70
     0
  9
$DIMTAD
 70
     1
  9
$DIMZIN
 70
     8
  9
$DIMBLK
  1

  9
$DIMASO
 70
     1
  9
$DIMSHO
 70
     0
  9
$DIMPOST
  1

  9
$DIMAPOST
  1

  9
$DIMALT
 70
     0
  9
$DIMALTD
 70
     2
  9
$DIMALTF
 40
25.399999999999999
  9
$DIMLFAC
 40
1.0
  9
$DIMTOFL
 70
     1
  9
$DIMTVP
 40
0.0
  9
$DIMTIX
 70
     1
  9
$DIMSOXD
 70
     0
  9
$DIMSAH
 70
     0
  9
$DIMBLK1
  1

  9
$DIMBLK2
  1

  9
$DIMSTYLE
  2
STANDARD
  9
$DIMCLRD
 70
     7
  9
$DIMCLRE
 70
     7
  9
$DIMCLRT
 70
     7
  9
$DIMTFAC
 40
1.0
  9
$DIMGAP
 40
25.0
  9
$LUNITS
 70
     2
  9
$LUPREC
 70
     4
  9
$SKETCHINC
 40
0.1
  9
$FILLETRAD
 40
3.0
  9
$AUNITS
 70
     1
  9
$AUPREC
 70
     3
  9
$MENU
  1
ACAD
  9
$ELEVATION
 40
0.0
  9
$PELEVATION
 40
0.0
  9
$THICKNESS
 40
0.0
  9
$LIMCHECK
 70
     0
  9
$CHAMFERA
 40
0.0
  9
$CHAMFERB
 40
0.0
  9
$SKPOLY
 70
     0
  9
$TDCREATE
 40
2453019.62301037
  9
$TDUPDATE
 40
2459025.478945278
  9
$TDINDWG
 40
1.7133608912
  9
$TDUSRTIMER
 40
1.7133608912
  9
$USRTIMER
 70
     1
  9
$ANGBASE
 50
0.0
  9
$ANGDIR
 70
     0
  9
$PDMODE
 70
     3
  9
$PDSIZE
 40
-2.0
  9
$PLINEWID
 40
0.0
  9
$SPLFRAME
 70
     0
  9
$SPLINETYPE
 70
     6
  9
$SPLINESEGS
 70
     8
  9
$SURFTAB1
 70
     6
  9
$SURFTAB2
 70
     6
  9
$SURFTYPE
 70
     6
  9
$SURFU
 70
     6
  9
$SURFV
 70
     6
  9
$UCSNAME
  2

  9
$UCSORG
 10
0.0
 20
0.0
 30
0.0
  9
$UCSXDIR
 10
1.0
 20
0.0
 30
0.0
  9
$UCSYDIR
 10
0.0
 20
1.0
 30
0.0
  9
$PUCSNAME
  2

  9
$PUCSORG
 10
0.0
 20
0.0
 30
0.0
  9
$PUCSXDIR
 10
1.0
 20
0.0
 30
0.0
  9
$PUCSYDIR
 10
0.0
 20
1.0
 30
0.0
  9
$USERI1
 70
     0
  9
$USERI2
 70
     0
  9
$USERI3
 70
     0
  9
$USERI4
 70
     0
  9
$USERI5
 70
     0
  9
$USERR1
 40
20.0
  9
$USERR2
 40
0.0
  9
$USERR3
 40
0.0
  9
$USERR4
 40
0.0
  9
$USERR5
 40
0.0
  9
$WORLDVIEW
 70
     1
  9
$SHADEDGE
 70
     3
  9
$SHADEDIF
 70
    70
  9
$TILEMODE
 70
     1
  9
$MAXACTVP
 70
    48
  9
$PINSBASE
 10
0.0
 20
0.0
 30
0.0
  9
$PLIMCHECK
 70
     0
  9
$PEXTMIN
 10
-100000000000000000000.0
 20
-100000000000000000000.0
 30
-100000000000000000000.0
  9
$PEXTMAX
 10
100000000000000000000.0
 20
100000000000000000000.0
 30
100000000000000000000.0
  9
$PLIMMIN
 10
0.0
 20
0.0
  9
$PLIMMAX
 10
12.0
 20
9.0
  9
$UNITMODE
 70
     0
  9
$VISRETAIN
 70
     0
  9
$PLINEGEN
 70
     0
  9
$PSLTSCALE
 70
     0
  9
$TREEDEPTH
 70
  3020
  9
$ATTDIA
 70
     0
  9
$ATTREQ
 70
     1
  9
$BLIPMODE
 70
     1
  9
$COORDS
 70
     1
  9
$DRAGMODE
 70
     2
  9
$OSMODE
 70
     0
  9
$HANDLING
 70
     0
  9
$HANDSEED
  5
F490
  0
ENDSEC
  0
SECTION
  2
TABLES
  0
TABLE
  2
LTYPE
 70
     3
  0
LTYPE
  2
CONTINUOUS
 70
     0
  3
実線
 72
    65
 73
     0
 40
0.0
  0
LTYPE
  2
DASHDOT
 70
     0
  3
____ _ ____ _ ____ _ ____ _ ____ _ ____ _ ____
 72
    65
 73
     4
 40
5.5
 49
4.0
 49
-0.6
 49
0.3
 49
-0.6
  0
LTYPE
  2
CENTER
 70
     0
  3
Center ____ _ ____ _ ____ _ ____ _ ____ _ ____
 72
    65
 73
     4
 40
1.0
 49
0.5
 49
-0.25
 49
0.0
 49
-0.25
  0
ENDTAB
  0
TABLE
  2
LAYER
 70
    12
  0
LAYER
  2
0
 70
     0
 62
     7
  6
CONTINUOUS
  0
LAYER
  2
BASIS
 70
     0
 62
     6
  6
DASHDOT
  0
LAYER
  2
OUTLINE
 70
     0
 62
     3
  6
CONTINUOUS
  0
LAYER
  2
DETAIL
 70
     0
 62
     5
  6
CONTINUOUS
  0
LAYER
  2
SIZE
 70
     0
 62
    30
  6
CONTINUOUS
  0
LAYER
  2
ARRANGE
 70
     0
 62
     1
  6
CONTINUOUS
  0
LAYER
  2
DEFPOINTS
 70
     0
 62
     7
  6
CONTINUOUS
  0
LAYER
  2
ETC
 70
     0
 62
    61
  6
CONTINUOUS
  0
LAYER
  2
FIX
 70
     0
 62
    11
  6
CONTINUOUS
  0
LAYER
  2
NOTE
 70
     0
 62
     4
  6
CONTINUOUS
  0
LAYER
  2
SERVICESPACE
 70
    64
 62
     2
  6
DASHDOT
  0
LAYER
  2
SYMBOLLINE
 70
    64
 62
    15
  6
CONTINUOUS
  0
ENDTAB
  0
TABLE
  2
STYLE
 70
     1
  0
STYLE
  2
STANDARD
 70
     0
 40
64.0
 41
0.9
 50
0.0
 71
     0
 42
64.0
  3
SIMPLEX.shx
  4
BIGFONT.shx
  0
ENDTAB
  0
TABLE
  2
APPID
 70
    19
  0
APPID
  2
ACAD
 70
     0
  0
APPID
  2
AUTOCAD_POSTSCRIPT_FIGURE
 70
     0
  0
APPID
  2
ACAD_EXEMPT_FROM_CAD_STANDARDS
 70
     0
  0
APPID
  2
ACAD_PSEXT
 70
     0
  0
APPID
  2
ACAUTHENVIRON
 70
     0
  0
APPID
  2
GENIUS_GENOENT_13
 70
     0
  0
APPID
  2
GENIUS_GENCFG_13
 70
     0
  0
APPID
  2
GENIUS_GENCFG0_13
 70
     0
  0
APPID
  2
GENIUS_GENCFG1_13
 70
     0
  0
APPID
  2
GENIUS_GENCFG2_13
 70
     0
  0
APPID
  2
GENIUS_GENCFG3_13
 70
     0
  0
APPID
  2
GENIUS_GENCFG4_13
 70
     0
  0
APPID
  2
GENIUS_GEVCFG0_13
 70
     0
  0
APPID
  2
CONTENTBLOCKICON
 70
     0
  0
APPID
  2
CONTENTBLOCKDESCRIPTION
 70
     0
  0
APPID
  2
ACAD_NAV_VCDISPLAY
 70
     0
  0
APPID
  2
ACAD_MLEADERVER
 70
     0
  0
APPID
  2
ACDBDYNAMICBLOCKTRUENAME
 70
     0
  0
APPID
  2
ACDBDYNAMICBLOCKGUID
 70
     0
  0
ENDTAB
  0
TABLE
  2
DIMSTYLE
 70
     1
  0
DIMSTYLE
  2
STANDARD
 70
     0
  3

  4

  5
_ORIGIN
  6

  7

 40
1.0
 41
12.0
 42
20.0
 43
200.0
 44
20.0
 45
0.0
 46
0.0
 47
0.0
 48
0.0
140
64.0
141
0.09
142
0.0
143
25.399999999999999
144
1.0
145
0.0
146
1.0
147
25.0
 71
     0
 72
     0
 73
     0
 74
     0
 75
     0
 76
     0
 77
     1
 78
     8
170
     0
171
     2
172
     1
173
     0
174
     1
175
     0
176
     7
177
     7
178
     7
  0
ENDTAB
  0
TABLE
  2
VIEW
 70
     1
  0
VIEW
  2
ALL
 70
     0
 40
4282.6198079999986
 10
0.0
 20
41.309904000000003
 41
5940.0
 11
0.0
 21
0.0
 31
1.0
 12
0.0
 22
0.0
 32
0.0
 42
50.0
 43
0.0
 44
0.0
 50
0.0
 71
     0
  0
ENDTAB
  0
TABLE
  2
UCS
 70
     0
  0
ENDTAB
  0
TABLE
  2
VPORT
 70
     1
  0
VPORT
  2
*ACTIVE
 70
     0
 10
0.0
 20
0.0
 11
1.0
 21
1.0
 12
120.32090630419501
 22
104.3014625370279
 13
0.0
 23
0.0
 14
1.0
 24
1.0
 15
0.0
 25
0.0
 16
0.0
 26
0.0
 36
1.0
 17
0.0
 27
0.0
 37
0.0
 40
1179.5982536110339
 41
1.747787610619469
 42
50.0
 43
0.0
 44
0.0
 50
0.0
 51
0.0
 71
     0
 72
  1000
 73
     1
 74
     3
 75
     0
 76
     0
 77
     0
 78
     0
  0
ENDTAB
  0
ENDSEC
  0
SECTION
  2
BLOCKS
  0
BLOCK
  8
0
  2
_ORIGIN
 70
     0
 10
0.0
 20
0.0
 30
0.0
  3
_ORIGIN
  1
_ORIGIN
  0
CIRCLE
  8
0
  6
CONTINUOUS
 62
     7
 10
0.0
 20
0.0
 30
0.0
 40
0.5
  0
LINE
  8
0
  6
CONTINUOUS
 62
     7
 10
0.0
 20
0.0
 30
0.0
 11
-1.0
 21
0.0
 31
0.0
  0
ENDBLK
  8
0
  0
ENDSEC
  0
SECTION
  2
ENTITIES
  0
TEXT
  8
ETC
  6
CONTINUOUS
 62
    61
 10
313.27229937681432
 20
626.1201180033554
 30
0.0
 40
64.0
  1
VD-07ZC13_4
 41
0.9
  0
TEXT
  8
ETC
  6
CONTINUOUS
 62
    61
 10
309.08630537681393
 20
508.16480798852422
 30
0.0
 40
64.0
  1
換気扇
 41
0.9
  0
TEXT
  8
ETC
  6
CONTINUOUS
 62
    61
 10
359.78770362536989
 20
400.01603510229887
 30
0.0
 40
40.0
  1
VD-07ZC13
 41
0.9
  0
LINE
  8
BASIS
  6
DASHDOT
 62
     6
 10
0.0
 20
185.8927580000001
 30
0.0
 11
0.0
 21
-33.062801999999976
 31
0.0
  0
CIRCLE
  8
FIX
  6
CONTINUOUS
 62
    11
 10
-81.0
 20
0.0129085000000373
 30
0.0
 40
10.0
  0
CIRCLE
  8
FIX
  6
CONTINUOUS
 62
    11
 10
-50.0
 20
0.0
 30
0.0
 40
10.0
  0
CIRCLE
  8
FIX
  6
CONTINUOUS
 62
    11
 10
50.0
 20
0.0
 30
0.0
 40
10.0
  0
CIRCLE
  8
FIX
  6
CONTINUOUS
 62
    11
 10
81.0
 20
0.0
 30
0.0
 40
10.0
  0
LINE
  8
NOTE
  6
CONTINUOUS
 62
     4
 10
81.0
 20
0.0
 30
0.0
 11
316.28356798458663
 21
264.8116364789787
 31
0.0
  0
LINE
  8
NOTE
  6
CONTINUOUS
 62
     4
 10
81.0
 20
0.0
 30
0.0
 11
112.312745347579
 21
22.683422418883421
 31
0.0
  0
LINE
  8
NOTE
  6
CONTINUOUS
 62
     4
 10
99.995274694023465
 20
35.19929633376114
 30
0.0
 11
81.0
 21
0.0
 31
0.0
  0
CIRCLE
  8
ARRANGE
  6
CONTINUOUS
 62
     1
 10
0.0
 20
0.0
 30
0.0
 40
40.0
  0
POINT
  8
ARRANGE
  6
CONTINUOUS
 62
     1
 10
0.0
 20
0.0
 30
0.0
 50
90.0
  0
TEXT
  8
NOTE
  6
CONTINUOUS
 62
     4
 10
-313.39012014522859
 20
75.630963692714317
 30
0.0
 40
64.0
  1
EA
 41
0.9
  0
LINE
  8
OUTLINE
  6
CONTINUOUS
 62
     3
 10
-71.178308000000015
 20
47.092160000000042
 30
0.0
 11
-72.000305000000026
 21
0.0
 31
0.0
  0
LINE
  8
NOTE
  6
CENTER
 62
     4
 10
50.0
 20
9.0258170000000746
 30
0.0
 11
50.0
 21
-9.0
 31
0.0
  0
LINE
  8
NOTE
  6
CENTER
 62
     4
 10
-50.0
 20
9.0258170000000746
 30
0.0
 11
-50.0
 21
-9.0
 31
0.0
  0
LINE
  8
NOTE
  6
CENTER
 62
     4
 10
81.0
 20
9.0258170000000746
 30
0.0
 11
81.0
 21
-9.0
 31
0.0
  0
LINE
  8
NOTE
  6
CENTER
 62
     4
 10
-81.0
 20
9.0258170000000746
 30
0.0
 11
-81.0
 21
-9.0
 31
0.0
  0
LINE
  8
DETAIL
  6
CONTINUOUS
 62
     5
 10
20.452374999999851
 20
148.8000000000001
 30
0.0
 11
-49.403796000000057
 21
148.8000000000001
 31
0.0
  0
LINE
  8
OUTLINE
  6
CONTINUOUS
 62
     3
 10
-39.449917000000141
 20
148.80000000000001
 30
0.0
 11
-49.403796000000057
 21
148.80000000000001
 31
0.0
  0
LINE
  8
DETAIL
  6
CONTINUOUS
 62
     5
 10
24.55237499999998
 20
148.8000000000001
 30
0.0
 11
24.108422999999899
 21
148.8000000000001
 31
0.0
  0
LINE
  8
OUTLINE
  6
CONTINUOUS
 62
     3
 10
24.55237499999998
 20
148.80000000000001
 30
0.0
 11
24.108422999999899
 21
148.80000000000001
 31
0.0
  0
LINE
  8
DETAIL
  6
CONTINUOUS
 62
     5
 10
41.334178999999949
 20
146.048866
 30
0.0
 11
41.36865899999998
 21
144.07348099999999
 31
0.0
  0
LINE
  8
OUTLINE
  6
CONTINUOUS
 62
     3
 10
41.334178999999949
 20
146.048866
 30
0.0
 11
41.36865899999998
 21
144.07348099999999
 31
0.0
  0
ARC
  8
DETAIL
  6
CONTINUOUS
 62
     5
 10
38.534604999999829
 20
146.0
 30
0.0
 40
2.7999999999999998
 50
0.9999999999952488
 51
90.0
  0
ARC
  8
OUTLINE
  6
CONTINUOUS
 62
     3
 10
38.534604999999829
 20
146.0
 30
0.0
 40
2.7999999999999998
 50
0.9999999999952488
 51
90.0
  0
LINE
  8
DETAIL
  6
CONTINUOUS
 62
     5
 10
-51.125731000000087
 20
144.07348099999999
 30
0.0
 11
41.36865899999998
 21
144.07348099999999
 31
0.0
  0
LINE
  8
OUTLINE
  6
CONTINUOUS
 62
     3
 10
40.568536999999878
 20
144.07348099999999
 30
0.0
 11
41.36865899999998
 21
144.07348099999999
 31
0.0
  0
LINE
  8
DETAIL
  6
CONTINUOUS
 62
     5
 10
38.534604999999829
 20
148.8000000000001
 30
0.0
 11
20.452374999999851
 21
148.8000000000001
 31
0.0
  0
LINE
  8
OUTLINE
  6
CONTINUOUS
 62
     3
 10
38.534604999999829
 20
148.80000000000001
 30
0.0
 11
23.45008299999995
 21
148.80000000000001
 31
0.0
  0
LINE
  8
DETAIL
  6
CONTINUOUS
 62
     5
 10
23.45008299999995
 20
172.0
 30
0.0
 11
23.45008299999995
 21
148.8000000000001
 31
0.0
  0
LINE
  8
OUTLINE
  6
CONTINUOUS
 62
     3
 10
23.45008299999995
 20
172.0
 30
0.0
 11
23.45008299999995
 21
148.80000000000001
 31
0.0
  0
ARC
  8
DETAIL
  6
CONTINUOUS
 62
     5
 10
17.95008299999995
 20
172.0
 30
0.0
 40
5.5
 50
0.0
 51
90.0
  0
ARC
  8
OUTLINE
  6
CONTINUOUS
 62
     3
 10
17.95008299999995
 20
172.0
 30
0.0
 40
5.5
 50
0.0
 51
90.0
  0
LINE
  8
DETAIL
  6
CONTINUOUS
 62
     5
 10
17.95008299999995
 20
177.5
 30
0.0
 11
-7.9999170000000959
 21
177.5
 31
0.0
  0
LINE
  8
OUTLINE
  6
CONTINUOUS
 62
     3
 10
17.95008299999995
 20
177.5
 30
0.0
 11
-7.9999170000000959
 21
177.5
 31
0.0
  0
LINE
  8
DETAIL
  6
CONTINUOUS
 62
     5
 10
-39.449917000000141
 20
172.0
 30
0.0
 11
-39.449917000000141
 21
148.8000000000001
 31
0.0
  0
LINE
  8
OUTLINE
  6
CONTINUOUS
 62
     3
 10
-39.449917000000141
 20
172.0
 30
0.0
 11
-39.449917000000141
 21
148.80000000000001
 31
0.0
  0
ARC
  8
DETAIL
  6
CONTINUOUS
 62
     5
 10
-33.949917000000141
 20
172.0
 30
0.0
 40
5.5
 50
90.0
 51
180.0
  0
ARC
  8
OUTLINE
  6
CONTINUOUS
 62
     3
 10
-33.949917000000141
 20
172.0
 30
0.0
 40
5.5
 50
90.0
 51
180.0
  0
LINE
  8
DETAIL
  6
CONTINUOUS
 62
     5
 10
-33.949917000000141
 20
177.5
 30
0.0
 11
-7.9999170000000959
 21
177.5
 31
0.0
  0
LINE
  8
OUTLINE
  6
CONTINUOUS
 62
     3
 10
-33.949917000000141
 20
177.5
 30
0.0
 11
-7.9999170000000959
 21
177.5
 31
0.0
  0
LINE
  8
DETAIL
  6
CONTINUOUS
 62
     5
 10
104.47310899999999
 20
0.0
 30
0.0
 11
0.0
 21
0.0
 31
0.0
  0
LINE
  8
OUTLINE
  6
CONTINUOUS
 62
     3
 10
104.47310899999999
 20
0.0
 30
0.0
 11
72.0
 21
0.0
 31
0.0
  0
LINE
  8
DETAIL
  6
CONTINUOUS
 62
     5
 10
104.53416299999979
 20
-8.8886989999999741
 30
0.0
 11
104.972424
 21
-0.5261679999999842
 31
0.0
  0
LINE
  8
OUTLINE
  6
CONTINUOUS
 62
     3
 10
104.53416299999979
 20
-8.8886989999999741
 30
0.0
 11
104.972424
 21
-0.5261679999999842
 31
0.0
  0
LINE
  8
DETAIL
  6
CONTINUOUS
 62
     5
 10
97.894714999999906
 20
-15.0
 30
0.0
 11
0.0
 21
-15.0
 31
0.0
  0
LINE
  8
OUTLINE
  6
CONTINUOUS
 62
     3
 10
97.894714999999906
 20
-15.0
 30
0.0
 11
0.0
 21
-15.0
 31
0.0
  0
LINE
  8
DETAIL
  6
CONTINUOUS
 62
     5
 10
98.445398999999952
 20
-14.780300000000009
 30
0.0
 11
104.4410800000001
 21
-9.0906109999999671
 31
0.0
  0
LINE
  8
OUTLINE
  6
CONTINUOUS
 62
     3
 10
98.445398999999952
 20
-14.780300000000009
 30
0.0
 11
104.4410800000001
 21
-9.0906109999999671
 31
0.0
  0
LINE
  8
DETAIL
  6
CONTINUOUS
 62
     5
 10
0.0
 20
-9.0082229999999299
 30
0.0
 11
104.5023689999998
 21
-9.0082229999999299
 31
0.0
  0
ARC
  8
DETAIL
  6
CONTINUOUS
 62
     5
 10
97.894714999999906
 20
-14.19999999999993
 30
0.0
 40
0.8
 50
270.0
 51
313.50000000001108
  0
ARC
  8
OUTLINE
  6
CONTINUOUS
 62
     3
 10
97.894714999999906
 20
-14.19999999999993
 30
0.0
 40
0.8
 50
270.0
 51
313.50000000001108
  0
ARC
  8
DETAIL
  6
CONTINUOUS
 62
     5
 10
104.23457400000009
 20
-8.8729990000000498
 30
0.0
 40
0.3
 50
313.50000000001108
 51
357.00000000000091
  0
ARC
  8
OUTLINE
  6
CONTINUOUS
 62
     3
 10
104.23457400000009
 20
-8.8729989999999361
 30
0.0
 40
0.3
 50
313.50000000001108
 51
357.00000000000091
  0
LINE
  8
DETAIL
  6
CONTINUOUS
 62
     5
 10
0.0
 20
-9.0082229999999299
 30
0.0
 11
-104.5023700000002
 21
-9.0082229999999299
 31
0.0
  0
LINE
  8
DETAIL
  6
CONTINUOUS
 62
     5
 10
-97.894716000000017
 20
-15.0
 30
0.0
 11
0.0
 21
-15.0
 31
0.0
  0
LINE
  8
OUTLINE
  6
CONTINUOUS
 62
     3
 10
-97.894716000000017
 20
-15.0
 30
0.0
 11
0.0
 21
-15.0
 31
0.0
  0
LINE
  8
DETAIL
  6
CONTINUOUS
 62
     5
 10
-104.4731100000001
 20
0.0
 30
0.0
 11
0.0
 21
0.0
 31
0.0
  0
LINE
  8
OUTLINE
  6
CONTINUOUS
 62
     3
 10
-104.4731100000001
 20
0.0
 30
0.0
 11
-72.000305000000026
 21
0.0
 31
0.0
  0
ARC
  8
DETAIL
  6
CONTINUOUS
 62
     5
 10
-104.23457500000021
 20
-8.8729990000000498
 30
0.0
 40
0.3
 50
182.99999999999909
 51
226.4999999999888
  0
ARC
  8
OUTLINE
  6
CONTINUOUS
 62
     3
 10
-104.23457500000021
 20
-8.8729989999999361
 30
0.0
 40
0.3
 50
182.99999999999909
 51
226.4999999999888
  0
LINE
  8
DETAIL
  6
CONTINUOUS
 62
     5
 10
-98.445400000000063
 20
-14.780300000000009
 30
0.0
 11
-104.4410810000001
 21
-9.0906109999999671
 31
0.0
  0
LINE
  8
OUTLINE
  6
CONTINUOUS
 62
     3
 10
-98.445400000000063
 20
-14.780300000000009
 30
0.0
 11
-104.4410810000001
 21
-9.0906109999999671
 31
0.0
  0
LINE
  8
DETAIL
  6
CONTINUOUS
 62
     5
 10
-104.5341640000001
 20
-8.8886989999999741
 30
0.0
 11
-104.972425
 21
-0.5261679999999842
 31
0.0
  0
LINE
  8
OUTLINE
  6
CONTINUOUS
 62
     3
 10
-104.5341640000001
 20
-8.8886989999999741
 30
0.0
 11
-104.972425
 21
-0.5261679999999842
 31
0.0
  0
ARC
  8
DETAIL
  6
CONTINUOUS
 62
     5
 10
-97.894716000000017
 20
-14.19999999999993
 30
0.0
 40
0.8
 50
226.4999999999888
 51
270.0
  0
ARC
  8
OUTLINE
  6
CONTINUOUS
 62
     3
 10
-97.894716000000017
 20
-14.19999999999993
 30
0.0
 40
0.8
 50
226.4999999999888
 51
270.0
  0
ARC
  8
DETAIL
  6
CONTINUOUS
 62
     5
 10
104.47310899999999
 20
-0.5
 30
0.0
 40
0.5
 50
357.00000000000091
 51
90.0
  0
ARC
  8
OUTLINE
  6
CONTINUOUS
 62
     3
 10
104.47310899999999
 20
-0.5
 30
0.0
 40
0.5
 50
357.00000000000091
 51
90.0
  0
ARC
  8
DETAIL
  6
CONTINUOUS
 62
     5
 10
-104.4731100000001
 20
-0.5
 30
0.0
 40
0.5
 50
90.0
 51
182.99999999999909
  0
ARC
  8
OUTLINE
  6
CONTINUOUS
 62
     3
 10
-104.4731100000001
 20
-0.5
 30
0.0
 40
0.5
 50
90.0
 51
182.99999999999909
  0
LINE
  8
DETAIL
  6
CONTINUOUS
 62
     5
 10
-69.199072000000115
 20
160.4825470000001
 30
0.0
 11
-72.000305000000026
 21
0.0
 31
0.0
  0
LINE
  8
OUTLINE
  6
CONTINUOUS
 62
     3
 10
-69.199072000000115
 20
160.4825470000001
 30
0.0
 11
-69.653151000000094
 21
134.4683620000001
 31
0.0
  0
LINE
  8
DETAIL
  6
CONTINUOUS
 62
     5
 10
-69.180703000000108
 20
161.53490400000001
 30
0.0
 11
-69.199072000000115
 21
160.4825470000001
 31
0.0
  0
LINE
  8
OUTLINE
  6
CONTINUOUS
 62
     3
 10
-69.180703000000108
 20
161.53490400000001
 30
0.0
 11
-69.199072000000115
 21
160.4825470000001
 31
0.0
  0
LINE
  8
DETAIL
  6
CONTINUOUS
 62
     5
 10
-59.967417000000069
 20
145.01745199999991
 30
0.0
 11
-62.498706000000077
 21
0.0
 31
0.0
  0
ARC
  8
DETAIL
  6
CONTINUOUS
 62
     5
 10
-67.451561000000083
 20
146.0
 30
0.0
 40
2.0
 50
90.0
 51
178.99999999999829
  0
LINE
  8
DETAIL
  6
CONTINUOUS
 62
     5
 10
-56.199796000000113
 20
158.0
 30
0.0
 11
-56.199796000000113
 21
163.5
 31
0.0
  0
LINE
  8
OUTLINE
  6
CONTINUOUS
 62
     3
 10
-56.199796000000113
 20
158.0
 30
0.0
 11
-56.199796000000113
 21
163.5
 31
0.0
  0
LINE
  8
DETAIL
  6
CONTINUOUS
 62
     5
 10
-49.403796000000057
 20
148.0
 30
0.0
 11
-56.199796000000113
 21
148.0
 31
0.0
  0
LINE
  8
DETAIL
  6
CONTINUOUS
 62
     5
 10
-49.403796000000057
 20
146.01745199999991
 30
0.0
 11
-49.403796000000057
 21
148.8000000000001
 31
0.0
  0
LINE
  8
DETAIL
  6
CONTINUOUS
 62
     5
 10
-65.403796000000057
 20
148.0
 30
0.0
 11
-65.403796000000057
 21
152.0
 31
0.0
  0
LINE
  8
DETAIL
  6
CONTINUOUS
 62
     5
 10
-64.403796000000057
 20
153.0
 30
0.0
 11
-56.199796000000113
 21
153.0
 31
0.0
  0
ARC
  8
DETAIL
  6
CONTINUOUS
 62
     5
 10
-50.403796000000057
 20
152.0
 30
0.0
 40
1.0
 50
0.0
 51
90.0
  0
ARC
  8
OUTLINE
  6
CONTINUOUS
 62
     3
 10
-50.403796000000057
 20
152.0
 30
0.0
 40
1.0
 50
0.0
 51
90.0
  0
ARC
  8
DETAIL
  6
CONTINUOUS
 62
     5
 10
-64.403796000000057
 20
152.0
 30
0.0
 40
1.0
 50
90.0
 51
180.0
  0
LINE
  8
DETAIL
  6
CONTINUOUS
 62
     5
 10
-59.967417000000069
 20
145.01745199999991
 30
0.0
 11
-50.403796000000057
 21
145.01745199999991
 31
0.0
  0
LINE
  8
DETAIL
  6
CONTINUOUS
 62
     5
 10
-56.199796000000113
 20
153.0
 30
0.0
 11
-50.403796000000057
 21
153.0
 31
0.0
  0
LINE
  8
OUTLINE
  6
CONTINUOUS
 62
     3
 10
-52.904177000000118
 20
153.0
 30
0.0
 11
-50.403796000000057
 21
153.0
 31
0.0
  0
LINE
  8
DETAIL
  6
CONTINUOUS
 62
     5
 10
-56.199796000000113
 20
148.0
 30
0.0
 11
-67.451561000000083
 21
148.0
 31
0.0
  0
ARC
  8
DETAIL
  6
CONTINUOUS
 62
     5
 10
-50.403796000000057
 20
146.01745199999991
 30
0.0
 40
1.0
 50
270.0
 51
0.0
  0
LINE
  8
DETAIL
  6
CONTINUOUS
 62
     5
 10
-56.199796000000113
 20
163.5
 30
0.0
 11
-67.181007000000136
 21
163.5
 31
0.0
  0
LINE
  8
OUTLINE
  6
CONTINUOUS
 62
     3
 10
-56.199796000000113
 20
163.5
 30
0.0
 11
-67.181007000000136
 21
163.5
 31
0.0
  0
ARC
  8
DETAIL
  6
CONTINUOUS
 62
     5
 10
-67.181007000000136
 20
161.5
 30
0.0
 40
2.0
 50
90.0
 51
178.99999999999829
  0
ARC
  8
OUTLINE
  6
CONTINUOUS
 62
     3
 10
-67.181007000000136
 20
161.5
 30
0.0
 40
2.0
 50
90.0
 51
178.99999999999829
  0
LINE
  8
DETAIL
  6
CONTINUOUS
 62
     5
 10
-49.403796000000057
 20
148.8000000000001
 30
0.0
 11
-49.403796000000057
 21
152.0
 31
0.0
  0
LINE
  8
OUTLINE
  6
CONTINUOUS
 62
     3
 10
-49.403796000000057
 20
148.80000000000001
 30
0.0
 11
-49.403796000000057
 21
152.0
 31
0.0
  0
LINE
  8
DETAIL
  6
CONTINUOUS
 62
     5
 10
-148.15687600000001
 20
126.5
 30
0.0
 11
-145.24424900000011
 21
129.41262599999999
 31
0.0
  0
LINE
  8
OUTLINE
  6
CONTINUOUS
 62
     3
 10
-148.15687600000001
 20
126.5
 30
0.0
 11
-145.24424900000011
 21
129.41262599999999
 31
0.0
  0
LINE
  8
DETAIL
  6
CONTINUOUS
 62
     5
 10
-148.15687600000001
 20
126.5
 30
0.0
 11
-178.15687600000001
 21
126.5
 31
0.0
  0
LINE
  8
OUTLINE
  6
CONTINUOUS
 62
     3
 10
-148.15687600000001
 20
126.5
 30
0.0
 11
-178.15687600000001
 21
126.5
 31
0.0
  0
LINE
  8
DETAIL
  6
CONTINUOUS
 62
     5
 10
-148.15687600000001
 20
53.5
 30
0.0
 11
-145.24424900000011
 21
50.587372999999957
 31
0.0
  0
LINE
  8
OUTLINE
  6
CONTINUOUS
 62
     3
 10
-148.15687600000001
 20
53.5
 30
0.0
 11
-145.24424900000011
 21
50.587372999999957
 31
0.0
  0
LINE
  8
DETAIL
  6
CONTINUOUS
 62
     5
 10
-148.15687600000001
 20
53.5
 30
0.0
 11
-178.15687600000001
 21
53.5
 31
0.0
  0
LINE
  8
OUTLINE
  6
CONTINUOUS
 62
     3
 10
-148.15687600000001
 20
53.5
 30
0.0
 11
-178.15687600000001
 21
53.5
 31
0.0
  0
LINE
  8
DETAIL
  6
CONTINUOUS
 62
     5
 10
-126.156876
 20
131.9926390000002
 30
0.0
 11
-126.156876
 21
125.139886
 31
0.0
  0
LINE
  8
OUTLINE
  6
CONTINUOUS
 62
     3
 10
-126.156876
 20
131.9926390000002
 30
0.0
 11
-126.156876
 21
130.25428400000001
 31
0.0
  0
LINE
  8
DETAIL
  6
CONTINUOUS
 62
     5
 10
-69.653151000000094
 20
134.4683620000001
 30
0.0
 11
-124.1743290000001
 21
133.99256299999999
 31
0.0
  0
LINE
  8
OUTLINE
  6
CONTINUOUS
 62
     3
 10
-69.653151000000094
 20
134.4683620000001
 30
0.0
 11
-124.1743290000001
 21
133.99256299999999
 31
0.0
  0
ARC
  8
DETAIL
  6
CONTINUOUS
 62
     5
 10
-124.156876
 20
131.9926390000002
 30
0.0
 40
2.0
 50
90.500000000004576
 51
180.0
  0
ARC
  8
OUTLINE
  6
CONTINUOUS
 62
     3
 10
-124.156876
 20
131.9926390000002
 30
0.0
 40
2.0
 50
90.500000000004576
 51
180.0
  0
LINE
  8
DETAIL
  6
CONTINUOUS
 62
     5
 10
-178.15687600000001
 20
126.5
 30
0.0
 11
-178.15687600000001
 21
53.5
 31
0.0
  0
LINE
  8
OUTLINE
  6
CONTINUOUS
 62
     3
 10
-178.15687600000001
 20
126.5
 30
0.0
 11
-178.15687600000001
 21
53.5
 31
0.0
  0
LINE
  8
DETAIL
  6
CONTINUOUS
 62
     5
 10
-109.232078
 20
49.501414000000068
 30
0.0
 11
-72.297078000000056
 21
48.111637999999971
 31
0.0
  0
LINE
  8
OUTLINE
  6
CONTINUOUS
 62
     3
 10
-109.232078
 20
49.501414000000068
 30
0.0
 11
-72.297078000000056
 21
48.111637999999971
 31
0.0
  0
LINE
  8
DETAIL
  6
CONTINUOUS
 62
     5
 10
-109.1858050000001
 20
49.500209000000041
 30
0.0
 11
-143.8589650000001
 21
50.001796000000013
 31
0.0
  0
LINE
  8
OUTLINE
  6
CONTINUOUS
 62
     3
 10
-109.1858050000001
 20
49.500209000000041
 30
0.0
 11
-143.8589650000001
 21
50.001796000000013
 31
0.0
  0
ARC
  8
DETAIL
  6
CONTINUOUS
 62
     5
 10
-143.83003600000009
 20
52.001587000000093
 30
0.0
 40
2.0
 50
225.00000000000921
 51
269.17120799999861
  0
ARC
  8
OUTLINE
  6
CONTINUOUS
 62
     3
 10
-143.83003600000009
 20
52.001586999999972
 30
0.0
 40
2.0
 50
225.00000000000921
 51
269.17120799999861
  0
LINE
  8
DETAIL
  6
CONTINUOUS
 62
     5
 10
-126.156876
 20
130.25428400000001
 30
0.0
 11
-143.8589650000001
 21
129.99820299999999
 31
0.0
  0
LINE
  8
OUTLINE
  6
CONTINUOUS
 62
     3
 10
-126.156876
 20
130.25428400000001
 30
0.0
 11
-143.8589650000001
 21
129.99820299999999
 31
0.0
  0
ARC
  8
DETAIL
  6
CONTINUOUS
 62
     5
 10
-143.83003600000009
 20
127.998412
 30
0.0
 40
2.0
 50
90.828792000001414
 51
134.99999999999079
  0
ARC
  8
OUTLINE
  6
CONTINUOUS
 62
     3
 10
-143.83003600000009
 20
127.998412
 30
0.0
 40
2.0
 50
90.828792000001414
 51
134.99999999999079
  0
ARC
  8
DETAIL
  6
CONTINUOUS
 62
     5
 10
-72.334679000000051
 20
47.112344999999998
 30
0.0
 40
1.0
 50
358.99999999999818
 51
87.845113000000282
  0
ARC
  8
OUTLINE
  6
CONTINUOUS
 62
     3
 10
-72.334679000000051
 20
47.112345000000118
 30
0.0
 40
1.0
 50
358.99999999999818
 51
87.845113000000282
  0
LINE
  8
DETAIL
  6
CONTINUOUS
 62
     5
 10
-109.156876
 20
125.28824300000009
 30
0.0
 11
-109.156876
 21
49.498584000000051
 31
0.0
  0
LINE
  8
BASIS
  6
DASHDOT
 62
     6
 10
-52.649336000000062
 20
90.0
 30
0.0
 11
-192.20061600000011
 21
90.0
 31
0.0
  0
LINE
  8
DETAIL
  6
CONTINUOUS
 62
     5
 10
-148.15687600000001
 20
126.5
 30
0.0
 11
-148.15687600000001
 21
53.5
 31
0.0
  0
LINE
  8
DETAIL
  6
CONTINUOUS
 62
     5
 10
-144.67041100000009
 20
129.81328700000009
 30
0.0
 11
-144.67041100000009
 21
50.186712000000057
 31
0.0
  0
LINE
  8
DETAIL
  6
CONTINUOUS
 62
     5
 10
-109.156876
 20
125.28824300000009
 30
0.0
 11
-126.156876
 21
125.139886
 31
0.0
  0
ARC
  8
DETAIL
  6
CONTINUOUS
 62
     5
 10
-75.120204000000058
 20
31.25896599999999
 30
0.0
 40
100.0
 50
86.899658000011073
 51
109.8992180000032
  0
LINE
  8
DETAIL
  6
CONTINUOUS
 62
     5
 10
-89.606217000000015
 20
130.20418000000009
 30
0.0
 11
-126.156876
 21
129.88520800000001
 31
0.0
  0
ARC
  8
DETAIL
  6
CONTINUOUS
 62
     5
 10
-57.660147000000052
 20
157.0
 30
0.0
 40
1.0
 50
90.0
 51
163.3007559999966
  0
ARC
  8
DETAIL
  6
CONTINUOUS
 62
     5
 10
-55.148208000000068
 20
157.0
 30
0.0
 40
1.0
 50
16.699244000003389
 51
90.0
  0
ARC
  8
OUTLINE
  6
CONTINUOUS
 62
     3
 10
-55.148208000000068
 20
157.0
 30
0.0
 40
1.0
 50
16.699244000003389
 51
90.0
  0
LINE
  8
DETAIL
  6
CONTINUOUS
 62
     5
 10
-57.660147000000052
 20
158.0
 30
0.0
 11
-55.148208000000068
 21
158.0
 31
0.0
  0
LINE
  8
OUTLINE
  6
CONTINUOUS
 62
     3
 10
-56.199796000000113
 20
158.0
 30
0.0
 11
-55.148208000000068
 21
158.0
 31
0.0
  0
LINE
  8
DETAIL
  6
CONTINUOUS
 62
     5
 10
-51.241057000000069
 20
145.01745199999991
 30
0.0
 11
-47.940303000000092
 21
118.0
 31
0.0
  0
LINE
  8
DETAIL
  6
CONTINUOUS
 62
     5
 10
69.974602999999888
 20
116.034904
 30
0.0
 11
72.0
 21
0.0
 31
0.0
  0
LINE
  8
OUTLINE
  6
CONTINUOUS
 62
     3
 10
69.974602999999888
 20
116.034904
 30
0.0
 11
72.0
 21
0.0
 31
0.0
  0
LINE
  8
DETAIL
  6
CONTINUOUS
 62
     5
 10
40.875282999999847
 20
126.5
 30
0.0
 11
40.568536999999878
 21
144.07348099999999
 31
0.0
  0
LINE
  8
OUTLINE
  6
CONTINUOUS
 62
     3
 10
40.875282999999847
 20
126.5
 30
0.0
 11
40.568536999999878
 21
144.07348099999999
 31
0.0
  0
LINE
  8
DETAIL
  6
CONTINUOUS
 62
     5
 10
48.70312100000001
 20
126.5
 30
0.0
 11
40.875282999999847
 21
126.5
 31
0.0
  0
LINE
  8
OUTLINE
  6
CONTINUOUS
 62
     3
 10
48.70312100000001
 20
126.5
 30
0.0
 11
40.875282999999847
 21
126.5
 31
0.0
  0
LINE
  8
DETAIL
  6
CONTINUOUS
 62
     5
 10
67.974906999999803
 20
118.0
 30
0.0
 11
-51.118239000000131
 21
118.0
 31
0.0
  0
LINE
  8
OUTLINE
  6
CONTINUOUS
 62
     3
 10
67.974906999999803
 20
118.0
 30
0.0
 11
59.0
 21
118.0
 31
0.0
  0
LINE
  8
DETAIL
  6
CONTINUOUS
 62
     5
 10
-58.61797300000012
 20
157.2873470000001
 30
0.0
 11
-59.904177000000118
 21
153.0
 31
0.0
  0
LINE
  8
DETAIL
  6
CONTINUOUS
 62
     5
 10
-54.190382000000113
 20
157.2873470000001
 30
0.0
 11
-52.904177000000118
 21
153.0
 31
0.0
  0
LINE
  8
OUTLINE
  6
CONTINUOUS
 62
     3
 10
-54.190382000000113
 20
157.28734700000001
 30
0.0
 11
-52.904177000000118
 21
153.0
 31
0.0
  0
LINE
  8
DETAIL
  6
CONTINUOUS
 62
     5
 10
-55.476677000000109
 20
142.5
 30
0.0
 11
-60.011359000000077
 21
142.5
 31
0.0
  0
LINE
  8
DETAIL
  6
CONTINUOUS
 62
     5
 10
-53.117935000000102
 20
119.96509500000001
 30
0.0
 11
-53.476982000000127
 21
140.53490400000001
 31
0.0
  0
ARC
  8
DETAIL
  6
CONTINUOUS
 62
     5
 10
-55.476677000000109
 20
140.5
 30
0.0
 40
2.0
 50
0.9999999999952488
 51
90.0
  0
ARC
  8
DETAIL
  6
CONTINUOUS
 62
     5
 10
67.974906999999803
 20
116.0
 30
0.0
 40
2.0
 50
0.9999999999952488
 51
90.0
  0
ARC
  8
OUTLINE
  6
CONTINUOUS
 62
     3
 10
67.974906999999803
 20
116.0
 30
0.0
 40
2.0
 50
0.9999999999952488
 51
90.0
  0
ARC
  8
DETAIL
  6
CONTINUOUS
 62
     5
 10
-51.118239000000131
 20
120.0
 30
0.0
 40
2.0
 50
180.99999999999531
 51
270.0
  0
LINE
  8
DETAIL
  6
CONTINUOUS
 62
     5
 10
58.5
 20
125.0
 30
0.0
 11
43.5
 21
125.0
 31
0.0
  0
LINE
  8
OUTLINE
  6
CONTINUOUS
 62
     3
 10
58.5
 20
125.0
 30
0.0
 11
52.092813999999862
 21
125.0
 31
0.0
  0
LINE
  8
DETAIL
  6
CONTINUOUS
 62
     5
 10
43.0
 20
124.5
 30
0.0
 11
43.0
 21
118.0
 31
0.0
  0
LINE
  8
DETAIL
  6
CONTINUOUS
 62
     5
 10
59.0
 20
124.5
 30
0.0
 11
59.0
 21
118.0
 31
0.0
  0
LINE
  8
OUTLINE
  6
CONTINUOUS
 62
     3
 10
59.0
 20
124.5
 30
0.0
 11
59.0
 21
118.0
 31
0.0
  0
ARC
  8
DETAIL
  6
CONTINUOUS
 62
     5
 10
58.5
 20
124.5
 30
0.0
 40
0.5
 50
0.0
 51
90.0
  0
ARC
  8
OUTLINE
  6
CONTINUOUS
 62
     3
 10
58.5
 20
124.5
 30
0.0
 40
0.5
 50
0.0
 51
90.0
  0
ARC
  8
DETAIL
  6
CONTINUOUS
 62
     5
 10
43.5
 20
124.5
 30
0.0
 40
0.5
 50
90.0
 51
180.0
  0
LINE
  8
DETAIL
  6
CONTINUOUS
 62
     5
 10
48.703120737848167
 20
126.49999958100931
 30
0.0
 11
49.226879419311437
 21
126.4669133375445
 31
0.0
  0
LINE
  8
DETAIL
  6
CONTINUOUS
 62
     5
 10
49.226879419311437
 20
126.4669133375445
 30
0.0
 11
49.741661957531157
 21
126.3693039395279
 31
0.0
  0
LINE
  8
DETAIL
  6
CONTINUOUS
 62
     5
 10
49.741661957531157
 20
126.3693039395279
 30
0.0
 11
50.244950691951658
 21
126.2096453855264
 31
0.0
  0
LINE
  8
DETAIL
  6
CONTINUOUS
 62
     5
 10
50.244950691951658
 20
126.2096453855264
 30
0.0
 11
50.73422796201703
 21
125.99041167410699
 31
0.0
  0
LINE
  8
DETAIL
  6
CONTINUOUS
 62
     5
 10
50.73422796201703
 20
125.99041167410699
 30
0.0
 11
51.206976107171499
 21
125.71407680383641
 31
0.0
  0
LINE
  8
DETAIL
  6
CONTINUOUS
 62
     5
 10
51.206976107171499
 20
125.71407680383641
 30
0.0
 11
51.660677466859511
 21
125.3831147732816
 31
0.0
  0
LINE
  8
DETAIL
  6
CONTINUOUS
 62
     5
 10
51.660677466859511
 20
125.3831147732816
 30
0.0
 11
52.092814380525169
 21
124.99999958100931
 31
0.0
  0
LINE
  8
OUTLINE
  6
CONTINUOUS
 62
     3
 10
48.703120737848167
 20
126.4999995810094
 30
0.0
 11
49.226879419311437
 21
126.4669133375446
 31
0.0
  0
LINE
  8
OUTLINE
  6
CONTINUOUS
 62
     3
 10
49.226879419311437
 20
126.4669133375446
 30
0.0
 11
49.741661957531157
 21
126.369303939528
 31
0.0
  0
LINE
  8
OUTLINE
  6
CONTINUOUS
 62
     3
 10
49.741661957531157
 20
126.369303939528
 30
0.0
 11
50.244950691951658
 21
126.2096453855265
 31
0.0
  0
LINE
  8
OUTLINE
  6
CONTINUOUS
 62
     3
 10
50.244950691951658
 20
126.2096453855265
 30
0.0
 11
50.73422796201703
 21
125.99041167410699
 31
0.0
  0
LINE
  8
OUTLINE
  6
CONTINUOUS
 62
     3
 10
50.73422796201703
 20
125.99041167410699
 30
0.0
 11
51.206976107171499
 21
125.71407680383641
 31
0.0
  0
LINE
  8
OUTLINE
  6
CONTINUOUS
 62
     3
 10
51.206976107171499
 20
125.71407680383641
 30
0.0
 11
51.660677466859511
 21
125.3831147732816
 31
0.0
  0
LINE
  8
OUTLINE
  6
CONTINUOUS
 62
     3
 10
51.660677466859511
 20
125.3831147732816
 30
0.0
 11
52.092814380525169
 21
124.9999995810094
 31
0.0
  0
LINE
  8
SIZE
  6
CONTINUOUS
 62
    30
 10
-50.0
 20
-29.0
 30
0.0
 11
-50.0
 21
-217.1612174576708
 31
0.0
  0
LINE
  8
SIZE
  6
CONTINUOUS
 62
    30
 10
50.0
 20
-29.0
 30
0.0
 11
50.0
 21
-217.1612174576708
 31
0.0
  0
LINE
  8
SIZE
  6
CONTINUOUS
 62
    30
 10
-38.0
 20
-197.1612174576708
 30
0.0
 11
38.0
 21
-197.1612174576708
 31
0.0
  0
LINE
  8
SIZE
  6
CONTINUOUS
 62
    30
 10
50.0
 20
-197.1612174576708
 30
0.0
 11
273.84615847426312
 21
-197.1612174576708
 31
0.0
  0
CIRCLE
  8
SIZE
  6
CONTINUOUS
 62
    30
 10
-50.0
 20
-197.1612174576708
 30
0.0
 40
6.0
  0
LINE
  8
SIZE
  6
CONTINUOUS
 62
    30
 10
-50.0
 20
-197.1612174576708
 30
0.0
 11
-38.0
 21
-197.1612174576708
 31
0.0
  0
CIRCLE
  8
SIZE
  6
CONTINUOUS
 62
    30
 10
50.0
 20
-197.1612174576708
 30
0.0
 40
6.0
  0
LINE
  8
SIZE
  6
CONTINUOUS
 62
    30
 10
50.0
 20
-197.1612174576708
 30
0.0
 11
38.0
 21
-197.1612174576708
 31
0.0
  0
TEXT
  8
SIZE
  6
CONTINUOUS
 62
    30
 10
111.7033013314061
 20
-172.1612174576708
 30
0.0
 40
64.0
  1
100
 41
0.9
 72
     1
 11
180.27472990283471
 21
-172.1612174576708
 31
0.0
  0
POINT
  8
DEFPOINTS
  6
CONTINUOUS
 62
    30
 10
-50.0
 20
-9.0
 30
0.0
  0
POINT
  8
DEFPOINTS
  6
CONTINUOUS
 62
    30
 10
50.0
 20
-9.0
 30
0.0
  0
POINT
  8
DEFPOINTS
  6
CONTINUOUS
 62
    30
 10
50.0
 20
-197.1612174576708
 30
0.0
  0
LINE
  8
SIZE
  6
CONTINUOUS
 62
    30
 10
-81.0
 20
-29.0
 30
0.0
 11
-81.0
 21
-346.63147828319421
 31
0.0
  0
LINE
  8
SIZE
  6
CONTINUOUS
 62
    30
 10
81.0
 20
-29.0
 30
0.0
 11
81.0
 21
-346.63147828319421
 31
0.0
  0
LINE
  8
SIZE
  6
CONTINUOUS
 62
    30
 10
-93.0
 20
-326.63147828319421
 30
0.0
 11
-105.0
 21
-326.63147828319421
 31
0.0
  0
LINE
  8
SIZE
  6
CONTINUOUS
 62
    30
 10
93.0
 20
-326.63147828319421
 30
0.0
 11
105.0
 21
-326.63147828319421
 31
0.0
  0
LINE
  8
SIZE
  6
CONTINUOUS
 62
    30
 10
-81.0
 20
-326.63147828319421
 30
0.0
 11
81.0
 21
-326.63147828319421
 31
0.0
  0
CIRCLE
  8
SIZE
  6
CONTINUOUS
 62
    30
 10
-81.0
 20
-326.63147828319421
 30
0.0
 40
6.0
  0
LINE
  8
SIZE
  6
CONTINUOUS
 62
    30
 10
-81.0
 20
-326.63147828319421
 30
0.0
 11
-93.0
 21
-326.63147828319421
 31
0.0
  0
CIRCLE
  8
SIZE
  6
CONTINUOUS
 62
    30
 10
81.0
 20
-326.63147828319421
 30
0.0
 40
6.0
  0
LINE
  8
SIZE
  6
CONTINUOUS
 62
    30
 10
81.0
 20
-326.63147828319421
 30
0.0
 11
93.0
 21
-326.63147828319421
 31
0.0
  0
TEXT
  8
SIZE
  6
CONTINUOUS
 62
    30
 10
-68.571428571428569
 20
-301.63147828319421
 30
0.0
 40
64.0
  1
162
 41
0.9
 72
     1
 11
0.0
 21
-301.63147828319421
 31
0.0
  0
POINT
  8
DEFPOINTS
  6
CONTINUOUS
 62
    30
 10
-81.0
 20
-9.0
 30
0.0
  0
POINT
  8
DEFPOINTS
  6
CONTINUOUS
 62
    30
 10
81.0
 20
-9.0
 30
0.0
  0
POINT
  8
DEFPOINTS
  6
CONTINUOUS
 62
    30
 10
81.0
 20
-326.63147828319421
 30
0.0
  0
LINE
  8
SIZE
  6
CONTINUOUS
 62
    30
 10
-104.9724247673774
 20
-20.52616797812146
 30
0.0
 11
-104.9724247673774
 21
-481.4796188480542
 31
0.0
  0
LINE
  8
SIZE
  6
CONTINUOUS
 62
    30
 10
104.972424
 20
-20.526167999999981
 30
0.0
 11
104.972424
 21
-481.4796188480542
 31
0.0
  0
LINE
  8
SIZE
  6
CONTINUOUS
 62
    30
 10
-116.9724247673774
 20
-461.4796188480542
 30
0.0
 11
-128.97242476737739
 21
-461.4796188480542
 31
0.0
  0
LINE
  8
SIZE
  6
CONTINUOUS
 62
    30
 10
116.972424
 20
-461.4796188480542
 30
0.0
 11
128.97242399999999
 21
-461.4796188480542
 31
0.0
  0
LINE
  8
SIZE
  6
CONTINUOUS
 62
    30
 10
-104.9724247673774
 20
-461.4796188480542
 30
0.0
 11
104.972424
 21
-461.4796188480542
 31
0.0
  0
CIRCLE
  8
SIZE
  6
CONTINUOUS
 62
    30
 10
-104.9724247673774
 20
-461.4796188480542
 30
0.0
 40
6.0
  0
LINE
  8
SIZE
  6
CONTINUOUS
 62
    30
 10
-104.9724247673774
 20
-461.4796188480542
 30
0.0
 11
-116.9724247673774
 21
-461.4796188480542
 31
0.0
  0
CIRCLE
  8
SIZE
  6
CONTINUOUS
 62
    30
 10
104.972424
 20
-461.4796188480542
 30
0.0
 40
6.0
  0
LINE
  8
SIZE
  6
CONTINUOUS
 62
    30
 10
104.972424
 20
-461.4796188480542
 30
0.0
 11
116.972424
 21
-461.4796188480542
 31
0.0
  0
TEXT
  8
SIZE
  6
CONTINUOUS
 62
    30
 10
-105.0514289551173
 20
-436.4796188480542
 30
0.0
 40
64.0
  1
□210
 41
0.9
 72
     1
 11
-0.0000003836887572
 21
-436.4796188480542
 31
0.0
  0
POINT
  8
DEFPOINTS
  6
CONTINUOUS
 62
    30
 10
-104.9724247673774
 20
-0.5261679781214639
 30
0.0
  0
POINT
  8
DEFPOINTS
  6
CONTINUOUS
 62
    30
 10
104.972424
 20
-0.5261679999999842
 30
0.0
  0
POINT
  8
DEFPOINTS
  6
CONTINUOUS
 62
    30
 10
104.972424
 20
-461.4796188480542
 30
0.0
  0
LINE
  8
SIZE
  6
CONTINUOUS
 62
    30
 10
117.89471499999991
 20
-14.99999999999994
 30
0.0
 11
362.9350347723157
 21
-15.0
 31
0.0
  0
LINE
  8
SIZE
  6
CONTINUOUS
 62
    30
 10
124.47310899999999
 20
0.0
 30
0.0
 11
362.9350347723157
 21
-0.0000000000000568
 31
0.0
  0
LINE
  8
SIZE
  6
CONTINUOUS
 62
    30
 10
342.9350347723157
 20
11.99999999999994
 30
0.0
 11
342.9350347723157
 21
23.99999999999994
 31
0.0
  0
LINE
  8
SIZE
  6
CONTINUOUS
 62
    30
 10
342.9350347723157
 20
-27.0
 30
0.0
 11
342.9350347723157
 21
-171.28571428571431
 31
0.0
  0
LINE
  8
SIZE
  6
CONTINUOUS
 62
    30
 10
342.9350347723157
 20
-0.0000000000000568
 30
0.0
 11
342.9350347723157
 21
-15.0
 31
0.0
  0
CIRCLE
  8
SIZE
  6
CONTINUOUS
 62
    30
 10
342.9350347723157
 20
-0.0000000000000568
 30
0.0
 40
6.0
  0
LINE
  8
SIZE
  6
CONTINUOUS
 62
    30
 10
342.9350347723157
 20
-0.0000000000000568
 30
0.0
 11
342.9350347723157
 21
11.99999999999994
 31
0.0
  0
CIRCLE
  8
SIZE
  6
CONTINUOUS
 62
    30
 10
342.9350347723157
 20
-15.0
 30
0.0
 40
6.0
  0
LINE
  8
SIZE
  6
CONTINUOUS
 62
    30
 10
342.9350347723157
 20
-15.0
 30
0.0
 11
342.9350347723157
 21
-27.0
 31
0.0
  0
TEXT
  8
SIZE
  6
CONTINUOUS
 62
    30
 10
317.9350347723157
 20
-146.28571428571419
 30
0.0
 40
64.0
  1
15
 50
90.0
 41
0.9
 72
     1
 11
317.9350347723157
 21
-105.1428571428571
 31
0.0
  0
POINT
  8
DEFPOINTS
  6
CONTINUOUS
 62
    30
 10
97.894714999999906
 20
-14.99999999999994
 30
0.0
  0
POINT
  8
DEFPOINTS
  6
CONTINUOUS
 62
    30
 10
104.47310899999999
 20
0.0
 30
0.0
  0
POINT
  8
DEFPOINTS
  6
CONTINUOUS
 62
    30
 10
342.9350347723157
 20
-0.0000000000000568
 30
0.0
  0
LINE
  8
SIZE
  6
CONTINUOUS
 62
    30
 10
37.95008299999995
 20
177.5
 30
0.0
 11
362.9350347723157
 21
177.49999999999989
 31
0.0
  0
LINE
  8
SIZE
  6
CONTINUOUS
 62
    30
 10
124.47310899999999
 20
0.0
 30
0.0
 11
362.9350347723157
 21
-0.0000000000000568
 31
0.0
  0
LINE
  8
SIZE
  6
CONTINUOUS
 62
    30
 10
342.9350347723157
 20
189.49999999999989
 30
0.0
 11
342.9350347723157
 21
201.49999999999989
 31
0.0
  0
LINE
  8
SIZE
  6
CONTINUOUS
 62
    30
 10
342.9350347723157
 20
-12.00000000000006
 30
0.0
 11
342.9350347723157
 21
-24.00000000000006
 31
0.0
  0
LINE
  8
SIZE
  6
CONTINUOUS
 62
    30
 10
342.9350347723157
 20
177.49999999999989
 30
0.0
 11
342.9350347723157
 21
-0.0000000000000568
 31
0.0
  0
CIRCLE
  8
SIZE
  6
CONTINUOUS
 62
    30
 10
342.9350347723157
 20
177.49999999999989
 30
0.0
 40
6.0
  0
LINE
  8
SIZE
  6
CONTINUOUS
 62
    30
 10
342.9350347723157
 20
177.49999999999989
 30
0.0
 11
342.9350347723157
 21
189.49999999999989
 31
0.0
  0
CIRCLE
  8
SIZE
  6
CONTINUOUS
 62
    30
 10
342.9350347723157
 20
-0.0000000000000568
 30
0.0
 40
6.0
  0
LINE
  8
SIZE
  6
CONTINUOUS
 62
    30
 10
342.9350347723157
 20
-0.0000000000000568
 30
0.0
 11
342.9350347723157
 21
-12.00000000000006
 31
0.0
  0
TEXT
  8
SIZE
  6
CONTINUOUS
 62
    30
 10
317.9350347723157
 20
20.178571428571431
 30
0.0
 40
64.0
  1
178
 50
90.0
 41
0.9
 72
     1
 11
317.9350347723157
 21
88.75
 31
0.0
  0
POINT
  8
DEFPOINTS
  6
CONTINUOUS
 62
    30
 10
17.95008299999995
 20
177.5
 30
0.0
  0
POINT
  8
DEFPOINTS
  6
CONTINUOUS
 62
    30
 10
104.47310899999999
 20
0.0
 30
0.0
  0
POINT
  8
DEFPOINTS
  6
CONTINUOUS
 62
    30
 10
342.9350347723157
 20
-0.0000000000000568
 30
0.0
  0
LINE
  8
SIZE
  6
CONTINUOUS
 62
    30
 10
-92.297077992758204
 20
48.111637832083943
 30
0.0
 11
-241.8129499540228
 21
48.111637832084057
 31
0.0
  0
LINE
  8
SIZE
  6
CONTINUOUS
 62
    30
 10
-124.4731100000001
 20
0.0
 30
0.0
 11
-241.8129499540228
 21
0.0000000000000568
 31
0.0
  0
LINE
  8
SIZE
  6
CONTINUOUS
 62
    30
 10
-221.8129499540228
 20
60.111637832084057
 30
0.0
 11
-221.8129499540228
 21
72.111637832084057
 31
0.0
  0
LINE
  8
SIZE
  6
CONTINUOUS
 62
    30
 10
-221.8129499540228
 20
-12.0
 30
0.0
 11
-221.8129499540228
 21
-167.25714285714281
 31
0.0
  0
LINE
  8
SIZE
  6
CONTINUOUS
 62
    30
 10
-221.8129499540228
 20
48.111637832084057
 30
0.0
 11
-221.8129499540228
 21
0.0000000000000568
 31
0.0
  0
CIRCLE
  8
SIZE
  6
CONTINUOUS
 62
    30
 10
-221.8129499540228
 20
48.111637832084057
 30
0.0
 40
6.0
  0
LINE
  8
SIZE
  6
CONTINUOUS
 62
    30
 10
-221.8129499540228
 20
48.111637832084057
 30
0.0
 11
-221.8129499540228
 21
60.111637832084057
 31
0.0
  0
CIRCLE
  8
SIZE
  6
CONTINUOUS
 62
    30
 10
-221.8129499540228
 20
0.0000000000000568
 30
0.0
 40
6.0
  0
LINE
  8
SIZE
  6
CONTINUOUS
 62
    30
 10
-221.8129499540228
 20
0.0000000000000568
 30
0.0
 11
-221.8129499540228
 21
-11.99999999999994
 31
0.0
  0
TEXT
  8
SIZE
  6
CONTINUOUS
 62
    30
 10
-246.8129499540228
 20
-142.2571428571429
 30
0.0
 40
64.0
  1
48
 50
90.0
 41
0.9
 72
     1
 11
-246.8129499540228
 21
-95.628571428571433
 31
0.0
  0
POINT
  8
DEFPOINTS
  6
CONTINUOUS
 62
    30
 10
-72.297077992758204
 20
48.111637832083943
 30
0.0
  0
POINT
  8
DEFPOINTS
  6
CONTINUOUS
 62
    30
 10
-104.4731100000001
 20
0.0
 30
0.0
  0
POINT
  8
DEFPOINTS
  6
CONTINUOUS
 62
    30
 10
-221.8129499540228
 20
0.0000000000000568
 30
0.0
  0
LINE
  8
SIZE
  6
CONTINUOUS
 62
    30
 10
-124.4731100000001
 20
0.0
 30
0.0
 11
-357.23617213720348
 21
0.0000000000000568
 31
0.0
  0
LINE
  8
SIZE
  6
CONTINUOUS
 62
    30
 10
-212.20061600000011
 20
90.0
 30
0.0
 11
-357.23617213720348
 21
90.0
 31
0.0
  0
LINE
  8
SIZE
  6
CONTINUOUS
 62
    30
 10
-337.23617213720348
 20
78.0
 30
0.0
 11
-337.23617213720348
 21
12.00000000000006
 31
0.0
  0
LINE
  8
SIZE
  6
CONTINUOUS
 62
    30
 10
-337.23617213720348
 20
0.0000000000000568
 30
0.0
 11
-337.23617213720371
 21
-155.25714285714281
 31
0.0
  0
CIRCLE
  8
SIZE
  6
CONTINUOUS
 62
    30
 10
-337.23617213720348
 20
90.0
 30
0.0
 40
6.0
  0
LINE
  8
SIZE
  6
CONTINUOUS
 62
    30
 10
-337.23617213720348
 20
90.0
 30
0.0
 11
-337.23617213720348
 21
78.0
 31
0.0
  0
CIRCLE
  8
SIZE
  6
CONTINUOUS
 62
    30
 10
-337.23617213720348
 20
0.0000000000000568
 30
0.0
 40
6.0
  0
LINE
  8
SIZE
  6
CONTINUOUS
 62
    30
 10
-337.23617213720348
 20
0.0000000000000568
 30
0.0
 11
-337.23617213720348
 21
12.00000000000006
 31
0.0
  0
TEXT
  8
SIZE
  6
CONTINUOUS
 62
    30
 10
-362.23617213720343
 20
-130.2571428571429
 30
0.0
 40
64.0
  1
90
 50
90.0
 41
0.9
 72
     1
 11
-362.23617213720343
 21
-83.628571428571433
 31
0.0
  0
POINT
  8
DEFPOINTS
  6
CONTINUOUS
 62
    30
 10
-104.4731100000001
 20
0.0
 30
0.0
  0
POINT
  8
DEFPOINTS
  6
CONTINUOUS
 62
    30
 10
-192.20061600000011
 20
90.0
 30
0.0
  0
POINT
  8
DEFPOINTS
  6
CONTINUOUS
 62
    30
 10
-337.23617213720348
 20
90.0
 30
0.0
  0
LINE
  8
SIZE
  6
CONTINUOUS
 62
    30
 10
-198.15687600000001
 20
126.5
 30
0.0
 11
-466.42130660215838
 21
126.5000000000001
 31
0.0
  0
LINE
  8
SIZE
  6
CONTINUOUS
 62
    30
 10
-198.15687600000001
 20
53.5
 30
0.0
 11
-466.42130660215838
 21
53.500000000000107
 31
0.0
  0
LINE
  8
SIZE
  6
CONTINUOUS
 62
    30
 10
-446.42130660215838
 20
138.50000000000011
 30
0.0
 11
-446.42130660215838
 21
150.50000000000011
 31
0.0
  0
LINE
  8
SIZE
  6
CONTINUOUS
 62
    30
 10
-446.42130660215838
 20
41.500000000000107
 30
0.0
 11
-446.4213066021585
 21
-174.09999999999991
 31
0.0
  0
LINE
  8
SIZE
  6
CONTINUOUS
 62
    30
 10
-446.42130660215838
 20
126.5000000000001
 30
0.0
 11
-446.42130660215838
 21
53.500000000000107
 31
0.0
  0
CIRCLE
  8
SIZE
  6
CONTINUOUS
 62
    30
 10
-446.42130660215838
 20
126.5000000000001
 30
0.0
 40
6.0
  0
LINE
  8
SIZE
  6
CONTINUOUS
 62
    30
 10
-446.42130660215838
 20
126.5000000000001
 30
0.0
 11
-446.42130660215838
 21
138.50000000000011
 31
0.0
  0
CIRCLE
  8
SIZE
  6
CONTINUOUS
 62
    30
 10
-446.42130660215838
 20
53.500000000000107
 30
0.0
 40
6.0
  0
LINE
  8
SIZE
  6
CONTINUOUS
 62
    30
 10
-446.42130660215838
 20
53.500000000000107
 30
0.0
 11
-446.42130660215838
 21
41.500000000000107
 31
0.0
  0
TEXT
  8
SIZE
  6
CONTINUOUS
 62
    30
 10
-482.08797326882512
 20
-159.24857142857141
 30
0.0
 40
64.0
  1
φ73
 50
90.0
 41
0.9
 72
     1
 11
-482.08797326882512
 21
-72.299999999999955
 31
0.0
  0
POINT
  8
DEFPOINTS
  6
CONTINUOUS
 62
    30
 10
-178.15687600000001
 20
126.5
 30
0.0
  0
POINT
  8
DEFPOINTS
  6
CONTINUOUS
 62
    30
 10
-178.15687600000001
 20
53.5
 30
0.0
  0
POINT
  8
DEFPOINTS
  6
CONTINUOUS
 62
    30
 10
-446.42130660215838
 20
53.500000000000107
 30
0.0
  0
LINE
  8
SIZE
  6
CONTINUOUS
 62
    30
 10
-163.8589650000001
 20
129.99820299999999
 30
0.0
 11
-604.2213642799361
 21
129.9982030000001
 31
0.0
  0
LINE
  8
SIZE
  6
CONTINUOUS
 62
    30
 10
-163.8589650000001
 20
50.001796000000013
 30
0.0
 11
-604.2213642799361
 21
50.001796000000127
 31
0.0
  0
LINE
  8
SIZE
  6
CONTINUOUS
 62
    30
 10
-584.2213642799361
 20
117.9982030000001
 30
0.0
 11
-584.2213642799361
 21
62.001796000000127
 31
0.0
  0
LINE
  8
SIZE
  6
CONTINUOUS
 62
    30
 10
-584.2213642799361
 20
50.001796000000127
 30
0.0
 11
-584.2213642799361
 21
-165.59820399999981
 31
0.0
  0
CIRCLE
  8
SIZE
  6
CONTINUOUS
 62
    30
 10
-584.2213642799361
 20
129.9982030000001
 30
0.0
 40
6.0
  0
LINE
  8
SIZE
  6
CONTINUOUS
 62
    30
 10
-584.2213642799361
 20
129.9982030000001
 30
0.0
 11
-584.2213642799361
 21
117.9982030000001
 31
0.0
  0
CIRCLE
  8
SIZE
  6
CONTINUOUS
 62
    30
 10
-584.2213642799361
 20
50.001796000000127
 30
0.0
 40
6.0
  0
LINE
  8
SIZE
  6
CONTINUOUS
 62
    30
 10
-584.2213642799361
 20
50.001796000000127
 30
0.0
 11
-584.2213642799361
 21
62.001796000000127
 31
0.0
  0
TEXT
  8
SIZE
  6
CONTINUOUS
 62
    30
 10
-619.88803094660284
 20
-150.74677542857151
 30
0.0
 40
64.0
  1
φ80
 50
90.0
 41
0.9
 72
     1
 11
-619.88803094660284
 21
-63.798204000000062
 31
0.0
  0
POINT
  8
DEFPOINTS
  6
CONTINUOUS
 62
    30
 10
-143.8589650000001
 20
129.99820299999999
 30
0.0
  0
POINT
  8
DEFPOINTS
  6
CONTINUOUS
 62
    30
 10
-143.8589650000001
 20
50.001796000000013
 30
0.0
  0
POINT
  8
DEFPOINTS
  6
CONTINUOUS
 62
    30
 10
-584.2213642799361
 20
50.001796000000127
 30
0.0
  0
LINE
  8
SIZE
  6
CONTINUOUS
 62
    30
 10
-178.15687600000001
 20
146.5
 30
0.0
 11
-178.15687600000001
 21
215.22153008331409
 31
0.0
  0
LINE
  8
SIZE
  6
CONTINUOUS
 62
    30
 10
-148.15687600000001
 20
146.5
 30
0.0
 11
-148.15687600000001
 21
215.22153008331409
 31
0.0
  0
LINE
  8
SIZE
  6
CONTINUOUS
 62
    30
 10
-136.15687600000001
 20
195.22153008331409
 30
0.0
 11
-124.156876
 21
195.22153008331409
 31
0.0
  0
LINE
  8
SIZE
  6
CONTINUOUS
 62
    30
 10
-190.15687600000001
 20
195.22153008331409
 30
0.0
 11
-345.41401885714288
 21
195.22153008331409
 31
0.0
  0
LINE
  8
SIZE
  6
CONTINUOUS
 62
    30
 10
-148.15687600000001
 20
195.22153008331409
 30
0.0
 11
-178.15687600000001
 21
195.22153008331409
 31
0.0
  0
CIRCLE
  8
SIZE
  6
CONTINUOUS
 62
    30
 10
-148.15687600000001
 20
195.22153008331409
 30
0.0
 40
6.0
  0
LINE
  8
SIZE
  6
CONTINUOUS
 62
    30
 10
-148.15687600000001
 20
195.22153008331409
 30
0.0
 11
-136.15687600000001
 21
195.22153008331409
 31
0.0
  0
CIRCLE
  8
SIZE
  6
CONTINUOUS
 62
    30
 10
-178.15687600000001
 20
195.22153008331409
 30
0.0
 40
6.0
  0
LINE
  8
SIZE
  6
CONTINUOUS
 62
    30
 10
-178.15687600000001
 20
195.22153008331409
 30
0.0
 11
-190.15687600000001
 21
195.22153008331409
 31
0.0
  0
TEXT
  8
SIZE
  6
CONTINUOUS
 62
    30
 10
-320.41401885714282
 20
220.22153008331409
 30
0.0
 40
64.0
  1
30
 41
0.9
 72
     1
 11
-273.78544742857127
 21
220.22153008331409
 31
0.0
  0
POINT
  8
DEFPOINTS
  6
CONTINUOUS
 62
    30
 10
-178.15687600000001
 20
126.5
 30
0.0
  0
POINT
  8
DEFPOINTS
  6
CONTINUOUS
 62
    30
 10
-148.15687600000001
 20
126.5
 30
0.0
  0
POINT
  8
DEFPOINTS
  6
CONTINUOUS
 62
    30
 10
-148.15687600000001
 20
195.22153008331409
 30
0.0
  0
LINE
  8
SIZE
  6
CONTINUOUS
 62
    30
 10
-178.15687600000001
 20
146.5
 30
0.0
 11
-178.15687600000001
 21
320.62894483574382
 31
0.0
  0
LINE
  8
SIZE
  6
CONTINUOUS
 62
    30
 10
-126.156876
 20
151.9926390000002
 30
0.0
 11
-126.156876
 21
320.62894483574382
 31
0.0
  0
LINE
  8
SIZE
  6
CONTINUOUS
 62
    30
 10
-114.156876
 20
300.62894483574382
 30
0.0
 11
-102.156876
 21
300.62894483574382
 31
0.0
  0
LINE
  8
SIZE
  6
CONTINUOUS
 62
    30
 10
-190.15687600000001
 20
300.62894483574382
 30
0.0
 11
-345.41401885714288
 21
300.62894483574382
 31
0.0
  0
LINE
  8
SIZE
  6
CONTINUOUS
 62
    30
 10
-126.156876
 20
300.62894483574382
 30
0.0
 11
-178.15687600000001
 21
300.62894483574382
 31
0.0
  0
CIRCLE
  8
SIZE
  6
CONTINUOUS
 62
    30
 10
-126.156876
 20
300.62894483574382
 30
0.0
 40
6.0
  0
LINE
  8
SIZE
  6
CONTINUOUS
 62
    30
 10
-126.156876
 20
300.62894483574382
 30
0.0
 11
-114.156876
 21
300.62894483574382
 31
0.0
  0
CIRCLE
  8
SIZE
  6
CONTINUOUS
 62
    30
 10
-178.15687600000001
 20
300.62894483574382
 30
0.0
 40
6.0
  0
LINE
  8
SIZE
  6
CONTINUOUS
 62
    30
 10
-178.15687600000001
 20
300.62894483574382
 30
0.0
 11
-190.15687600000001
 21
300.62894483574382
 31
0.0
  0
TEXT
  8
SIZE
  6
CONTINUOUS
 62
    30
 10
-320.41401885714282
 20
325.62894483574382
 30
0.0
 40
64.0
  1
52
 41
0.9
 72
     1
 11
-273.78544742857127
 21
325.62894483574382
 31
0.0
  0
POINT
  8
DEFPOINTS
  6
CONTINUOUS
 62
    30
 10
-178.15687600000001
 20
126.5
 30
0.0
  0
POINT
  8
DEFPOINTS
  6
CONTINUOUS
 62
    30
 10
-126.156876
 20
131.9926390000002
 30
0.0
  0
POINT
  8
DEFPOINTS
  6
CONTINUOUS
 62
    30
 10
-126.156876
 20
300.62894483574382
 30
0.0
  0
LINE
  8
SIZE
  6
CONTINUOUS
 62
    30
 10
-178.15687600000001
 20
146.5
 30
0.0
 11
-178.15687600000001
 21
446.31208783454008
 31
0.0
  0
LINE
  8
SIZE
  6
CONTINUOUS
 62
    30
 10
-72.000305000000026
 20
20.0
 30
0.0
 11
-72.000305000000026
 21
446.31208783454008
 31
0.0
  0
LINE
  8
SIZE
  6
CONTINUOUS
 62
    30
 10
-84.000305000000026
 20
426.31208783454008
 30
0.0
 11
-166.15687600000001
 21
426.31208783454008
 31
0.0
  0
LINE
  8
SIZE
  6
CONTINUOUS
 62
    30
 10
-178.15687600000001
 20
426.31208783454008
 30
0.0
 11
-374.55687599999999
 21
426.31208783454008
 31
0.0
  0
CIRCLE
  8
SIZE
  6
CONTINUOUS
 62
    30
 10
-72.000305000000026
 20
426.31208783454008
 30
0.0
 40
6.0
  0
LINE
  8
SIZE
  6
CONTINUOUS
 62
    30
 10
-72.000305000000026
 20
426.31208783454008
 30
0.0
 11
-84.000305000000026
 21
426.31208783454008
 31
0.0
  0
CIRCLE
  8
SIZE
  6
CONTINUOUS
 62
    30
 10
-178.15687600000001
 20
426.31208783454008
 30
0.0
 40
6.0
  0
LINE
  8
SIZE
  6
CONTINUOUS
 62
    30
 10
-178.15687600000001
 20
426.31208783454008
 30
0.0
 11
-166.15687600000001
 21
426.31208783454008
 31
0.0
  0
TEXT
  8
SIZE
  6
CONTINUOUS
 62
    30
 10
-349.55687599999999
 20
451.31208783454008
 30
0.0
 40
64.0
  1
106
 41
0.9
 72
     1
 11
-282.35687600000011
 21
451.31208783454008
 31
0.0
  0
POINT
  8
DEFPOINTS
  6
CONTINUOUS
 62
    30
 10
-178.15687600000001
 20
126.5
 30
0.0
  0
POINT
  8
DEFPOINTS
  6
CONTINUOUS
 62
    30
 10
-72.000305000000026
 20
0.0
 30
0.0
  0
POINT
  8
DEFPOINTS
  6
CONTINUOUS
 62
    30
 10
-72.000305000000026
 20
426.31208783454008
 30
0.0
  0
LINE
  8
SIZE
  6
CONTINUOUS
 62
    30
 10
-72.000305000000026
 20
20.0
 30
0.0
 11
-72.000305000000026
 21
446.31208783454008
 31
0.0
  0
LINE
  8
SIZE
  6
CONTINUOUS
 62
    30
 10
72.0
 20
20.0
 30
0.0
 11
72.0
 21
446.31208783454008
 31
0.0
  0
LINE
  8
SIZE
  6
CONTINUOUS
 62
    30
 10
-84.000305000000026
 20
426.31208783454008
 30
0.0
 11
-96.000305000000026
 21
426.31208783454008
 31
0.0
  0
LINE
  8
SIZE
  6
CONTINUOUS
 62
    30
 10
84.0
 20
426.31208783454008
 30
0.0
 11
96.0
 21
426.31208783454008
 31
0.0
  0
LINE
  8
SIZE
  6
CONTINUOUS
 62
    30
 10
-72.000305000000026
 20
426.31208783454008
 30
0.0
 11
72.0
 21
426.31208783454008
 31
0.0
  0
CIRCLE
  8
SIZE
  6
CONTINUOUS
 62
    30
 10
-72.000305000000026
 20
426.31208783454008
 30
0.0
 40
6.0
  0
LINE
  8
SIZE
  6
CONTINUOUS
 62
    30
 10
-72.000305000000026
 20
426.31208783454008
 30
0.0
 11
-84.000305000000026
 21
426.31208783454008
 31
0.0
  0
CIRCLE
  8
SIZE
  6
CONTINUOUS
 62
    30
 10
72.0
 20
426.31208783454008
 30
0.0
 40
6.0
  0
LINE
  8
SIZE
  6
CONTINUOUS
 62
    30
 10
72.0
 20
426.31208783454008
 30
0.0
 11
84.0
 21
426.31208783454008
 31
0.0
  0
TEXT
  8
SIZE
  6
CONTINUOUS
 62
    30
 10
-106.4230096428571
 20
451.31208783454008
 30
0.0
 40
64.0
  1
□144
 41
0.9
 72
     1
 11
-0.0001525000000129
 21
451.31208783454008
 31
0.0
  0
POINT
  8
DEFPOINTS
  6
CONTINUOUS
 62
    30
 10
-72.000305000000026
 20
0.0
 30
0.0
  0
POINT
  8
DEFPOINTS
  6
CONTINUOUS
 62
    30
 10
72.0
 20
0.0
 30
0.0
  0
POINT
  8
DEFPOINTS
  6
CONTINUOUS
 62
    30
 10
72.0
 20
426.31208783454008
 30
0.0
  0
TEXT
  8
NOTE
  6
CONTINUOUS
 62
     4
 10
125.4744893672832
 20
238.30725309341341
 30
0.0
 40
64.0
  1
EL
 41
0.9
  0
LINE
  8
NOTE
  6
CONTINUOUS
 62
     4
 10
225.85092683028051
 20
221.25087094854689
 30
0.0
 11
118.5789771299455
 21
221.25087094850431
 31
0.0
  0
LINE
  8
NOTE
  6
CONTINUOUS
 62
     4
 10
54.0
 20
102.0
 30
0.0
 11
118.5789771299455
 21
221.25087094850431
 31
0.0
  0
LINE
  8
NOTE
  6
CONTINUOUS
 62
     4
 10
54.0
 20
102.0
 30
0.0
 11
82.073374044112597
 21
128.64394918745009
 31
0.0
  0
LINE
  8
NOTE
  6
CONTINUOUS
 62
     4
 10
61.302562394578437
 20
141.2580497038455
 30
0.0
 11
54.0
 21
102.0
 31
0.0
  0
LINE
  8
NOTE
  6
CENTER
 62
     4
 10
54.0
 20
85.443483000000015
 30
0.0
 11
54.0
 21
113.10028700000009
 31
0.0
  0
LINE
  8
DETAIL
  6
CONTINUOUS
 62
     5
 10
70.219583186796854
 20
102.0
 30
0.0
 11
-42.613998411905193
 21
102.0
 31
0.0
  0
LINE
  8
DETAIL
  6
CONTINUOUS
 62
     5
 10
-42.613998411905193
 20
102.0
 30
0.0
 11
-42.89327917722494
 21
118.0
 31
0.0
  0
TEXT
  8
NOTE
  6
CONTINUOUS
 62
     4
 10
333.31505920877322
 20
297.64010849674668
 30
0.0
 40
63.999999999999993
  1
8-φ5
 41
0.9
  0
LINE
  8
NOTE
  6
CONTINUOUS
 62
     4
 10
590.93095049141084
 20
264.81168035317268
 30
0.0
 11
316.28357114179818
 21
264.81163558982439
 31
0.0
  0
ENDSEC
  0
EOF
