  0
SECTION
  2
HEADER
  9
$ACADVER
  1
AC1009
  9
$DWGCODEPAGE
  3
dos932
  9
$INSBASE
 10
0.0
 20
0.0
 30
0.0
  9
$EXTMIN
 10
-346.23411397476963
 20
-425.85753221746751
 30
-0.0015258207003583
  9
$EXTMAX
 10
1409.8617673849931
 20
621.96350903478742
 30
0.0000000349246037
  9
$LIMMIN
 10
-2970.0
 20
-2100.0
  9
$LIMMAX
 10
2970.0
 20
2100.0
  9
$ORTHOMODE
 70
     1
  9
$REGENMODE
 70
     1
  9
$FILLMODE
 70
     1
  9
$QTEXTMODE
 70
     0
  9
$MIRRTEXT
 70
     0
  9
$LTSCALE
 40
20.0
  9
$ATTMODE
 70
     1
  9
$TEXTSIZE
 40
64.0
  9
$TRACEWID
 40
0.05
  9
$TEXTSTYLE
  7
STANDARD
  9
$CLAYER
  8
SIZE
  9
$CELTYPE
  6
CONTINUOUS
  9
$CECOLOR
 62
     7
  9
$DIMSCALE
 40
1.0
  9
$DIMASZ
 40
12.0
  9
$DIMEXO
 40
20.0
  9
$DIMDLI
 40
200.0
  9
$DIMRND
 40
0.0
  9
$DIMDLE
 40
0.0
  9
$DIMEXE
 40
20.0
  9
$DIMTP
 40
0.0
  9
$DIMTM
 40
0.0
  9
$DIMTXT
 40
64.0
  9
$DIMCEN
 40
0.09
  9
$DIMTSZ
 40
0.0
  9
$DIMTOL
 70
     0
  9
$DIMLIM
 70
     0
  9
$DIMTIH
 70
     0
  9
$DIMTOH
 70
     0
  9
$DIMSE1
 70
     0
  9
$DIMSE2
 70
     0
  9
$DIMTAD
 70
     1
  9
$DIMZIN
 70
     8
  9
$DIMBLK
  1

  9
$DIMASO
 70
     1
  9
$DIMSHO
 70
     0
  9
$DIMPOST
  1

  9
$DIMAPOST
  1

  9
$DIMALT
 70
     0
  9
$DIMALTD
 70
     2
  9
$DIMALTF
 40
25.399999999999999
  9
$DIMLFAC
 40
1.0
  9
$DIMTOFL
 70
     1
  9
$DIMTVP
 40
0.0
  9
$DIMTIX
 70
     1
  9
$DIMSOXD
 70
     0
  9
$DIMSAH
 70
     0
  9
$DIMBLK1
  1

  9
$DIMBLK2
  1

  9
$DIMSTYLE
  2
STANDARD
  9
$DIMCLRD
 70
     7
  9
$DIMCLRE
 70
     7
  9
$DIMCLRT
 70
     7
  9
$DIMTFAC
 40
1.0
  9
$DIMGAP
 40
25.0
  9
$LUNITS
 70
     2
  9
$LUPREC
 70
     4
  9
$SKETCHINC
 40
0.1
  9
$FILLETRAD
 40
3.0
  9
$AUNITS
 70
     1
  9
$AUPREC
 70
     3
  9
$MENU
  1
ACAD
  9
$ELEVATION
 40
0.0
  9
$PELEVATION
 40
0.0
  9
$THICKNESS
 40
0.0
  9
$LIMCHECK
 70
     0
  9
$CHAMFERA
 40
0.0
  9
$CHAMFERB
 40
0.0
  9
$SKPOLY
 70
     0
  9
$TDCREATE
 40
2453019.62301037
  9
$TDUPDATE
 40
2459025.479424896
  9
$TDINDWG
 40
1.7131525579
  9
$TDUSRTIMER
 40
1.7131525579
  9
$USRTIMER
 70
     1
  9
$ANGBASE
 50
0.0
  9
$ANGDIR
 70
     0
  9
$PDMODE
 70
     3
  9
$PDSIZE
 40
-2.0
  9
$PLINEWID
 40
0.0
  9
$SPLFRAME
 70
     0
  9
$SPLINETYPE
 70
     6
  9
$SPLINESEGS
 70
     8
  9
$SURFTAB1
 70
     6
  9
$SURFTAB2
 70
     6
  9
$SURFTYPE
 70
     6
  9
$SURFU
 70
     6
  9
$SURFV
 70
     6
  9
$UCSNAME
  2

  9
$UCSORG
 10
0.0
 20
0.0
 30
0.0
  9
$UCSXDIR
 10
1.0
 20
0.0
 30
0.0
  9
$UCSYDIR
 10
0.0
 20
1.0
 30
0.0
  9
$PUCSNAME
  2

  9
$PUCSORG
 10
0.0
 20
0.0
 30
0.0
  9
$PUCSXDIR
 10
1.0
 20
0.0
 30
0.0
  9
$PUCSYDIR
 10
0.0
 20
1.0
 30
0.0
  9
$USERI1
 70
     0
  9
$USERI2
 70
     0
  9
$USERI3
 70
     0
  9
$USERI4
 70
     0
  9
$USERI5
 70
     0
  9
$USERR1
 40
20.0
  9
$USERR2
 40
0.0
  9
$USERR3
 40
0.0
  9
$USERR4
 40
0.0
  9
$USERR5
 40
0.0
  9
$WORLDVIEW
 70
     1
  9
$SHADEDGE
 70
     3
  9
$SHADEDIF
 70
    70
  9
$TILEMODE
 70
     1
  9
$MAXACTVP
 70
    48
  9
$PINSBASE
 10
0.0
 20
0.0
 30
0.0
  9
$PLIMCHECK
 70
     0
  9
$PEXTMIN
 10
-100000000000000000000.0
 20
-100000000000000000000.0
 30
-100000000000000000000.0
  9
$PEXTMAX
 10
100000000000000000000.0
 20
100000000000000000000.0
 30
100000000000000000000.0
  9
$PLIMMIN
 10
0.0
 20
0.0
  9
$PLIMMAX
 10
12.0
 20
9.0
  9
$UNITMODE
 70
     0
  9
$VISRETAIN
 70
     0
  9
$PLINEGEN
 70
     0
  9
$PSLTSCALE
 70
     0
  9
$TREEDEPTH
 70
  3020
  9
$ATTDIA
 70
     0
  9
$ATTREQ
 70
     1
  9
$BLIPMODE
 70
     1
  9
$COORDS
 70
     1
  9
$DRAGMODE
 70
     2
  9
$OSMODE
 70
     0
  9
$HANDLING
 70
     0
  9
$HANDSEED
  5
F02C
  0
ENDSEC
  0
SECTION
  2
TABLES
  0
TABLE
  2
LTYPE
 70
     3
  0
LTYPE
  2
CONTINUOUS
 70
     0
  3
実線
 72
    65
 73
     0
 40
0.0
  0
LTYPE
  2
DASHDOT
 70
     0
  3
____ _ ____ _ ____ _ ____ _ ____ _ ____ _ ____
 72
    65
 73
     4
 40
5.5
 49
4.0
 49
-0.6
 49
0.3
 49
-0.6
  0
LTYPE
  2
CENTER
 70
     0
  3
Center ____ _ ____ _ ____ _ ____ _ ____ _ ____
 72
    65
 73
     4
 40
1.0
 49
0.5
 49
-0.25
 49
0.0
 49
-0.25
  0
ENDTAB
  0
TABLE
  2
LAYER
 70
    12
  0
LAYER
  2
0
 70
     0
 62
     7
  6
CONTINUOUS
  0
LAYER
  2
BASIS
 70
     0
 62
     6
  6
DASHDOT
  0
LAYER
  2
OUTLINE
 70
     0
 62
     3
  6
CONTINUOUS
  0
LAYER
  2
DETAIL
 70
     0
 62
     5
  6
CONTINUOUS
  0
LAYER
  2
SIZE
 70
     0
 62
    30
  6
CONTINUOUS
  0
LAYER
  2
ARRANGE
 70
     0
 62
     1
  6
CONTINUOUS
  0
LAYER
  2
DEFPOINTS
 70
     0
 62
     7
  6
CONTINUOUS
  0
LAYER
  2
ETC
 70
     0
 62
    61
  6
CONTINUOUS
  0
LAYER
  2
FIX
 70
     0
 62
    11
  6
CONTINUOUS
  0
LAYER
  2
NOTE
 70
     0
 62
     4
  6
CONTINUOUS
  0
LAYER
  2
SERVICESPACE
 70
    64
 62
     2
  6
DASHDOT
  0
LAYER
  2
SYMBOLLINE
 70
    64
 62
    15
  6
CONTINUOUS
  0
ENDTAB
  0
TABLE
  2
STYLE
 70
     1
  0
STYLE
  2
STANDARD
 70
     0
 40
64.0
 41
0.9
 50
0.0
 71
     0
 42
64.0
  3
SIMPLEX.shx
  4
BIGFONT.shx
  0
ENDTAB
  0
TABLE
  2
APPID
 70
    19
  0
APPID
  2
ACAD
 70
     0
  0
APPID
  2
AUTOCAD_POSTSCRIPT_FIGURE
 70
     0
  0
APPID
  2
ACAD_EXEMPT_FROM_CAD_STANDARDS
 70
     0
  0
APPID
  2
ACAD_PSEXT
 70
     0
  0
APPID
  2
ACAUTHENVIRON
 70
     0
  0
APPID
  2
GENIUS_GENOENT_13
 70
     0
  0
APPID
  2
GENIUS_GENCFG_13
 70
     0
  0
APPID
  2
GENIUS_GENCFG0_13
 70
     0
  0
APPID
  2
GENIUS_GENCFG1_13
 70
     0
  0
APPID
  2
GENIUS_GENCFG2_13
 70
     0
  0
APPID
  2
GENIUS_GENCFG3_13
 70
     0
  0
APPID
  2
GENIUS_GENCFG4_13
 70
     0
  0
APPID
  2
GENIUS_GEVCFG0_13
 70
     0
  0
APPID
  2
CONTENTBLOCKICON
 70
     0
  0
APPID
  2
CONTENTBLOCKDESCRIPTION
 70
     0
  0
APPID
  2
ACAD_NAV_VCDISPLAY
 70
     0
  0
APPID
  2
ACAD_MLEADERVER
 70
     0
  0
APPID
  2
ACDBDYNAMICBLOCKTRUENAME
 70
     0
  0
APPID
  2
ACDBDYNAMICBLOCKGUID
 70
     0
  0
ENDTAB
  0
TABLE
  2
DIMSTYLE
 70
     1
  0
DIMSTYLE
  2
STANDARD
 70
     0
  3

  4

  5
_ORIGIN
  6

  7

 40
1.0
 41
12.0
 42
20.0
 43
200.0
 44
20.0
 45
0.0
 46
0.0
 47
0.0
 48
0.0
140
64.0
141
0.09
142
0.0
143
25.399999999999999
144
1.0
145
0.0
146
1.0
147
25.0
 71
     0
 72
     0
 73
     0
 74
     0
 75
     0
 76
     0
 77
     1
 78
     8
170
     0
171
     2
172
     1
173
     0
174
     1
175
     0
176
     7
177
     7
178
     7
  0
ENDTAB
  0
TABLE
  2
VIEW
 70
     1
  0
VIEW
  2
ALL
 70
     0
 40
4282.6198079999986
 10
0.0
 20
41.309904000000003
 41
5940.0
 11
0.0
 21
0.0
 31
1.0
 12
0.0
 22
0.0
 32
0.0
 42
50.0
 43
0.0
 44
0.0
 50
0.0
 71
     0
  0
ENDTAB
  0
TABLE
  2
UCS
 70
     0
  0
ENDTAB
  0
TABLE
  2
VPORT
 70
     1
  0
VPORT
  2
*ACTIVE
 70
     0
 10
0.0
 20
0.0
 11
1.0
 21
1.0
 12
531.81382670511175
 22
98.052988408660042
 13
0.0
 23
0.0
 14
1.0
 24
1.0
 15
0.0
 25
0.0
 16
0.0
 26
0.0
 36
1.0
 17
0.0
 27
0.0
 37
0.0
 40
1054.7679210837621
 41
1.747787610619469
 42
50.0
 43
0.0
 44
0.0
 50
0.0
 51
0.0
 71
     0
 72
  1000
 73
     1
 74
     3
 75
     0
 76
     0
 77
     0
 78
     0
  0
ENDTAB
  0
ENDSEC
  0
SECTION
  2
BLOCKS
  0
BLOCK
  8
0
  2
_ORIGIN
 70
     0
 10
0.0
 20
0.0
 30
0.0
  3
_ORIGIN
  1
_ORIGIN
  0
CIRCLE
  8
0
  6
CONTINUOUS
 62
     7
 10
0.0
 20
0.0
 30
0.0
 40
0.5
  0
LINE
  8
0
  6
CONTINUOUS
 62
     7
 10
0.0
 20
0.0
 30
0.0
 11
-1.0
 21
0.0
 31
0.0
  0
ENDBLK
  8
0
  0
ENDSEC
  0
SECTION
  2
ENTITIES
  0
TEXT
  8
ETC
  6
CONTINUOUS
 62
    61
 10
789.82778646299403
 20
557.83560581222309
 30
0.0
 40
64.0
  1
VD-07ZVC6_2
 41
0.9
  0
TEXT
  8
ETC
  6
CONTINUOUS
 62
    61
 10
785.64179246299364
 20
439.88029579739191
 30
0.0
 40
64.0
  1
換気扇
 41
0.9
  0
TEXT
  8
ETC
  6
CONTINUOUS
 62
    61
 10
836.3431907115496
 20
331.73152291116662
 30
0.0
 40
40.0
  1
VD-07ZVC6
 41
0.9
  0
TEXT
  8
NOTE
  6
CONTINUOUS
 62
     4
 10
-43.873879225403932
 20
70.986625103944903
 30
0.0
 40
64.0
  1
EA
 41
0.9
  0
LINE
  8
BASIS
  6
DASHDOT
 62
     6
 10
0.0
 20
195.20970600000001
 30
0.0
 11
0.0
 21
-32.073361999999968
 31
0.0
  0
CIRCLE
  8
FIX
  6
CONTINUOUS
 62
    11
 10
-81.0
 20
0.0
 30
0.0
 40
10.0
  0
CIRCLE
  8
FIX
  6
CONTINUOUS
 62
    11
 10
-50.0
 20
0.0
 30
0.0
 40
10.0
  0
CIRCLE
  8
ARRANGE
  6
CONTINUOUS
 62
     1
 10
0.0
 20
0.0
 30
0.0
 40
40.0
  0
POINT
  8
ARRANGE
  6
CONTINUOUS
 62
     1
 10
0.0
 20
0.0
 30
0.0
 50
90.0
  0
TEXT
  8
NOTE
  6
CONTINUOUS
 62
     4
 10
197.80378245062499
 20
392.19207532828841
 30
0.0
 40
64.0
  1
EL
 41
0.9
  0
LINE
  8
NOTE
  6
CONTINUOUS
 62
     4
 10
339.82094409062051
 20
369.59841560060158
 30
0.0
 11
171.29645256420139
 21
369.59841560055918
 31
0.0
  0
LINE
  8
NOTE
  6
CONTINUOUS
 62
     4
 10
54.0
 20
153.0
 30
0.0
 11
171.29645256420139
 21
369.59841560055918
 31
0.0
  0
LINE
  8
NOTE
  6
CONTINUOUS
 62
     4
 10
54.0
 20
153.0
 30
0.0
 11
82.073374044112597
 21
179.64394918745009
 31
0.0
  0
LINE
  8
NOTE
  6
CONTINUOUS
 62
     4
 10
61.302562394578437
 20
192.2580497038455
 30
0.0
 11
54.0
 21
153.0
 31
0.0
  0
LINE
  8
NOTE
  6
CONTINUOUS
 62
     4
 10
81.0
 20
0.0
 30
0.0
 11
308.6414893528314
 21
256.21047760540728
 31
0.0
  0
LINE
  8
NOTE
  6
CONTINUOUS
 62
     4
 10
81.0
 20
0.0
 30
0.0
 11
112.312745347579
 21
22.683422418883421
 31
0.0
  0
LINE
  8
NOTE
  6
CONTINUOUS
 62
     4
 10
99.995274694023465
 20
35.19929633376114
 30
0.0
 11
81.0
 21
0.0
 31
0.0
  0
LINE
  8
NOTE
  6
CENTER
 62
     4
 10
54.0
 20
166.69505899999999
 30
0.0
 11
54.0
 21
137.6770310000002
 31
0.0
  0
LINE
  8
NOTE
  6
CENTER
 62
     4
 10
-50.0
 20
9.0258170000000746
 30
0.0
 11
-50.0
 21
-9.0
 31
0.0
  0
LINE
  8
NOTE
  6
CENTER
 62
     4
 10
50.0
 20
9.0258170000000746
 30
0.0
 11
50.0
 21
-9.0
 31
0.0
  0
LINE
  8
NOTE
  6
CENTER
 62
     4
 10
-81.0
 20
9.0258170000000746
 30
0.0
 11
-81.0
 21
-9.0
 31
0.0
  0
LINE
  8
NOTE
  6
CENTER
 62
     4
 10
81.0
 20
9.0258170000000746
 30
0.0
 11
81.0
 21
-9.0
 31
0.0
  0
LINE
  8
BASIS
  6
DASHDOT
 62
     6
 10
41.5
 20
90.0
 30
0.0
 11
-41.5
 21
90.0
 31
0.0
  0
LINE
  8
DETAIL
  6
CONTINUOUS
 62
     5
 10
-22.450083999999951
 20
185.0
 30
0.0
 11
-22.450083999999951
 21
159.25594899999999
 31
0.0
  0
LINE
  8
OUTLINE
  6
CONTINUOUS
 62
     3
 10
-22.450083999999951
 20
185.0
 30
0.0
 11
-22.450083999999951
 21
159.25594899999999
 31
0.0
  0
ARC
  8
DETAIL
  6
CONTINUOUS
 62
     5
 10
-16.950083999999951
 20
185.0
 30
0.0
 40
5.5
 50
90.0
 51
180.0
  0
ARC
  8
OUTLINE
  6
CONTINUOUS
 62
     3
 10
-16.950083999999951
 20
185.0
 30
0.0
 40
5.5
 50
90.0
 51
180.0
  0
LINE
  8
DETAIL
  6
CONTINUOUS
 62
     5
 10
-16.950083999999951
 20
190.5
 30
0.0
 11
8.9999159999999847
 21
190.5
 31
0.0
  0
LINE
  8
OUTLINE
  6
CONTINUOUS
 62
     3
 10
-16.950083999999951
 20
190.5
 30
0.0
 11
8.9999159999999847
 21
190.5
 31
0.0
  0
LINE
  8
DETAIL
  6
CONTINUOUS
 62
     5
 10
40.44991600000003
 20
185.0
 30
0.0
 11
40.44991600000003
 21
153.0
 31
0.0
  0
LINE
  8
OUTLINE
  6
CONTINUOUS
 62
     3
 10
40.44991600000003
 20
185.0
 30
0.0
 11
40.44991600000003
 21
153.0
 31
0.0
  0
ARC
  8
DETAIL
  6
CONTINUOUS
 62
     5
 10
34.94991600000003
 20
185.0
 30
0.0
 40
5.5
 50
0.0
 51
90.0
  0
ARC
  8
OUTLINE
  6
CONTINUOUS
 62
     3
 10
34.94991600000003
 20
185.0
 30
0.0
 40
5.5
 50
0.0
 51
90.0
  0
LINE
  8
DETAIL
  6
CONTINUOUS
 62
     5
 10
34.94991600000003
 20
190.5
 30
0.0
 11
8.9999159999999847
 21
190.5
 31
0.0
  0
LINE
  8
OUTLINE
  6
CONTINUOUS
 62
     3
 10
34.94991600000003
 20
190.5
 30
0.0
 11
8.9999159999999847
 21
190.5
 31
0.0
  0
LINE
  8
DETAIL
  6
CONTINUOUS
 62
     5
 10
0.0
 20
-9.0
 30
0.0
 11
-104.44323199999999
 21
-9.0
 31
0.0
  0
LINE
  8
DETAIL
  6
CONTINUOUS
 62
     5
 10
0.0
 20
-9.0
 30
0.0
 11
104.4432310000001
 21
-9.0
 31
0.0
  0
ARC
  8
DETAIL
  6
CONTINUOUS
 62
     5
 10
-97.806689999999861
 20
-14.0
 30
0.0
 40
1.0
 50
226.49999999999571
 51
270.0
  0
ARC
  8
OUTLINE
  6
CONTINUOUS
 62
     3
 10
-97.806689999999861
 20
-14.0
 30
0.0
 40
1.0
 50
226.49999999999571
 51
270.0
  0
ARC
  8
DETAIL
  6
CONTINUOUS
 62
     5
 10
97.806689000000119
 20
-14.0
 30
0.0
 40
1.0
 50
270.0
 51
313.50000000000432
  0
ARC
  8
OUTLINE
  6
CONTINUOUS
 62
     3
 10
97.806689000000119
 20
-14.0
 30
0.0
 40
1.0
 50
270.0
 51
313.50000000000432
  0
LINE
  8
DETAIL
  6
CONTINUOUS
 62
     5
 10
-98.495044999999863
 20
-14.725374999999991
 30
0.0
 11
-104.238935
 21
-9.274626000000012
 31
0.0
  0
LINE
  8
OUTLINE
  6
CONTINUOUS
 62
     3
 10
-98.495044999999863
 20
-14.725374999999991
 30
0.0
 11
-104.238935
 21
-9.274626000000012
 31
0.0
  0
LINE
  8
DETAIL
  6
CONTINUOUS
 62
     5
 10
98.495044000000121
 20
-14.725374999999991
 30
0.0
 11
104.2389340000001
 21
-9.274626000000012
 31
0.0
  0
LINE
  8
OUTLINE
  6
CONTINUOUS
 62
     3
 10
98.495044000000121
 20
-14.725374999999991
 30
0.0
 11
104.2389340000001
 21
-9.274626000000012
 31
0.0
  0
ARC
  8
DETAIL
  6
CONTINUOUS
 62
     5
 10
-103.55058099999999
 20
-8.5492520000000241
 30
0.0
 40
1.0
 50
182.99999999999901
 51
226.49999999999571
  0
ARC
  8
OUTLINE
  6
CONTINUOUS
 62
     3
 10
-103.55058099999999
 20
-8.5492519999999104
 30
0.0
 40
1.0
 50
182.99999999999901
 51
226.49999999999571
  0
ARC
  8
DETAIL
  6
CONTINUOUS
 62
     5
 10
103.5505800000001
 20
-8.5492520000000241
 30
0.0
 40
1.0
 50
313.50000000000432
 51
357.00000000000102
  0
ARC
  8
OUTLINE
  6
CONTINUOUS
 62
     3
 10
103.5505800000001
 20
-8.5492519999999104
 30
0.0
 40
1.0
 50
313.50000000000432
 51
357.00000000000102
  0
LINE
  8
DETAIL
  6
CONTINUOUS
 62
     5
 10
-104.5492099999999
 20
-8.6015879999999925
 30
0.0
 11
-104.9724249999999
 21
-0.5261679999999842
 31
0.0
  0
LINE
  8
OUTLINE
  6
CONTINUOUS
 62
     3
 10
-104.5492099999999
 20
-8.6015879999999925
 30
0.0
 11
-104.9724249999999
 21
-0.5261679999999842
 31
0.0
  0
LINE
  8
DETAIL
  6
CONTINUOUS
 62
     5
 10
104.549209
 20
-8.6015879999999925
 30
0.0
 11
104.972424
 21
-0.5261679999999842
 31
0.0
  0
LINE
  8
OUTLINE
  6
CONTINUOUS
 62
     3
 10
104.549209
 20
-8.6015879999999925
 30
0.0
 11
104.972424
 21
-0.5261679999999842
 31
0.0
  0
ARC
  8
DETAIL
  6
CONTINUOUS
 62
     5
 10
-104.47310999999991
 20
-0.5
 30
0.0
 40
0.5
 50
90.0
 51
182.99999999999901
  0
ARC
  8
OUTLINE
  6
CONTINUOUS
 62
     3
 10
-104.47310999999991
 20
-0.5
 30
0.0
 40
0.5
 50
90.0
 51
182.99999999999901
  0
ARC
  8
DETAIL
  6
CONTINUOUS
 62
     5
 10
104.47310899999999
 20
-0.5
 30
0.0
 40
0.5
 50
357.00000000000102
 51
90.0
  0
ARC
  8
OUTLINE
  6
CONTINUOUS
 62
     3
 10
104.47310899999999
 20
-0.5
 30
0.0
 40
0.5
 50
357.00000000000102
 51
90.0
  0
LINE
  8
DETAIL
  6
CONTINUOUS
 62
     5
 10
-97.806689999999861
 20
-15.0
 30
0.0
 11
0.0
 21
-15.0
 31
0.0
  0
LINE
  8
OUTLINE
  6
CONTINUOUS
 62
     3
 10
-97.806689999999861
 20
-15.0
 30
0.0
 11
0.0
 21
-15.0
 31
0.0
  0
LINE
  8
DETAIL
  6
CONTINUOUS
 62
     5
 10
97.806689000000119
 20
-15.0
 30
0.0
 11
0.0
 21
-15.0
 31
0.0
  0
LINE
  8
OUTLINE
  6
CONTINUOUS
 62
     3
 10
97.806689000000119
 20
-15.0
 30
0.0
 11
0.0
 21
-15.0
 31
0.0
  0
LINE
  8
DETAIL
  6
CONTINUOUS
 62
     5
 10
-54.81573800000001
 20
0.0
 30
0.0
 11
-54.814868999999931
 21
0.1453290000000607
 31
0.0
  0
LINE
  8
DETAIL
  6
CONTINUOUS
 62
     5
 10
54.815737000000013
 20
0.0
 30
0.0
 11
54.814868000000047
 21
0.1453290000000607
 31
0.0
  0
LINE
  8
DETAIL
  6
CONTINUOUS
 62
     5
 10
-104.47310999999991
 20
0.0
 30
0.0
 11
0.0
 21
0.0
 31
0.0
  0
LINE
  8
OUTLINE
  6
CONTINUOUS
 62
     3
 10
-104.47310999999991
 20
0.0
 30
0.0
 11
-72.000304999999912
 21
0.0
 31
0.0
  0
LINE
  8
DETAIL
  6
CONTINUOUS
 62
     5
 10
104.47310899999999
 20
0.0
 30
0.0
 11
0.0
 21
0.0
 31
0.0
  0
LINE
  8
OUTLINE
  6
CONTINUOUS
 62
     3
 10
104.47310899999999
 20
0.0
 30
0.0
 11
72.000304000000028
 21
0.0
 31
0.0
  0
LINE
  8
DETAIL
  6
CONTINUOUS
 62
     5
 10
-54.81573800000001
 20
0.0
 30
0.0
 11
-53.184262999999987
 21
0.0
 31
0.0
  0
LINE
  8
DETAIL
  6
CONTINUOUS
 62
     5
 10
54.815737000000013
 20
0.0
 30
0.0
 11
53.184262000000103
 21
0.0
 31
0.0
  0
LINE
  8
DETAIL
  6
CONTINUOUS
 62
     5
 10
-58.696317999999913
 20
0.0
 30
0.0
 11
-54.81573800000001
 21
0.0
 31
0.0
  0
LINE
  8
DETAIL
  6
CONTINUOUS
 62
     5
 10
58.696317000000022
 20
0.0
 30
0.0
 11
54.815737000000013
 21
0.0
 31
0.0
  0
LINE
  8
DETAIL
  6
CONTINUOUS
 62
     5
 10
-62.184463999999927
 20
0.0
 30
0.0
 11
-57.627071000000001
 21
0.0
 31
0.0
  0
LINE
  8
DETAIL
  6
CONTINUOUS
 62
     5
 10
62.184462999999937
 20
0.0
 30
0.0
 11
57.627070000000117
 21
0.0
 31
0.0
  0
ARC
  8
DETAIL
  6
CONTINUOUS
 62
     5
 10
-67.45156099999997
 20
146.0
 30
0.0
 40
2.0
 50
90.0
 51
178.99999999999821
  0
ARC
  8
OUTLINE
  6
CONTINUOUS
 62
     3
 10
-67.45156099999997
 20
146.0
 30
0.0
 40
2.0
 50
90.0
 51
178.99999999999821
  0
ARC
  8
DETAIL
  6
CONTINUOUS
 62
     5
 10
67.451560000000086
 20
146.0
 30
0.0
 40
2.0
 50
0.9999999999952632
 51
90.0
  0
ARC
  8
OUTLINE
  6
CONTINUOUS
 62
     3
 10
67.451560000000086
 20
146.0
 30
0.0
 40
2.0
 50
0.9999999999952632
 51
90.0
  0
LINE
  8
DETAIL
  6
CONTINUOUS
 62
     5
 10
-30.0
 20
148.0
 30
0.0
 11
-67.45156099999997
 21
148.0
 31
0.0
  0
LINE
  8
OUTLINE
  6
CONTINUOUS
 62
     3
 10
-62.0
 20
148.0
 30
0.0
 11
-67.45156099999997
 21
148.0
 31
0.0
  0
LINE
  8
DETAIL
  6
CONTINUOUS
 62
     5
 10
30.0
 20
148.0
 30
0.0
 11
67.451560000000086
 21
148.0
 31
0.0
  0
LINE
  8
OUTLINE
  6
CONTINUOUS
 62
     3
 10
62.0
 20
148.0
 30
0.0
 11
67.451560000000086
 21
148.0
 31
0.0
  0
LINE
  8
DETAIL
  6
CONTINUOUS
 62
     5
 10
-69.451255999999944
 20
146.03490400000001
 30
0.0
 11
-71.999695999999972
 21
0.0349039999999832
 31
0.0
  0
LINE
  8
OUTLINE
  6
CONTINUOUS
 62
     3
 10
-69.451255999999944
 20
146.03490400000001
 30
0.0
 11
-71.999695999999972
 21
0.0349039999999832
 31
0.0
  0
LINE
  8
DETAIL
  6
CONTINUOUS
 62
     5
 10
69.45125500000006
 20
146.03490400000001
 30
0.0
 11
71.999695000000088
 21
0.0349039999999832
 31
0.0
  0
LINE
  8
OUTLINE
  6
CONTINUOUS
 62
     3
 10
69.45125500000006
 20
146.03490400000001
 30
0.0
 11
71.999695000000088
 21
0.0349039999999832
 31
0.0
  0
ARC
  8
DETAIL
  6
CONTINUOUS
 62
     5
 10
-43.0
 20
152.0
 30
0.0
 40
1.0
 50
0.0
 51
90.0
  0
ARC
  8
DETAIL
  6
CONTINUOUS
 62
     5
 10
43.0
 20
152.0
 30
0.0
 40
1.0
 50
90.0
 51
180.0
  0
ARC
  8
DETAIL
  6
CONTINUOUS
 62
     5
 10
-61.0
 20
152.0
 30
0.0
 40
1.0
 50
90.0
 51
180.0
  0
ARC
  8
OUTLINE
  6
CONTINUOUS
 62
     3
 10
-61.0
 20
152.0
 30
0.0
 40
1.0
 50
90.0
 51
180.0
  0
ARC
  8
DETAIL
  6
CONTINUOUS
 62
     5
 10
61.0
 20
152.0
 30
0.0
 40
1.0
 50
0.0
 51
90.0
  0
ARC
  8
OUTLINE
  6
CONTINUOUS
 62
     3
 10
61.0
 20
152.0
 30
0.0
 40
1.0
 50
0.0
 51
90.0
  0
LINE
  8
DETAIL
  6
CONTINUOUS
 62
     5
 10
-42.0
 20
152.0
 30
0.0
 11
-42.0
 21
148.0
 31
0.0
  0
LINE
  8
DETAIL
  6
CONTINUOUS
 62
     5
 10
42.0
 20
152.0
 30
0.0
 11
42.0
 21
148.0
 31
0.0
  0
LINE
  8
DETAIL
  6
CONTINUOUS
 62
     5
 10
-62.0
 20
152.0
 30
0.0
 11
-62.0
 21
148.0
 31
0.0
  0
LINE
  8
OUTLINE
  6
CONTINUOUS
 62
     3
 10
-62.0
 20
152.0
 30
0.0
 11
-62.0
 21
148.0
 31
0.0
  0
LINE
  8
DETAIL
  6
CONTINUOUS
 62
     5
 10
62.0
 20
152.0
 30
0.0
 11
62.0
 21
148.0
 31
0.0
  0
LINE
  8
OUTLINE
  6
CONTINUOUS
 62
     3
 10
62.0
 20
152.0
 30
0.0
 11
62.0
 21
148.0
 31
0.0
  0
LINE
  8
DETAIL
  6
CONTINUOUS
 62
     5
 10
-30.0
 20
153.0
 30
0.0
 11
-61.0
 21
153.0
 31
0.0
  0
LINE
  8
OUTLINE
  6
CONTINUOUS
 62
     3
 10
-30.0
 20
153.0
 30
0.0
 11
-61.0
 21
153.0
 31
0.0
  0
LINE
  8
DETAIL
  6
CONTINUOUS
 62
     5
 10
30.0
 20
153.0
 30
0.0
 11
61.0
 21
153.0
 31
0.0
  0
LINE
  8
OUTLINE
  6
CONTINUOUS
 62
     3
 10
40.44991600000003
 20
153.0
 30
0.0
 11
61.0
 21
153.0
 31
0.0
  0
ARC
  8
DETAIL
  6
CONTINUOUS
 62
     5
 10
-28.0
 20
154.5
 30
0.0
 40
2.0
 50
118.0724869999991
 51
180.0
  0
ARC
  8
OUTLINE
  6
CONTINUOUS
 62
     3
 10
-28.0
 20
154.5
 30
0.0
 40
2.0
 50
118.0724869999991
 51
180.0
  0
ARC
  8
DETAIL
  6
CONTINUOUS
 62
     5
 10
28.0
 20
154.5
 30
0.0
 40
2.0
 50
0.0
 51
61.927513000000893
  0
LINE
  8
DETAIL
  6
CONTINUOUS
 62
     5
 10
-30.0
 20
153.0
 30
0.0
 11
-30.0
 21
154.5
 31
0.0
  0
LINE
  8
OUTLINE
  6
CONTINUOUS
 62
     3
 10
-30.0
 20
153.0
 30
0.0
 11
-30.0
 21
154.5
 31
0.0
  0
LINE
  8
DETAIL
  6
CONTINUOUS
 62
     5
 10
30.0
 20
153.0
 30
0.0
 11
30.0
 21
154.5
 31
0.0
  0
ARC
  8
DETAIL
  6
CONTINUOUS
 62
     5
 10
0.0
 20
102.0
 30
0.0
 40
61.5
 50
90.0
 51
118.0724869999991
  0
ARC
  8
OUTLINE
  6
CONTINUOUS
 62
     3
 10
0.0
 20
102.0
 30
0.0
 40
61.5
 50
111.4101679999992
 51
118.0724869999991
  0
ARC
  8
DETAIL
  6
CONTINUOUS
 62
     5
 10
0.0
 20
102.0
 30
0.0
 40
61.5
 50
61.927513000000893
 51
90.0
  0
LINE
  8
DETAIL
  6
CONTINUOUS
 62
     5
 10
-30.0
 20
148.0
 30
0.0
 11
-30.0
 21
153.0
 31
0.0
  0
LINE
  8
DETAIL
  6
CONTINUOUS
 62
     5
 10
30.0
 20
148.0
 30
0.0
 11
30.0
 21
153.0
 31
0.0
  0
LINE
  8
DETAIL
  6
CONTINUOUS
 62
     5
 10
-4.1096199999999499
 20
134.31707700000001
 30
0.0
 11
-35.656418999999907
 21
134.31707700000001
 31
0.0
  0
LINE
  8
DETAIL
  6
CONTINUOUS
 62
     5
 10
4.1096190000000661
 20
134.31707700000001
 30
0.0
 11
35.656418000000137
 21
134.31707700000001
 31
0.0
  0
ARC
  8
DETAIL
  6
CONTINUOUS
 62
     5
 10
0.0
 20
90.0
 30
0.0
 40
36.5
 50
90.0
 51
270.0
  0
ARC
  8
DETAIL
  6
CONTINUOUS
 62
     5
 10
0.0
 20
90.0
 30
0.0
 40
36.5
 50
270.0
 51
90.0
  0
ARC
  8
DETAIL
  6
CONTINUOUS
 62
     5
 10
0.0
 20
90.0
 30
0.0
 40
34.5
 50
90.0
 51
270.0
  0
ARC
  8
DETAIL
  6
CONTINUOUS
 62
     5
 10
0.0
 20
90.0
 30
0.0
 40
34.5
 50
270.0
 51
90.0
  0
ARC
  8
DETAIL
  6
CONTINUOUS
 62
     5
 10
0.0
 20
90.0
 30
0.0
 40
40.309728
 50
120.9350569999982
 51
270.0
  0
ARC
  8
DETAIL
  6
CONTINUOUS
 62
     5
 10
0.0
 20
90.0
 30
0.0
 40
40.309728
 50
270.0
 51
59.064943000001819
  0
LINE
  8
DETAIL
  6
CONTINUOUS
 62
     5
 10
-19.75
 20
126.291191
 30
0.0
 11
-19.75
 21
128.623839
 31
0.0
  0
LINE
  8
DETAIL
  6
CONTINUOUS
 62
     5
 10
19.75
 20
126.291191
 30
0.0
 11
19.75
 21
128.623839
 31
0.0
  0
ARC
  8
DETAIL
  6
CONTINUOUS
 62
     5
 10
0.0
 20
90.0
 30
0.0
 40
44.507216
 50
90.0
 51
114.681654000004
  0
ARC
  8
DETAIL
  6
CONTINUOUS
 62
     5
 10
0.0
 20
90.0
 30
0.0
 40
44.507216
 50
65.318345999995998
 51
90.0
  0
ARC
  8
DETAIL
  6
CONTINUOUS
 62
     5
 10
-35.656418999999907
 20
122.317077
 30
0.0
 40
12.0
 50
90.0
 51
180.0
  0
ARC
  8
DETAIL
  6
CONTINUOUS
 62
     5
 10
35.656418000000137
 20
122.317077
 30
0.0
 40
12.0
 50
0.0
 51
90.0
  0
ARC
  8
DETAIL
  6
CONTINUOUS
 62
     5
 10
-17.75
 20
128.623839
 30
0.0
 40
2.0
 50
114.681654000004
 51
180.0
  0
ARC
  8
DETAIL
  6
CONTINUOUS
 62
     5
 10
17.75
 20
128.623839
 30
0.0
 40
2.0
 50
0.0
 51
65.318345999995998
  0
ARC
  8
DETAIL
  6
CONTINUOUS
 62
     5
 10
-21.75
 20
126.291191
 30
0.0
 40
2.0
 50
300.93505699999821
 51
0.0
  0
ARC
  8
DETAIL
  6
CONTINUOUS
 62
     5
 10
21.75
 20
126.291191
 30
0.0
 40
2.0
 50
180.0
 51
239.06494300000179
  0
LINE
  8
DETAIL
  6
CONTINUOUS
 62
     5
 10
-47.656418999999907
 20
122.317077
 30
0.0
 11
-47.656418999999907
 21
60.084793999999988
 31
0.0
  0
LINE
  8
DETAIL
  6
CONTINUOUS
 62
     5
 10
47.656418000000137
 20
122.317077
 30
0.0
 11
47.656418000000137
 21
60.084793999999988
 31
0.0
  0
LINE
  8
DETAIL
  6
CONTINUOUS
 62
     5
 10
-35.656418999999907
 20
48.084793999999988
 30
0.0
 11
0.0
 21
48.084793999999988
 31
0.0
  0
LINE
  8
DETAIL
  6
CONTINUOUS
 62
     5
 10
35.656418000000137
 20
48.084793999999988
 30
0.0
 11
0.0
 21
48.084793999999988
 31
0.0
  0
ARC
  8
DETAIL
  6
CONTINUOUS
 62
     5
 10
-35.656418999999907
 20
60.084793999999988
 30
0.0
 40
12.0
 50
180.0
 51
270.0
  0
ARC
  8
DETAIL
  6
CONTINUOUS
 62
     5
 10
35.656418000000137
 20
60.084793999999988
 30
0.0
 40
12.0
 50
270.0
 51
0.0
  0
LINE
  8
DETAIL
  6
CONTINUOUS
 62
     5
 10
-47.5
 20
158.0
 30
0.0
 11
-47.456366000000003
 21
153.0
 31
0.0
  0
LINE
  8
DETAIL
  6
CONTINUOUS
 62
     5
 10
47.5
 20
158.0
 30
0.0
 11
47.456365000000119
 21
153.0
 31
0.0
  0
LINE
  8
DETAIL
  6
CONTINUOUS
 62
     5
 10
-49.5
 20
158.0
 30
0.0
 11
-49.543634999999988
 21
153.0
 31
0.0
  0
LINE
  8
DETAIL
  6
CONTINUOUS
 62
     5
 10
49.5
 20
158.0
 30
0.0
 11
49.543633999999997
 21
153.0
 31
0.0
  0
LINE
  8
DETAIL
  6
CONTINUOUS
 62
     5
 10
-54.5
 20
158.0
 30
0.0
 11
-54.456366000000003
 21
153.0
 31
0.0
  0
LINE
  8
DETAIL
  6
CONTINUOUS
 62
     5
 10
54.5
 20
158.0
 30
0.0
 11
54.456365000000119
 21
153.0
 31
0.0
  0
LINE
  8
DETAIL
  6
CONTINUOUS
 62
     5
 10
-56.5
 20
158.0
 30
0.0
 11
-56.543634999999988
 21
153.0
 31
0.0
  0
LINE
  8
DETAIL
  6
CONTINUOUS
 62
     5
 10
56.5
 20
158.0
 30
0.0
 11
56.543633999999997
 21
153.0
 31
0.0
  0
LINE
  8
DETAIL
  6
CONTINUOUS
 62
     5
 10
-49.5
 20
158.0
 30
0.0
 11
-47.5
 21
158.0
 31
0.0
  0
LINE
  8
DETAIL
  6
CONTINUOUS
 62
     5
 10
49.5
 20
158.0
 30
0.0
 11
47.5
 21
158.0
 31
0.0
  0
LINE
  8
DETAIL
  6
CONTINUOUS
 62
     5
 10
-54.5
 20
158.0
 30
0.0
 11
-56.5
 21
158.0
 31
0.0
  0
LINE
  8
DETAIL
  6
CONTINUOUS
 62
     5
 10
54.5
 20
158.0
 30
0.0
 11
56.5
 21
158.0
 31
0.0
  0
CIRCLE
  8
FIX
  6
CONTINUOUS
 62
    11
 10
81.0
 20
0.0
 30
0.0
 40
10.0
  0
CIRCLE
  8
FIX
  6
CONTINUOUS
 62
    11
 10
50.0
 20
0.0
 30
0.0
 40
10.0
  0
LINE
  8
SIZE
  6
CONTINUOUS
 62
    30
 10
-50.0
 20
-29.0
 30
0.0
 11
-50.0
 21
-159.5037881398886
 31
0.0
  0
LINE
  8
SIZE
  6
CONTINUOUS
 62
    30
 10
50.0
 20
-29.0
 30
0.0
 11
50.0
 21
-159.5037881398886
 31
0.0
  0
LINE
  8
SIZE
  6
CONTINUOUS
 62
    30
 10
38.0
 20
-139.50378813988851
 30
0.0
 11
-38.0
 21
-139.50378813988851
 31
0.0
  0
LINE
  8
SIZE
  6
CONTINUOUS
 62
    30
 10
-50.0
 20
-139.50378813988851
 30
0.0
 11
-282.64897357806018
 21
-139.50378813988851
 31
0.0
  0
CIRCLE
  8
SIZE
  6
CONTINUOUS
 62
    30
 10
50.0
 20
-139.50378813988851
 30
0.0
 40
6.0
  0
LINE
  8
SIZE
  6
CONTINUOUS
 62
    30
 10
50.0
 20
-139.50378813988851
 30
0.0
 11
38.0
 21
-139.50378813988851
 31
0.0
  0
CIRCLE
  8
SIZE
  6
CONTINUOUS
 62
    30
 10
-50.0
 20
-139.50378813988851
 30
0.0
 40
6.0
  0
LINE
  8
SIZE
  6
CONTINUOUS
 62
    30
 10
-50.0
 20
-139.50378813988851
 30
0.0
 11
-38.0
 21
-139.50378813988851
 31
0.0
  0
TEXT
  8
SIZE
  6
CONTINUOUS
 62
    30
 10
-257.64897357806029
 20
-114.5037881398885
 30
0.0
 40
64.0
  1
100
 41
0.9
 72
     1
 11
-189.07754500663171
 21
-114.5037881398885
 31
0.0
  0
POINT
  8
DEFPOINTS
  6
CONTINUOUS
 62
    30
 10
-50.0
 20
-9.0
 30
0.0
  0
POINT
  8
DEFPOINTS
  6
CONTINUOUS
 62
    30
 10
50.0
 20
-9.0
 30
0.0
  0
POINT
  8
DEFPOINTS
  6
CONTINUOUS
 62
    30
 10
50.0
 20
-139.50378813988851
 30
0.0
  0
LINE
  8
SIZE
  6
CONTINUOUS
 62
    30
 10
-81.0
 20
-29.0
 30
0.0
 11
-81.0
 21
-302.52006728439221
 31
0.0
  0
LINE
  8
SIZE
  6
CONTINUOUS
 62
    30
 10
81.0
 20
-29.0
 30
0.0
 11
81.0
 21
-302.52006728439221
 31
0.0
  0
LINE
  8
SIZE
  6
CONTINUOUS
 62
    30
 10
-93.0
 20
-282.52006728439221
 30
0.0
 11
-105.0
 21
-282.52006728439221
 31
0.0
  0
LINE
  8
SIZE
  6
CONTINUOUS
 62
    30
 10
93.0
 20
-282.52006728439221
 30
0.0
 11
105.0
 21
-282.52006728439221
 31
0.0
  0
LINE
  8
SIZE
  6
CONTINUOUS
 62
    30
 10
-81.0
 20
-282.52006728439221
 30
0.0
 11
81.0
 21
-282.52006728439221
 31
0.0
  0
CIRCLE
  8
SIZE
  6
CONTINUOUS
 62
    30
 10
-81.0
 20
-282.52006728439221
 30
0.0
 40
6.0
  0
LINE
  8
SIZE
  6
CONTINUOUS
 62
    30
 10
-81.0
 20
-282.52006728439221
 30
0.0
 11
-93.0
 21
-282.52006728439221
 31
0.0
  0
CIRCLE
  8
SIZE
  6
CONTINUOUS
 62
    30
 10
81.0
 20
-282.52006728439221
 30
0.0
 40
6.0
  0
LINE
  8
SIZE
  6
CONTINUOUS
 62
    30
 10
81.0
 20
-282.52006728439221
 30
0.0
 11
93.0
 21
-282.52006728439221
 31
0.0
  0
TEXT
  8
SIZE
  6
CONTINUOUS
 62
    30
 10
-68.571428571428569
 20
-257.52006728439221
 30
0.0
 40
64.0
  1
162
 41
0.9
 72
     1
 11
0.0
 21
-257.52006728439221
 31
0.0
  0
POINT
  8
DEFPOINTS
  6
CONTINUOUS
 62
    30
 10
-81.0
 20
-9.0
 30
0.0
  0
POINT
  8
DEFPOINTS
  6
CONTINUOUS
 62
    30
 10
81.0
 20
-9.0
 30
0.0
  0
POINT
  8
DEFPOINTS
  6
CONTINUOUS
 62
    30
 10
81.0
 20
-282.52006728439221
 30
0.0
  0
LINE
  8
SIZE
  6
CONTINUOUS
 62
    30
 10
-104.97242476737721
 20
-20.52616797812146
 30
0.0
 11
-104.97242476737721
 21
-425.55141442450002
 31
0.0
  0
LINE
  8
SIZE
  6
CONTINUOUS
 62
    30
 10
104.972424
 20
-20.526167999999981
 30
0.0
 11
104.972424
 21
-425.55141442450002
 31
0.0
  0
LINE
  8
SIZE
  6
CONTINUOUS
 62
    30
 10
-92.97242476737722
 20
-405.55141442450002
 30
0.0
 11
92.972424000000046
 21
-405.55141442450002
 31
0.0
  0
CIRCLE
  8
SIZE
  6
CONTINUOUS
 62
    30
 10
-104.97242476737721
 20
-405.55141442450002
 30
0.0
 40
6.0
  0
LINE
  8
SIZE
  6
CONTINUOUS
 62
    30
 10
-104.97242476737721
 20
-405.55141442450002
 30
0.0
 11
-92.97242476737722
 21
-405.55141442450002
 31
0.0
  0
CIRCLE
  8
SIZE
  6
CONTINUOUS
 62
    30
 10
104.972424
 20
-405.55141442450002
 30
0.0
 40
6.0
  0
LINE
  8
SIZE
  6
CONTINUOUS
 62
    30
 10
104.972424
 20
-405.55141442450002
 30
0.0
 11
92.972424000000046
 21
-405.55141442450002
 31
0.0
  0
TEXT
  8
SIZE
  6
CONTINUOUS
 62
    30
 10
-105.0514289551171
 20
-380.55141442450002
 30
0.0
 40
64.0
  1
□210
 41
0.9
 72
     1
 11
-0.0000003836885298
 21
-380.55141442450002
 31
0.0
  0
POINT
  8
DEFPOINTS
  6
CONTINUOUS
 62
    30
 10
-104.97242476737721
 20
-0.5261679781214639
 30
0.0
  0
POINT
  8
DEFPOINTS
  6
CONTINUOUS
 62
    30
 10
104.972424
 20
-0.5261679999999842
 30
0.0
  0
POINT
  8
DEFPOINTS
  6
CONTINUOUS
 62
    30
 10
104.972424
 20
-405.55141442450002
 30
0.0
  0
LINE
  8
SIZE
  6
CONTINUOUS
 62
    30
 10
54.94991600000003
 20
190.5
 30
0.0
 11
593.70636827927672
 21
190.4999999999998
 31
0.0
  0
LINE
  8
SIZE
  6
CONTINUOUS
 62
    30
 10
124.47310899999999
 20
0.0
 30
0.0
 11
593.70636827927672
 21
-0.0000000000001137
 31
0.0
  0
LINE
  8
SIZE
  6
CONTINUOUS
 62
    30
 10
573.70636827927672
 20
178.49999999999989
 30
0.0
 11
573.70636827927672
 21
11.99999999999989
 31
0.0
  0
CIRCLE
  8
SIZE
  6
CONTINUOUS
 62
    30
 10
573.70636827927672
 20
190.49999999999989
 30
0.0
 40
6.0
  0
LINE
  8
SIZE
  6
CONTINUOUS
 62
    30
 10
573.70636827927672
 20
190.49999999999989
 30
0.0
 11
573.70636827927672
 21
178.49999999999989
 31
0.0
  0
CIRCLE
  8
SIZE
  6
CONTINUOUS
 62
    30
 10
573.70636827927672
 20
-0.0000000000001137
 30
0.0
 40
6.0
  0
LINE
  8
SIZE
  6
CONTINUOUS
 62
    30
 10
573.70636827927672
 20
-0.0000000000001137
 30
0.0
 11
573.70636827927672
 21
11.99999999999989
 31
0.0
  0
TEXT
  8
SIZE
  6
CONTINUOUS
 62
    30
 10
548.70636827927683
 20
39.021428571428579
 30
0.0
 40
64.0
  1
191
 50
90.0
 41
0.9
 72
     1
 11
548.70636827927683
 21
95.25
 31
0.0
  0
POINT
  8
DEFPOINTS
  6
CONTINUOUS
 62
    30
 10
34.94991600000003
 20
190.5
 30
0.0
  0
POINT
  8
DEFPOINTS
  6
CONTINUOUS
 62
    30
 10
104.47310899999999
 20
0.0
 30
0.0
  0
POINT
  8
DEFPOINTS
  6
CONTINUOUS
 62
    30
 10
573.70636827927672
 20
-0.0000000000001137
 30
0.0
  0
LINE
  8
SIZE
  6
CONTINUOUS
 62
    30
 10
124.47310899999999
 20
-0.0000000000000568
 30
0.0
 11
256.39428627384132
 21
-0.0000000000001137
 31
0.0
  0
LINE
  8
SIZE
  6
CONTINUOUS
 62
    30
 10
117.80668900000011
 20
-15.00000000000006
 30
0.0
 11
256.39428627384132
 21
-15.00000000000011
 31
0.0
  0
LINE
  8
SIZE
  6
CONTINUOUS
 62
    30
 10
236.39428627384129
 20
11.99999999999989
 30
0.0
 11
236.39428627384129
 21
23.99999999999989
 31
0.0
  0
LINE
  8
SIZE
  6
CONTINUOUS
 62
    30
 10
236.39428627384129
 20
-27.00000000000011
 30
0.0
 11
236.39428627384129
 21
-185.5271190822925
 31
0.0
  0
LINE
  8
SIZE
  6
CONTINUOUS
 62
    30
 10
236.39428627384129
 20
-0.0000000000001137
 30
0.0
 11
236.39428627384129
 21
-15.00000000000011
 31
0.0
  0
CIRCLE
  8
SIZE
  6
CONTINUOUS
 62
    30
 10
236.39428627384129
 20
-0.0000000000001137
 30
0.0
 40
6.0
  0
LINE
  8
SIZE
  6
CONTINUOUS
 62
    30
 10
236.39428627384129
 20
-0.0000000000001137
 30
0.0
 11
236.39428627384129
 21
11.99999999999989
 31
0.0
  0
CIRCLE
  8
SIZE
  6
CONTINUOUS
 62
    30
 10
236.39428627384129
 20
-15.00000000000011
 30
0.0
 40
6.0
  0
LINE
  8
SIZE
  6
CONTINUOUS
 62
    30
 10
236.39428627384129
 20
-15.00000000000011
 30
0.0
 11
236.39428627384129
 21
-27.00000000000011
 31
0.0
  0
TEXT
  8
SIZE
  6
CONTINUOUS
 62
    30
 10
211.39428627384129
 20
-160.52711908229259
 30
0.0
 40
64.0
  1
15
 50
90.0
 41
0.9
 72
     1
 11
211.39428627384129
 21
-119.3842619394354
 31
0.0
  0
POINT
  8
DEFPOINTS
  6
CONTINUOUS
 62
    30
 10
104.47310899999999
 20
-0.0000000000000568
 30
0.0
  0
POINT
  8
DEFPOINTS
  6
CONTINUOUS
 62
    30
 10
97.806689000000119
 20
-15.00000000000006
 30
0.0
  0
POINT
  8
DEFPOINTS
  6
CONTINUOUS
 62
    30
 10
236.39428627384129
 20
-15.00000000000011
 30
0.0
  0
LINE
  8
SIZE
  6
CONTINUOUS
 62
    30
 10
55.656418000000137
 20
48.084793999999988
 30
0.0
 11
365.80903825403863
 21
48.084793999999867
 31
0.0
  0
LINE
  8
SIZE
  6
CONTINUOUS
 62
    30
 10
124.47310899999999
 20
0.0
 30
0.0
 11
365.80903825403863
 21
-0.0000000000000568
 31
0.0
  0
LINE
  8
SIZE
  6
CONTINUOUS
 62
    30
 10
345.80903825403863
 20
60.084793999999867
 30
0.0
 11
345.80903825403863
 21
72.084793999999874
 31
0.0
  0
LINE
  8
SIZE
  6
CONTINUOUS
 62
    30
 10
345.80903825403863
 20
-12.00000000000006
 30
0.0
 11
345.80903825403851
 21
-193.66219385136091
 31
0.0
  0
LINE
  8
SIZE
  6
CONTINUOUS
 62
    30
 10
345.80903825403863
 20
48.084793999999867
 30
0.0
 11
345.80903825403863
 21
-0.0000000000000568
 31
0.0
  0
CIRCLE
  8
SIZE
  6
CONTINUOUS
 62
    30
 10
345.80903825403863
 20
48.084793999999867
 30
0.0
 40
6.0
  0
LINE
  8
SIZE
  6
CONTINUOUS
 62
    30
 10
345.80903825403863
 20
48.084793999999867
 30
0.0
 11
345.80903825403863
 21
60.084793999999867
 31
0.0
  0
CIRCLE
  8
SIZE
  6
CONTINUOUS
 62
    30
 10
345.80903825403863
 20
-0.0000000000000568
 30
0.0
 40
6.0
  0
LINE
  8
SIZE
  6
CONTINUOUS
 62
    30
 10
345.80903825403863
 20
-0.0000000000000568
 30
0.0
 11
345.80903825403863
 21
-12.00000000000006
 31
0.0
  0
TEXT
  8
SIZE
  6
CONTINUOUS
 62
    30
 10
320.80903825403863
 20
-168.66219385136091
 30
0.0
 40
64.0
  1
48
 50
90.0
 41
0.9
 72
     1
 11
320.80903825403863
 21
-122.03362242278951
 31
0.0
  0
POINT
  8
DEFPOINTS
  6
CONTINUOUS
 62
    30
 10
35.656418000000137
 20
48.084793999999988
 30
0.0
  0
POINT
  8
DEFPOINTS
  6
CONTINUOUS
 62
    30
 10
104.47310899999999
 20
0.0
 30
0.0
  0
POINT
  8
DEFPOINTS
  6
CONTINUOUS
 62
    30
 10
345.80903825403863
 20
-0.0000000000000568
 30
0.0
  0
LINE
  8
SIZE
  6
CONTINUOUS
 62
    30
 10
61.5
 20
90.0
 30
0.0
 11
472.45946557780832
 21
89.999999999999886
 31
0.0
  0
LINE
  8
SIZE
  6
CONTINUOUS
 62
    30
 10
124.47310899999999
 20
0.0
 30
0.0
 11
472.45946557780832
 21
-0.0000000000001137
 31
0.0
  0
LINE
  8
SIZE
  6
CONTINUOUS
 62
    30
 10
452.45946557780832
 20
77.999999999999886
 30
0.0
 11
452.45946557780832
 21
11.99999999999989
 31
0.0
  0
LINE
  8
SIZE
  6
CONTINUOUS
 62
    30
 10
452.45946557780832
 20
-0.0000000000001137
 30
0.0
 11
452.45946557780798
 21
-191.64952989522061
 31
0.0
  0
CIRCLE
  8
SIZE
  6
CONTINUOUS
 62
    30
 10
452.45946557780832
 20
89.999999999999886
 30
0.0
 40
6.0
  0
LINE
  8
SIZE
  6
CONTINUOUS
 62
    30
 10
452.45946557780832
 20
89.999999999999886
 30
0.0
 11
452.45946557780832
 21
77.999999999999886
 31
0.0
  0
CIRCLE
  8
SIZE
  6
CONTINUOUS
 62
    30
 10
452.45946557780832
 20
-0.0000000000001137
 30
0.0
 40
6.0
  0
LINE
  8
SIZE
  6
CONTINUOUS
 62
    30
 10
452.45946557780832
 20
-0.0000000000001137
 30
0.0
 11
452.45946557780832
 21
11.99999999999989
 31
0.0
  0
TEXT
  8
SIZE
  6
CONTINUOUS
 62
    30
 10
427.45946557780832
 20
-166.64952989522061
 30
0.0
 40
64.0
  1
90
 50
90.0
 41
0.9
 72
     1
 11
427.45946557780832
 21
-120.02095846664911
 31
0.0
  0
POINT
  8
DEFPOINTS
  6
CONTINUOUS
 62
    30
 10
41.5
 20
90.0
 30
0.0
  0
POINT
  8
DEFPOINTS
  6
CONTINUOUS
 62
    30
 10
104.47310899999999
 20
0.0
 30
0.0
  0
POINT
  8
DEFPOINTS
  6
CONTINUOUS
 62
    30
 10
452.45946557780832
 20
-0.0000000000001137
 30
0.0
  0
LINE
  8
SIZE
  6
CONTINUOUS
 62
    30
 10
-346.11496608476278
 20
-1.5589580805310559
 30
0.0
 11
-46.887203856201722
 21
77.596769995401019
 31
0.0
  0
LINE
  8
SIZE
  6
CONTINUOUS
 62
    30
 10
46.887203856201722
 20
102.403230004599
 30
0.0
 11
58.488161511344401
 21
105.472070418108
 31
0.0
  0
TEXT
  8
SIZE
  6
CONTINUOUS
 62
    30
 10
-342.12828864432902
 20
25.355585194817891
 30
0.0
 40
64.0
  1
φ73
 50
14.817242528530301
 41
0.9
 72
     1
 11
-258.07106403449512
 21
47.591526019557527
 31
0.0
  0
LINE
  8
SIZE
  6
CONTINUOUS
 62
    30
 10
35.28624620105893
 20
99.334389591089916
 30
0.0
 11
-35.28624620105893
 21
80.665610408910027
 31
0.0
  0
CIRCLE
  8
SIZE
  6
CONTINUOUS
 62
    30
 10
35.28624620105893
 20
99.334389591089916
 30
0.0
 40
6.0
  0
LINE
  8
SIZE
  6
CONTINUOUS
 62
    30
 10
35.28624620105893
 20
99.334389591089916
 30
0.0
 11
46.887203856201722
 21
102.403230004599
 31
0.0
  0
CIRCLE
  8
SIZE
  6
CONTINUOUS
 62
    30
 10
-35.28624620105893
 20
80.665610408910027
 30
0.0
 40
6.0
  0
LINE
  8
SIZE
  6
CONTINUOUS
 62
    30
 10
-35.28624620105893
 20
80.665610408910027
 30
0.0
 11
-46.887203856201722
 21
77.596769995401019
 31
0.0
  0
POINT
  8
DEFPOINTS
  6
CONTINUOUS
 62
    30
 10
-35.28624620105893
 20
80.665610408910027
 30
0.0
  0
POINT
  8
DEFPOINTS
  6
CONTINUOUS
 62
    30
 10
35.28624620105893
 20
99.334389591089916
 30
0.0
  0
LINE
  8
SIZE
  6
CONTINUOUS
 62
    30
 10
-346.03348684038451
 20
269.00798862337763
 30
0.0
 11
-46.461045235324718
 21
114.0349520298064
 31
0.0
  0
LINE
  8
SIZE
  6
CONTINUOUS
 62
    30
 10
46.461045235324718
 20
65.96504797019378
 30
0.0
 11
57.119340817054763
 21
60.451361790107462
 31
0.0
  0
TEXT
  8
SIZE
  6
CONTINUOUS
 62
    30
 10
-316.45467662246932
 20
293.86296856333962
 30
0.0
 40
64.0
  1
φ80
 50
332.6468388913899
 41
0.9
 72
     1
 11
-239.22771206456289
 21
253.91237384134249
 31
0.0
  0
LINE
  8
SIZE
  6
CONTINUOUS
 62
    30
 10
35.802749653594788
 20
71.478734150280104
 30
0.0
 11
-35.802749653594788
 21
108.52126584972
 31
0.0
  0
CIRCLE
  8
SIZE
  6
CONTINUOUS
 62
    30
 10
35.802749653594788
 20
71.478734150280104
 30
0.0
 40
6.0
  0
LINE
  8
SIZE
  6
CONTINUOUS
 62
    30
 10
35.802749653594788
 20
71.478734150280104
 30
0.0
 11
46.461045235324718
 21
65.96504797019378
 31
0.0
  0
CIRCLE
  8
SIZE
  6
CONTINUOUS
 62
    30
 10
-35.802749653594788
 20
108.52126584972
 30
0.0
 40
6.0
  0
LINE
  8
SIZE
  6
CONTINUOUS
 62
    30
 10
-35.802749653594788
 20
108.52126584972
 30
0.0
 11
-46.461045235324718
 21
114.03495202980631
 31
0.0
  0
POINT
  8
DEFPOINTS
  6
CONTINUOUS
 62
    30
 10
-35.802749653594788
 20
108.52126584972
 30
0.0
  0
POINT
  8
DEFPOINTS
  6
CONTINUOUS
 62
    30
 10
35.802749653594788
 20
71.478734150280104
 30
0.0
  0
LINE
  8
SIZE
  6
CONTINUOUS
 62
    30
 10
-72.000304999999912
 20
20.0
 30
0.0
 11
-72.000304999999912
 21
411.46064705959179
 31
0.0
  0
LINE
  8
SIZE
  6
CONTINUOUS
 62
    30
 10
71.999695000000088
 20
20.03490399999998
 30
0.0
 11
71.999695000000202
 21
411.46064705959179
 31
0.0
  0
LINE
  8
SIZE
  6
CONTINUOUS
 62
    30
 10
-84.000304999999855
 20
391.46064705959179
 30
0.0
 11
-96.000304999999855
 21
391.46064705959179
 31
0.0
  0
LINE
  8
SIZE
  6
CONTINUOUS
 62
    30
 10
83.999695000000088
 20
391.46064705959179
 30
0.0
 11
95.999695000000202
 21
391.46064705959179
 31
0.0
  0
LINE
  8
SIZE
  6
CONTINUOUS
 62
    30
 10
-72.000304999999912
 20
391.46064705959179
 30
0.0
 11
71.999695000000202
 21
391.46064705959179
 31
0.0
  0
CIRCLE
  8
SIZE
  6
CONTINUOUS
 62
    30
 10
-72.000304999999912
 20
391.46064705959179
 30
0.0
 40
6.0
  0
LINE
  8
SIZE
  6
CONTINUOUS
 62
    30
 10
-72.000304999999912
 20
391.46064705959179
 30
0.0
 11
-84.000304999999855
 21
391.46064705959179
 31
0.0
  0
CIRCLE
  8
SIZE
  6
CONTINUOUS
 62
    30
 10
71.999695000000202
 20
391.46064705959179
 30
0.0
 40
6.0
  0
LINE
  8
SIZE
  6
CONTINUOUS
 62
    30
 10
71.999695000000202
 20
391.46064705959179
 30
0.0
 11
83.999695000000088
 21
391.46064705959179
 31
0.0
  0
TEXT
  8
SIZE
  6
CONTINUOUS
 62
    30
 10
-106.4231621428569
 20
416.46064705959179
 30
0.0
 40
64.0
  1
□144
 41
0.9
 72
     1
 11
-0.0003049999997984
 21
416.46064705959179
 31
0.0
  0
POINT
  8
DEFPOINTS
  6
CONTINUOUS
 62
    30
 10
-72.000304999999912
 20
0.0
 30
0.0
  0
POINT
  8
DEFPOINTS
  6
CONTINUOUS
 62
    30
 10
71.999695000000088
 20
0.0349039999999832
 30
0.0
  0
POINT
  8
DEFPOINTS
  6
CONTINUOUS
 62
    30
 10
71.999695000000202
 20
391.46064705959179
 30
0.0
  0
TEXT
  8
NOTE
  6
CONTINUOUS
 62
     4
 10
325.67297673569578
 20
289.03894974236329
 30
0.0
 40
63.999999999999993
  1
8-φ5
 41
0.9
  0
LINE
  8
NOTE
  6
CONTINUOUS
 62
     4
 10
583.28886801833346
 20
256.21052159878951
 30
0.0
 11
308.64148866872102
 21
256.21047683544111
 31
0.0
  0
ENDSEC
  0
EOF
